  0
SECTION
  2
HEADER
  9
$ACADVER
  1
AC1015
  9
$ACADMAINTVER
 70
     6
  9
$DWGCODEPAGE
  3
ANSI_1252
  9
$INSBASE
 10
0.0
 20
0.0
 30
0.0
  9
$EXTMIN
 10
-9.748499716897456
 20
-0.0424796135876662
 30
-0.0000000000112498
  9
$EXTMAX
 10
9.754418889681219
 20
15.42749760591084
 30
0.0000000000002956
  9
$LIMMIN
 10
0.0
 20
0.0
  9
$LIMMAX
 10
31.5
 20
24.0
  9
$ORTHOMODE
 70
     1
  9
$REGENMODE
 70
     1
  9
$FILLMODE
 70
     1
  9
$QTEXTMODE
 70
     0
  9
$MIRRTEXT
 70
     0
  9
$LTSCALE
 40
1.0
  9
$ATTMODE
 70
     1
  9
$TEXTSIZE
 40
0.27
  9
$TRACEWID
 40
0.05
  9
$TEXTSTYLE
  7
STANDARD
  9
$CLAYER
  8
0
  9
$CELTYPE
  6
BYLAYER
  9
$CECOLOR
 62
   256
  9
$CELTSCALE
 40
1.0
  9
$DISPSILH
 70
     0
  9
$DIMSCALE
 40
1.0
  9
$DIMASZ
 40
0.375
  9
$DIMEXO
 40
0.0625
  9
$DIMDLI
 40
0.75
  9
$DIMRND
 40
0.0
  9
$DIMDLE
 40
0.0
  9
$DIMEXE
 40
0.18
  9
$DIMTP
 40
0.0
  9
$DIMTM
 40
0.0
  9
$DIMTXT
 40
0.27
  9
$DIMCEN
 40
-0.06
  9
$DIMTSZ
 40
0.0
  9
$DIMTOL
 70
     0
  9
$DIMLIM
 70
     0
  9
$DIMTIH
 70
     1
  9
$DIMTOH
 70
     1
  9
$DIMSE1
 70
     0
  9
$DIMSE2
 70
     0
  9
$DIMTAD
 70
     0
  9
$DIMZIN
 70
     0
  9
$DIMBLK
  1

  9
$DIMASO
 70
     0
  9
$DIMSHO
 70
     0
  9
$DIMPOST
  1

  9
$DIMAPOST
  1

  9
$DIMALT
 70
     0
  9
$DIMALTD
 70
     2
  9
$DIMALTF
 40
25.4
  9
$DIMLFAC
 40
1.0
  9
$DIMTOFL
 70
     0
  9
$DIMTVP
 40
0.0
  9
$DIMTIX
 70
     0
  9
$DIMSOXD
 70
     0
  9
$DIMSAH
 70
     0
  9
$DIMBLK1
  1

  9
$DIMBLK2
  1

  9
$DIMSTYLE
  2
STANDARD
  9
$DIMCLRD
 70
     0
  9
$DIMCLRE
 70
     0
  9
$DIMCLRT
 70
     0
  9
$DIMTFAC
 40
1.0
  9
$DIMGAP
 40
0.09
  9
$DIMJUST
 70
     0
  9
$DIMSD1
 70
     0
  9
$DIMSD2
 70
     0
  9
$DIMTOLJ
 70
     1
  9
$DIMTZIN
 70
     0
  9
$DIMALTZ
 70
     0
  9
$DIMALTTZ
 70
     0
  9
$DIMUPT
 70
     0
  9
$DIMDEC
 70
     4
  9
$DIMTDEC
 70
     4
  9
$DIMALTU
 70
     2
  9
$DIMALTTD
 70
     2
  9
$DIMTXSTY
  7
STANDARD
  9
$DIMAUNIT
 70
     0
  9
$DIMADEC
 70
     0
  9
$DIMALTRND
 40
0.0
  9
$DIMAZIN
 70
     0
  9
$DIMDSEP
 70
    46
  9
$DIMATFIT
 70
     3
  9
$DIMFRAC
 70
     0
  9
$DIMLDRBLK
  1

  9
$DIMLUNIT
 70
     2
  9
$DIMLWD
 70
    -2
  9
$DIMLWE
 70
    -2
  9
$DIMTMOVE
 70
     2
  9
$LUNITS
 70
     2
  9
$LUPREC
 70
     4
  9
$SKETCHINC
 40
0.1
  9
$FILLETRAD
 40
0.0
  9
$AUNITS
 70
     0
  9
$AUPREC
 70
     0
  9
$MENU
  1
ACAD
  9
$ELEVATION
 40
0.0
  9
$PELEVATION
 40
0.0
  9
$THICKNESS
 40
0.0
  9
$LIMCHECK
 70
     0
  9
$CHAMFERA
 40
0.0
  9
$CHAMFERB
 40
0.0
  9
$CHAMFERC
 40
0.0
  9
$CHAMFERD
 40
0.0
  9
$SKPOLY
 70
     0
  9
$TDCREATE
 40
2447075.906790393
  9
$TDUCREATE
 40
2447076.240123727
  9
$TDUPDATE
 40
2454167.977660266
  9
$TDUUPDATE
 40
2454168.3109936
  9
$TDINDWG
 40
0.1588204745
  9
$TDUSRTIMER
 40
0.1588204745
  9
$USRTIMER
 70
     1
  9
$ANGBASE
 50
0.0
  9
$ANGDIR
 70
     0
  9
$PDMODE
 70
     0
  9
$PDSIZE
 40
0.0
  9
$PLINEWID
 40
0.0
  9
$SPLFRAME
 70
     0
  9
$SPLINETYPE
 70
     6
  9
$SPLINESEGS
 70
     8
  9
$HANDSEED
  5
1FA
  9
$SURFTAB1
 70
     6
  9
$SURFTAB2
 70
     6
  9
$SURFTYPE
 70
     6
  9
$SURFU
 70
     6
  9
$SURFV
 70
     6
  9
$UCSBASE
  2

  9
$UCSNAME
  2

  9
$UCSORG
 10
0.0
 20
0.0
 30
0.0
  9
$UCSXDIR
 10
1.0
 20
0.0
 30
0.0
  9
$UCSYDIR
 10
0.0
 20
1.0
 30
0.0
  9
$UCSORTHOREF
  2

  9
$UCSORTHOVIEW
 70
     0
  9
$UCSORGTOP
 10
0.0
 20
0.0
 30
0.0
  9
$UCSORGBOTTOM
 10
0.0
 20
0.0
 30
0.0
  9
$UCSORGLEFT
 10
0.0
 20
0.0
 30
0.0
  9
$UCSORGRIGHT
 10
0.0
 20
0.0
 30
0.0
  9
$UCSORGFRONT
 10
0.0
 20
0.0
 30
0.0
  9
$UCSORGBACK
 10
0.0
 20
0.0
 30
0.0
  9
$PUCSBASE
  2

  9
$PUCSNAME
  2

  9
$PUCSORG
 10
0.0
 20
0.0
 30
0.0
  9
$PUCSXDIR
 10
1.0
 20
0.0
 30
0.0
  9
$PUCSYDIR
 10
0.0
 20
1.0
 30
0.0
  9
$PUCSORTHOREF
  2

  9
$PUCSORTHOVIEW
 70
     0
  9
$PUCSORGTOP
 10
0.0
 20
0.0
 30
0.0
  9
$PUCSORGBOTTOM
 10
0.0
 20
0.0
 30
0.0
  9
$PUCSORGLEFT
 10
0.0
 20
0.0
 30
0.0
  9
$PUCSORGRIGHT
 10
0.0
 20
0.0
 30
0.0
  9
$PUCSORGFRONT
 10
0.0
 20
0.0
 30
0.0
  9
$PUCSORGBACK
 10
0.0
 20
0.0
 30
0.0
  9
$USERI1
 70
     0
  9
$USERI2
 70
     0
  9
$USERI3
 70
     0
  9
$USERI4
 70
     0
  9
$USERI5
 70
     0
  9
$USERR1
 40
0.0
  9
$USERR2
 40
0.0
  9
$USERR3
 40
0.0
  9
$USERR4
 40
0.0
  9
$USERR5
 40
0.0
  9
$WORLDVIEW
 70
     1
  9
$SHADEDGE
 70
     3
  9
$SHADEDIF
 70
    70
  9
$TILEMODE
 70
     1
  9
$MAXACTVP
 70
    16
  9
$PINSBASE
 10
0.0
 20
0.0
 30
0.0
  9
$PLIMCHECK
 70
     0
  9
$PEXTMIN
 10
1.000000000000000E+20
 20
1.000000000000000E+20
 30
1.000000000000000E+20
  9
$PEXTMAX
 10
-1.000000000000000E+20
 20
-1.000000000000000E+20
 30
-1.000000000000000E+20
  9
$PLIMMIN
 10
0.0
 20
0.0
  9
$PLIMMAX
 10
12.0
 20
9.0
  9
$UNITMODE
 70
     0
  9
$VISRETAIN
 70
     0
  9
$PLINEGEN
 70
     0
  9
$PSLTSCALE
 70
     0
  9
$TREEDEPTH
 70
  3020
  9
$CMLSTYLE
  2
STANDARD
  9
$CMLJUST
 70
     0
  9
$CMLSCALE
 40
1.0
  9
$PROXYGRAPHICS
 70
     1
  9
$MEASUREMENT
 70
     0
  9
$CELWEIGHT
370
    -1
  9
$ENDCAPS
280
     0
  9
$JOINSTYLE
280
     0
  9
$LWDISPLAY
290
     0
  9
$INSUNITS
 70
     0
  9
$HYPERLINKBASE
  1

  9
$STYLESHEET
  1

  9
$XEDIT
290
     1
  9
$CEPSNTYPE
380
     0
  9
$PSTYLEMODE
290
     1
  9
$FINGERPRINTGUID
  2
{1BA6B494-B35A-4D4C-9C5C-F67E14108F84}
  9
$VERSIONGUID
  2
{E639E58B-F18F-4C32-A41C-708F79D48D46}
  9
$EXTNAMES
290
     1
  9
$PSVPSCALE
 40
0.0
  9
$OLESTARTUP
290
     0
  0
ENDSEC
  0
SECTION
  2
CLASSES
  0
CLASS
  1
DICTIONARYVAR
  2
AcDbDictionaryVar
  3
AutoCAD 2000
 90
        0
280
     0
281
     0
  0
CLASS
  1
LWPOLYLINE
  2
AcDbPolyline
  3
AutoCAD 2000
 90
        0
280
     0
281
     1
  0
CLASS
  1
ACDBDICTIONARYWDFLT
  2
AcDbDictionaryWithDefault
  3
AutoCAD 2000
 90
        0
280
     0
281
     0
  0
CLASS
  1
ACDBPLACEHOLDER
  2
AcDbPlaceHolder
  3
ObjectDBX Classes
 90
        0
280
     0
281
     0
  0
CLASS
  1
LAYOUT
  2
AcDbLayout
  3
ObjectDBX Classes
 90
        0
280
     0
281
     0
  0
CLASS
  1
TABLESTYLE
  2
AcDbTableStyle
  3
ObjectDBX Classes
 90
     2047
280
     1
281
     0
  0
ENDSEC
  0
SECTION
  2
TABLES
  0
TABLE
  2
VPORT
  5
19
330
0
100
AcDbSymbolTable
 70
     2
  0
VPORT
  5
1EA
330
19
100
AcDbSymbolTableRecord
100
AcDbViewportTableRecord
  2
*Active
 70
     0
 10
0.0
 20
0.0
 11
1.0
 21
1.0
 12
10.87575014155127
 22
11.97876019320617
 13
0.0
 23
0.0
 14
0.0625
 24
0.0625
 15
0.5
 25
0.5
 16
0.0
 26
0.0
 36
1.0
 17
0.0
 27
0.0
 37
0.0
 40
24.34238580419375
 41
1.814583333333333
 42
50.0
 43
0.0
 44
0.0
 50
0.0
 51
0.0
 71
     0
 72
   100
 73
     1
 74
     0
 75
     0
 76
     0
 77
     0
 78
     0
281
     0
 65
     1
110
0.0
120
0.0
130
0.0
111
1.0
121
0.0
131
0.0
112
0.0
122
1.0
132
0.0
 79
     0
146
0.0
  0
ENDTAB
  0
TABLE
  2
LTYPE
  5
14
330
0
100
AcDbSymbolTable
 70
     2
  0
LTYPE
  5
15
330
14
100
AcDbSymbolTableRecord
100
AcDbLinetypeTableRecord
  2
BYBLOCK
 70
     0
  3

 72
    65
 73
     0
 40
0.0
  0
LTYPE
  5
16
330
14
100
AcDbSymbolTableRecord
100
AcDbLinetypeTableRecord
  2
BYLAYER
 70
     0
  3

 72
    65
 73
     0
 40
0.0
  0
LTYPE
  5
8
330
14
100
AcDbSymbolTableRecord
100
AcDbLinetypeTableRecord
  2
CONTINUOUS
 70
     0
  3
Solid line
 72
    65
 73
     0
 40
0.0
  0
LTYPE
  5
1E9
330
14
100
AcDbSymbolTableRecord
100
AcDbLinetypeTableRecord
  2
HIDDEN
 70
     0
  3
Hidden __ __ __ __ __ __ __ __ __ __ __ __ __ _
 72
    65
 73
     2
 40
0.375
 49
0.25
 74
     0
 49
-0.125
 74
     0
  0
ENDTAB
  0
TABLE
  2
LAYER
  5
10
330
0
100
AcDbSymbolTable
 70
     1
  0
LAYER
  5
4
330
10
100
AcDbSymbolTableRecord
100
AcDbLayerTableRecord
  2
0
 70
     0
 62
     7
  6
CONTINUOUS
370
    -3
390
5
  0
ENDTAB
  0
TABLE
  2
STYLE
  5
11
330
0
100
AcDbSymbolTable
 70
     2
  0
STYLE
  5
12
330
11
100
AcDbSymbolTableRecord
100
AcDbTextStyleTableRecord
  2
STANDARD
 70
     0
 40
0.0
 41
1.0
 50
0.0
 71
     0
 42
0.27
  3
TXT
  4

  0
ENDTAB
  0
TABLE
  2
VIEW
  5
17
330
0
100
AcDbSymbolTable
 70
     0
  0
ENDTAB
  0
TABLE
  2
UCS
  5
18
330
0
100
AcDbSymbolTable
 70
     0
  0
ENDTAB
  0
TABLE
  2
APPID
  5
1B
330
0
100
AcDbSymbolTable
 70
     1
  0
APPID
  5
1C
330
1B
100
AcDbSymbolTableRecord
100
AcDbRegAppTableRecord
  2
ACAD
 70
     0
  0
ENDTAB
  0
TABLE
  2
DIMSTYLE
  5
1D
330
0
100
AcDbSymbolTable
 70
     1
100
AcDbDimStyleTable
  0
DIMSTYLE
105
24
330
1D
100
AcDbSymbolTableRecord
100
AcDbDimStyleTableRecord
  2
STANDARD
 70
     0
  3

  4

340
12
  0
ENDTAB
  0
TABLE
  2
BLOCK_RECORD
  5
1
330
0
100
AcDbSymbolTable
 70
     0
  0
BLOCK_RECORD
  5
2
330
1
100
AcDbSymbolTableRecord
100
AcDbBlockTableRecord
  2
*MODEL_SPACE
340
A
  0
BLOCK_RECORD
  5
C
330
1
100
AcDbSymbolTableRecord
100
AcDbBlockTableRecord
  2
*PAPER_SPACE
340
F
  0
ENDTAB
  0
ENDSEC
  0
SECTION
  2
BLOCKS
  0
BLOCK
  5
3
330
2
100
AcDbEntity
  8
0
100
AcDbBlockBegin
  2
*MODEL_SPACE
 70
     0
 10
0.0
 20
0.0
 30
0.0
  3
*MODEL_SPACE
  1

  4

  0
ENDBLK
  5
9
330
2
100
AcDbEntity
  8
0
100
AcDbBlockEnd
  0
BLOCK
  5
D
330
C
100
AcDbEntity
 67
     1
  8
0
100
AcDbBlockBegin
  2
*PAPER_SPACE
 70
     0
 10
0.0
 20
0.0
 30
0.0
  3
*PAPER_SPACE
  1

  4

  0
ENDBLK
  5
E
330
C
100
AcDbEntity
 67
     1
  8
0
100
AcDbBlockEnd
  0
ENDSEC
  0
SECTION
  2
ENTITIES
  0
LINE
  5
F1
330
2
100
AcDbEntity
  8
0
100
AcDbLine
 10
3.972653722339683
 20
9.453895830752158
 30
0.0
 11
3.972660428729199
 21
1.694653527535559
 31
0.0
  0
LINE
  5
F2
330
2
100
AcDbEntity
  8
0
100
AcDbLine
 10
2.755629999999997
 20
0.1821800000000025
 30
0.0
 11
2.755629999999997
 21
5.145110000000003
 31
0.0
  0
LINE
  5
F3
330
2
100
AcDbEntity
  8
0
100
AcDbLine
 10
-2.744410000000002
 20
9.454767565343788
 30
0.0
 11
-2.744410000000002
 21
1.1294
 31
0.0
  0
LINE
  5
F4
330
2
100
AcDbEntity
  8
0
100
AcDbLine
 10
-2.82302
 20
9.454777767280094
 30
0.0
 11
-2.82302
 21
1.1294
 31
0.0
  0
LINE
  5
F5
330
2
100
AcDbEntity
  8
0
100
AcDbLine
 10
2.834559999999996
 20
5.145110000000003
 30
0.0
 11
2.834559999999996
 21
0.1857700000000016
 31
0.0
  0
LINE
  5
F6
330
2
100
AcDbEntity
  8
0
100
AcDbLine
 10
-3.977823365464634
 20
9.454927636639949
 30
0.0
 11
-3.977830072745952
 21
1.694653527535559
 31
0.0
  0
LINE
  5
F7
330
2
100
AcDbEntity
  8
0
100
AcDbLine
 10
2.634560000000001
 20
0.0000000000000027
 30
0.0
 11
-2.634560000000001
 21
-0.0000000000000018
 31
0.0
  0
LINE
  5
F8
330
2
100
AcDbEntity
  8
0
100
AcDbLine
 10
2.630614073870616
 20
0.0790700010145677
 30
0.0
 11
-2.625959999999999
 21
0.0793700000000008
 31
0.0
  0
LINE
  5
F9
330
2
100
AcDbEntity
  8
0
100
AcDbLine
 10
-2.839729644016749
 20
0.2167999999999992
 30
0.0
 11
-3.977830072745952
 21
1.694653527535561
 31
0.0
  0
ARC
  5
FA
330
2
100
AcDbEntity
  8
0
100
AcDbCircle
 10
-2.623020000000004
 20
0.2000000000000028
 30
0.0
 40
0.2
100
AcDbArc
 50
180.0
 51
270.0
  0
ARC
  5
FB
330
2
100
AcDbEntity
  8
0
100
AcDbCircle
 10
-2.619410000000002
 20
0.2043700000000008
 30
0.0
 40
0.125
100
AcDbArc
 50
180.0
 51
269.9927
  0
LINE
  5
FC
330
2
100
AcDbEntity
  8
0
100
AcDbLine
 10
-2.82302
 20
1.139220000000002
 30
0.0
 11
-2.82302
 21
0.1971900000000026
 31
0.0
  0
LINE
  5
FD
330
2
100
AcDbEntity
  8
0
100
AcDbLine
 10
-2.744410000000002
 20
1.139220000000002
 30
0.0
 11
-2.744410000000002
 21
0.201509999999999
 31
0.0
  0
LINE
  5
FE
330
2
100
AcDbEntity
  8
0
100
AcDbLine
 10
-0.6327568190744985
 20
0.0793700000000008
 30
0.0
 11
-0.6327568190744977
 21
-0.0000000000000018
 31
0.0
  0
LINE
  5
FF
330
2
100
AcDbEntity
  8
0
100
AcDbLine
 10
-0.8827568190744994
 20
0.0793699999999999
 30
0.0
 11
-0.8827568190744994
 21
-0.0000000000000036
 31
0.0
  0
LINE
  5
100
330
2
100
AcDbEntity
  8
0
100
AcDbLine
 10
-0.7911112910576392
 20
0.0793700000000008
 30
0.0
 11
-0.9086112910576389
 21
0.0793700000000008
 31
0.0
  0
CIRCLE
  5
102
330
2
100
AcDbEntity
  8
0
100
AcDbCircle
 10
-3.657329184973044
 20
1.846385180369888
 30
0.0
 40
0.109
  0
CIRCLE
  5
106
330
2
100
AcDbEntity
  8
0
100
AcDbCircle
 10
-3.215319644016752
 20
1.419746286394432
 30
0.0
 40
0.109
  0
CIRCLE
  5
10A
330
2
100
AcDbEntity
  8
0
100
AcDbCircle
 10
-3.278569644016748
 20
2.970254468046141
 30
0.0
 40
0.109
  0
CIRCLE
  5
10C
330
2
100
AcDbEntity
  8
0
100
AcDbCircle
 10
-3.657329184973044
 20
3.897257273393159
 30
0.0
 40
0.109
  0
LINE
  5
110
330
2
100
AcDbEntity
  8
0
100
AcDbLine
 10
2.834559999999996
 20
0.2167999999999992
 30
0.0
 11
3.972660428729206
 21
1.694653527535561
 31
0.0
  0
LINE
  5
111
330
2
100
AcDbEntity
  8
0
100
AcDbLine
 10
0.9297431809255023
 20
0.0792907369921201
 30
0.0
 11
0.9297431809255023
 21
-0.0000000000000009
 31
0.0
  0
LINE
  5
112
330
2
100
AcDbEntity
  8
0
100
AcDbLine
 10
0.6797431809255023
 20
0.0793231817711062
 30
0.0
 11
0.6797431809255023
 21
-0.0000000000000018
 31
0.0
  0
ARC
  5
113
330
2
100
AcDbEntity
  8
0
100
AcDbCircle
 10
2.634560000000001
 20
0.2000000000000028
 30
0.0
 40
0.2
100
AcDbArc
 50
270.0
 51
0.0
  0
ARC
  5
114
330
2
100
AcDbEntity
  8
0
100
AcDbCircle
 10
2.630629999999997
 20
0.2040700000000015
 30
0.0
 40
0.125
100
AcDbArc
 50
269.9927
 51
0.0
  0
CIRCLE
  5
116
330
2
100
AcDbEntity
  8
0
100
AcDbCircle
 10
3.210149999999999
 20
1.419746286394432
 30
0.0
 40
0.109
  0
CIRCLE
  5
11A
330
2
100
AcDbEntity
  8
0
100
AcDbCircle
 10
3.652159540956298
 20
1.846385180369888
 30
0.0
 40
0.109
  0
CIRCLE
  5
11C
330
2
100
AcDbEntity
  8
0
100
AcDbCircle
 10
3.273400000000002
 20
2.970254468046141
 30
0.0
 40
0.109
  0
CIRCLE
  5
121
330
2
100
AcDbEntity
  8
0
100
AcDbCircle
 10
3.652159540956298
 20
3.897257273393159
 30
0.0
 40
0.109
  0
CIRCLE
  5
125
330
2
100
AcDbEntity
  8
0
100
AcDbCircle
 10
-3.657329184973044
 20
8.763570677531583
 30
0.0
 40
0.109
  0
CIRCLE
  5
126
330
2
100
AcDbEntity
  8
0
100
AcDbCircle
 10
-3.657329184973044
 20
5.474543942501379
 30
0.0
 40
0.109
  0
CIRCLE
  5
12B
330
2
100
AcDbEntity
  8
0
100
AcDbCircle
 10
-3.277979644016746
 20
6.696925650979674
 30
0.0
 40
0.109
  0
CIRCLE
  5
12C
330
2
100
AcDbEntity
  8
0
100
AcDbCircle
 10
-3.657329184973044
 20
7.283438833546978
 30
0.0
 40
0.109
  0
LINE
  5
130
330
2
100
AcDbEntity
  8
0
100
AcDbLine
 10
-3.977823365464634
 20
9.454927636639949
 30
0.0
 11
-2.744410000000002
 21
9.454767565343788
 31
0.0
  0
CIRCLE
  5
132
330
2
100
AcDbEntity
  8
0
100
AcDbCircle
 10
3.652159540956298
 20
8.763570677531583
 30
0.0
 40
0.109
  0
LINE
  5
134
330
2
100
AcDbEntity
  8
0
100
AcDbLine
 10
2.834559999999996
 20
9.01422
 30
0.0
 11
2.834559999999996
 21
5.139220000000002
 31
0.0
  0
LINE
  5
135
330
2
100
AcDbEntity
  8
0
100
AcDbLine
 10
2.755629999999997
 20
5.139220000000002
 30
0.0
 11
2.755629999999997
 21
9.454053775014925
 31
0.0
  0
CIRCLE
  5
136
330
2
100
AcDbEntity
  8
0
100
AcDbCircle
 10
3.652159540956298
 20
5.474543942501379
 30
0.0
 40
0.109
  0
CIRCLE
  5
139
330
2
100
AcDbEntity
  8
0
100
AcDbCircle
 10
3.27281
 20
6.696925650979674
 30
0.0
 40
0.109
  0
CIRCLE
  5
13D
330
2
100
AcDbEntity
  8
0
100
AcDbCircle
 10
3.652159540956298
 20
7.283438833546978
 30
0.0
 40
0.109
  0
LINE
  5
140
330
2
100
AcDbEntity
  8
0
100
AcDbLine
 10
2.755629999999997
 20
9.454053775014929
 30
0.0
 11
3.972653722339683
 21
9.453895830752158
 31
0.0
  0
LINE
  5
141
330
2
100
AcDbEntity
  8
0
100
AcDbLine
 10
2.834559999999996
 20
9.454043531549308
 30
0.0
 11
2.834559999999996
 21
9.001720000000002
 31
0.0
  0
LINE
  5
143
330
2
100
AcDbEntity
  8
0
100
AcDbLine
 10
9.752564414096295
 20
0.4942047235656393
 30
0.0
 11
9.752564414096302
 21
9.513344744436749
 31
0.0
  0
LINE
  5
144
330
2
100
AcDbEntity
  8
0
100
AcDbLine
 10
8.709104414096299
 20
9.513480163753071
 30
0.0
 11
8.709104414096299
 21
2.198784723565643
 31
0.0
  0
LINE
  5
145
330
2
100
AcDbEntity
  8
0
100
AcDbLine
 10
9.646608414096296
 20
3.12332472356564
 30
0.0
 11
9.646608414096296
 21
9.513358495312756
 31
0.0
  0
LINE
  5
146
330
2
100
AcDbEntity
  8
0
100
AcDbLine
 10
8.709104414096299
 20
2.198784723565643
 30
0.0
 11
7.654914414096293
 21
0.4502647235656401
 31
0.0
  0
LINE
  5
147
330
2
100
AcDbEntity
  8
0
100
AcDbLine
 10
9.646608414096296
 20
0.4942047235656393
 30
0.0
 11
9.646608414096296
 21
2.988704723565641
 31
0.0
  0
LINE
  5
148
330
2
100
AcDbEntity
  8
0
  6
HIDDEN
100
AcDbLine
 10
7.654914414096293
 20
0.1439547235656402
 30
0.0
 11
9.646608414096296
 21
0.1439547235656402
 31
0.0
  0
LINE
  5
149
330
2
100
AcDbEntity
  8
0
100
AcDbLine
 10
7.654914414096293
 20
0.0814547235656384
 30
0.0
 11
9.646608414096296
 21
0.0814547235656384
 31
0.0
  0
LINE
  5
14A
330
2
100
AcDbEntity
  8
0
100
AcDbLine
 10
7.654914414096293
 20
0.0814547235656384
 30
0.0
 11
7.654914414096293
 21
0.4502647235656401
 31
0.0
  0
LINE
  5
14B
330
2
100
AcDbEntity
  8
0
100
AcDbLine
 10
9.646608414096296
 20
0.4942047235656393
 30
0.0
 11
9.646608414096296
 21
0.0812947235656374
 31
0.0
  0
LINE
  5
14C
330
2
100
AcDbEntity
  8
0
100
AcDbLine
 10
9.646608414096296
 20
0.4942047235656393
 30
0.0
 11
9.752564414096295
 21
0.4942047235656393
 31
0.0
  0
CIRCLE
  5
14D
330
2
100
AcDbEntity
  8
0
100
AcDbCircle
 10
9.052954414096302
 20
1.089516490641246
 30
0.0
 40
0.109
  0
LINE
  5
150
330
2
100
AcDbEntity
  8
0
100
AcDbLine
 10
9.646608414096296
 20
3.13766472356564
 30
0.0
 11
9.646608414096296
 21
2.961324723565637
 31
0.0
  0
CIRCLE
  5
155
330
2
100
AcDbEntity
  8
0
100
AcDbCircle
 10
9.052954414096302
 20
3.01266472356564
 30
0.0
 40
0.109
  0
CIRCLE
  5
15E
330
2
100
AcDbEntity
  8
0
100
AcDbCircle
 10
9.052954414096302
 20
6.458965767330533
 30
0.0
 40
0.109
  0
LINE
  5
160
330
2
100
AcDbEntity
  8
0
100
AcDbLine
 10
8.709104414096291
 20
9.513480163753071
 30
0.0
 11
9.752564414096295
 21
9.513344744436749
 31
0.0
  0
LINE
  5
161
330
2
100
AcDbEntity
  8
0
100
AcDbLine
 10
-0.6327568190744985
 20
13.2533699034714
 30
0.0
 11
0.6797431809255023
 21
13.2533699034714
 31
0.0
  0
LINE
  5
162
330
2
100
AcDbEntity
  8
0
100
AcDbLine
 10
0.6797431809255006
 20
15.26467514305979
 30
0.0
 11
-0.6327568190744994
 21
15.26467514305979
 31
0.0
  0
SPLINE
  5
163
330
2
100
AcDbEntity
  8
0
100
AcDbSpline
210
0.0
220
0.0
230
1.0
 70
     8
 71
     3
 72
    10
 73
     6
 74
     4
 42
0.0000000001
 43
0.0000000001
 44
0.0000000001
 40
0.0
 40
0.0
 40
0.0
 40
0.0
 40
0.0923932037238946
 40
0.1588955845150431
 40
0.2301876951856931
 40
0.2301876951856931
 40
0.2301876951856931
 40
0.2301876951856931
 10
-2.895151214480237
 20
14.49403005614717
 30
0.0
 10
-2.86310550916146
 20
14.51148617064426
 30
0.0
 10
-2.807994084591311
 20
14.54150677177706
 30
0.0
 10
-2.754324636038108
 20
14.44958907335518
 30
0.0
 10
-2.712495197245949
 20
14.48800035160509
 30
0.0
 10
-2.690853483846837
 20
14.50787358105337
 30
0.0
 11
-2.895151214480237
 21
14.49403005614717
 31
0.0
 11
-2.805121728373365
 21
14.51479530899171
 31
0.0
 11
-2.753181589613135
 21
14.47326473427309
 31
0.0
 11
-2.690853483846837
 21
14.50787358105337
 31
0.0
  0
SPLINE
  5
164
330
2
100
AcDbEntity
  8
0
100
AcDbSpline
210
0.0
220
0.0
230
1.0
 70
     8
 71
     3
 72
    10
 73
     6
 74
     4
 42
0.0000000001
 43
0.0000000001
 44
0.0000000001
 40
0.0
 40
0.0
 40
0.0
 40
0.0
 40
0.0923932037238946
 40
0.1588955845150431
 40
0.2301876951856931
 40
0.2301876951856931
 40
0.2301876951856931
 40
0.2301876951856931
 10
-2.902076559565373
 20
14.40058617674337
 30
0.0
 10
-2.870030854246546
 20
14.41804229124114
 30
0.0
 10
-2.814919429676312
 20
14.44806289237509
 30
0.0
 10
-2.761249981123624
 20
14.35614519394626
 30
0.0
 10
-2.719420542330189
 20
14.39455647221339
 30
0.0
 10
-2.697778828931973
 20
14.41442970164958
 30
0.0
 11
-2.902076559565373
 21
14.40058617674337
 31
0.0
 11
-2.812047073458501
 21
14.42135142958791
 31
0.0
 11
-2.760106934698271
 21
14.37982085486929
 31
0.0
 11
-2.697778828931973
 21
14.41442970164958
 31
0.0
  0
LINE
  5
165
330
2
100
AcDbEntity
  8
0
100
AcDbLine
 10
-2.819256190595262
 20
13.25336990347139
 30
0.0
 11
-0.8827568190744985
 21
13.2533699034714
 31
0.0
  0
ARC
  5
166
330
2
100
AcDbEntity
  8
0
100
AcDbCircle
 10
-2.86538319059526
 20
15.27498290347139
 30
0.0
 40
0.125
100
AcDbArc
 50
0.0
 51
90.00000000000003
  0
LINE
  5
167
330
2
100
AcDbEntity
  8
0
100
AcDbLine
 10
-2.74038319059526
 20
14.38205531568267
 30
0.0
 11
-2.74038319059526
 21
13.25336990347139
 31
0.0
  0
LINE
  5
168
330
2
100
AcDbEntity
  8
0
100
AcDbLine
 10
-2.819256190595262
 20
14.42444612227019
 30
0.0
 11
-2.819256190595262
 21
13.25336990347139
 31
0.0
  0
ARC
  5
169
330
2
100
AcDbEntity
  8
0
100
AcDbCircle
 10
-2.881256190595259
 20
15.25879790347139
 30
0.0
 40
0.062
100
AcDbArc
 50
0.0
 51
90.00000000000003
  0
LINE
  5
16A
330
2
100
AcDbEntity
  8
0
100
AcDbLine
 10
-2.74038319059526
 20
15.25879790347139
 30
0.0
 11
-2.74038319059526
 21
14.47321142430398
 31
0.0
  0
LINE
  5
16B
330
2
100
AcDbEntity
  8
0
100
AcDbLine
 10
-2.819256190595262
 20
15.25879790347139
 30
0.0
 11
-2.819256190595262
 21
14.51948664710134
 31
0.0
  0
LINE
  5
16C
330
2
100
AcDbEntity
  8
0
100
AcDbLine
 10
-2.74038319059526
 20
15.27498290347139
 30
0.0
 11
-2.74038319059526
 21
15.25879790347139
 31
0.0
  0
LINE
  5
16D
330
2
100
AcDbEntity
  8
0
100
AcDbLine
 10
-2.881256190595259
 20
15.32079790347139
 30
0.0
 11
-3.980160204763472
 21
15.32079790347139
 31
0.0
  0
LINE
  5
16E
330
2
100
AcDbEntity
  8
0
100
AcDbLine
 10
-3.980160204763472
 20
15.39998290347139
 30
0.0
 11
-2.86538319059526
 21
15.39998290347139
 31
0.0
  0
LINE
  5
16F
330
2
100
AcDbEntity
  8
0
100
AcDbLine
 10
-3.980160204763472
 20
15.32079790347139
 30
0.0
 11
-3.980160204763472
 21
15.39998290347139
 31
0.0
  0
LINE
  5
170
330
2
100
AcDbEntity
  8
0
100
AcDbLine
 10
-0.8202568190744985
 20
13.3471199034714
 30
0.0
 11
-0.6952568190744985
 21
13.3471199034714
 31
0.0
  0
LINE
  5
171
330
2
100
AcDbEntity
  8
0
100
AcDbLine
 10
-0.8827568190744985
 20
13.2846199034714
 30
0.0
 11
-0.8827568190744985
 21
13.2533699034714
 31
0.0
  0
LINE
  5
172
330
2
100
AcDbEntity
  8
0
100
AcDbLine
 10
-0.6327568190744985
 20
13.2846199034714
 30
0.0
 11
-0.6327568190744985
 21
13.2533699034714
 31
0.0
  0
ARC
  5
173
330
2
100
AcDbEntity
  8
0
100
AcDbCircle
 10
-0.8202568190744985
 20
13.2846199034714
 30
0.0
 40
0.0625
100
AcDbArc
 50
90.0
 51
179.9999999999994
  0
ARC
  5
174
330
2
100
AcDbEntity
  8
0
100
AcDbCircle
 10
-0.6952568190744985
 20
13.2846199034714
 30
0.0
 40
0.0625
100
AcDbArc
 50
359.9999999999989
 51
90.0
  0
LINE
  5
175
330
2
100
AcDbEntity
  8
0
100
AcDbLine
 10
-0.8827568190744994
 20
15.26467514305979
 30
0.0
 11
-2.718785192682788
 21
15.26467514305979
 31
0.0
  0
LINE
  5
176
330
2
100
AcDbEntity
  8
0
100
AcDbLine
 10
-0.6952568190744994
 20
15.17092514305979
 30
0.0
 11
-0.8202568190744959
 21
15.17092514305979
 31
0.0
  0
LINE
  5
177
330
2
100
AcDbEntity
  8
0
100
AcDbLine
 10
-0.6327568190744994
 20
15.26467514305979
 30
0.0
 11
-0.6327568190744994
 21
15.23342514305979
 31
0.0
  0
ARC
  5
178
330
2
100
AcDbEntity
  8
0
100
AcDbCircle
 10
-0.6952568190744994
 20
15.23342514305979
 30
0.0
 40
0.0625
100
AcDbArc
 50
270.0
 51
0.0
  0
LINE
  5
179
330
2
100
AcDbEntity
  8
0
100
AcDbLine
 10
-0.8827568190744994
 20
15.26467514305979
 30
0.0
 11
-0.8827568190744959
 21
15.23342514305979
 31
0.0
  0
ARC
  5
17A
330
2
100
AcDbEntity
  8
0
100
AcDbCircle
 10
-0.8202568190744959
 20
15.23342514305979
 30
0.0
 40
0.0625
100
AcDbArc
 50
180.0
 51
270.0
  0
LINE
  5
17B
330
2
100
AcDbEntity
  8
0
100
AcDbLine
 10
2.759404809404735
 20
14.42652593984555
 30
0.0
 11
2.759404809404735
 21
13.25336990347139
 31
0.0
  0
LINE
  5
17C
330
2
100
AcDbEntity
  8
0
100
AcDbLine
 10
2.838277809404737
 20
13.25336990347139
 30
0.0
 11
2.838277809404737
 21
14.37900329874626
 31
0.0
  0
LINE
  5
17D
330
2
100
AcDbEntity
  8
0
100
AcDbLine
 10
0.9297431809255023
 20
13.2533699034714
 30
0.0
 11
2.838277809404737
 21
13.25336990347139
 31
0.0
  0
LINE
  5
17E
330
2
100
AcDbEntity
  8
0
100
AcDbLine
 10
0.7422431809255023
 20
13.3471199034714
 30
0.0
 11
0.8672431809255023
 21
13.3471199034714
 31
0.0
  0
LINE
  5
17F
330
2
100
AcDbEntity
  8
0
100
AcDbLine
 10
0.9297431809255023
 20
13.2846199034714
 30
0.0
 11
0.9297431809255023
 21
13.2533699034714
 31
0.0
  0
ARC
  5
180
330
2
100
AcDbEntity
  8
0
100
AcDbCircle
 10
0.8672431809255023
 20
13.2846199034714
 30
0.0
 40
0.0625
100
AcDbArc
 50
359.9999999999989
 51
90.0
  0
LINE
  5
181
330
2
100
AcDbEntity
  8
0
100
AcDbLine
 10
0.6797431809255023
 20
13.2846199034714
 30
0.0
 11
0.6797431809255023
 21
13.2533699034714
 31
0.0
  0
ARC
  5
182
330
2
100
AcDbEntity
  8
0
100
AcDbCircle
 10
0.7422431809255023
 20
13.2846199034714
 30
0.0
 40
0.0625
100
AcDbArc
 50
90.0
 51
179.9999999999989
  0
LINE
  5
183
330
2
100
AcDbEntity
  8
0
100
AcDbLine
 10
0.9297431809255006
 20
15.26467514305979
 30
0.0
 11
2.755208510306034
 21
15.26467514305979
 31
0.0
  0
LINE
  5
184
330
2
100
AcDbEntity
  8
0
100
AcDbLine
 10
0.9297431809255006
 20
15.26467514305979
 30
0.0
 11
0.9297431809255006
 21
15.23342514305979
 31
0.0
  0
LINE
  5
185
330
2
100
AcDbEntity
  8
0
100
AcDbLine
 10
0.8672431809255006
 20
15.17092514305979
 30
0.0
 11
0.7422431809255006
 21
15.17092514305979
 31
0.0
  0
ARC
  5
186
330
2
100
AcDbEntity
  8
0
100
AcDbCircle
 10
0.8672431809255006
 20
15.23342514305979
 30
0.0
 40
0.0625
100
AcDbArc
 50
270.0
 51
0.0
  0
LINE
  5
187
330
2
100
AcDbEntity
  8
0
100
AcDbLine
 10
0.6797431809255006
 20
15.26467514305979
 30
0.0
 11
0.6797431809255006
 21
15.23342514305979
 31
0.0
  0
ARC
  5
188
330
2
100
AcDbEntity
  8
0
100
AcDbCircle
 10
0.7422431809255006
 20
15.23342514305979
 30
0.0
 40
0.0625
100
AcDbArc
 50
180.0
 51
270.0
  0
ARC
  5
189
330
2
100
AcDbEntity
  8
0
100
AcDbCircle
 10
2.884404809404735
 20
15.27432590347139
 30
0.0
 40
0.125
100
AcDbArc
 50
90.00000000000003
 51
180.0000000000001
  0
ARC
  5
18A
330
2
100
AcDbEntity
  8
0
100
AcDbCircle
 10
2.900277809404734
 20
15.25813990347139
 30
0.0
 40
0.062
100
AcDbArc
 50
90.00000000000003
 51
180.0000000000001
  0
LINE
  5
18B
330
2
100
AcDbEntity
  8
0
100
AcDbLine
 10
2.838277809404737
 20
14.47332333014882
 30
0.0
 11
2.838277809404737
 21
15.25813990347139
 31
0.0
  0
LINE
  5
18C
330
2
100
AcDbEntity
  8
0
100
AcDbLine
 10
2.759404809404735
 20
15.25879790347139
 30
0.0
 11
2.759404809404735
 21
14.51964545555348
 31
0.0
  0
SPLINE
  5
18D
330
2
100
AcDbEntity
  8
0
100
AcDbSpline
210
0.0
220
0.0
230
1.0
 70
     8
 71
     3
 72
    10
 73
     6
 74
     4
 42
0.0000000001
 43
0.0000000001
 44
0.0000000001
 40
0.0
 40
0.0
 40
0.0
 40
0.0
 40
0.0923932037238946
 40
0.1588955845150431
 40
0.2301876951856931
 40
0.2301876951856931
 40
0.2301876951856931
 40
0.2301876951856931
 10
2.689596072060724
 20
14.40058617674337
 30
0.0
 10
2.721641777339434
 20
14.41804229124114
 30
0.0
 10
2.776753201840677
 20
14.44806289237509
 30
0.0
 10
2.830422650809074
 20
14.35614519394626
 30
0.0
 10
2.872252088572173
 20
14.39455647221339
 30
0.0
 10
2.893893802694123
 20
14.41442970164958
 30
0.0
 11
2.689596072060724
 21
14.40058617674337
 31
0.0
 11
2.779625558167595
 21
14.42135142958791
 31
0.0
 11
2.831565696927825
 21
14.37982085486929
 31
0.0
 11
2.893893802694123
 21
14.41442970164958
 31
0.0
  0
SPLINE
  5
18E
330
2
100
AcDbEntity
  8
0
100
AcDbSpline
210
0.0
220
0.0
230
1.0
 70
     8
 71
     3
 72
    10
 73
     6
 74
     4
 42
0.0000000001
 43
0.0000000001
 44
0.0000000001
 40
0.0
 40
0.0
 40
0.0
 40
0.0
 40
0.0923932037238946
 40
0.1588955845150431
 40
0.2301876951856931
 40
0.2301876951856931
 40
0.2301876951856931
 40
0.2301876951856931
 10
2.69652141714586
 20
14.49403005614717
 30
0.0
 10
2.72856712242452
 20
14.51148617064426
 30
0.0
 10
2.783678546925677
 20
14.54150677177706
 30
0.0
 10
2.837347995894589
 20
14.44958907335518
 30
0.0
 10
2.879177433656413
 20
14.48800035160509
 30
0.0
 10
2.900819147779259
 20
14.50787358105337
 30
0.0
 11
2.69652141714586
 21
14.49403005614717
 31
0.0
 11
2.786550903252731
 21
14.51479530899171
 31
0.0
 11
2.838491042012961
 21
14.47326473427309
 31
0.0
 11
2.900819147779259
 21
14.50787358105337
 31
0.0
  0
LINE
  5
18F
330
2
100
AcDbEntity
  8
0
100
AcDbLine
 10
2.759404809404735
 20
15.27432590347139
 30
0.0
 11
2.759404809404735
 21
15.25879790347139
 31
0.0
  0
LINE
  5
190
330
2
100
AcDbEntity
  8
0
100
AcDbLine
 10
3.958191635338658
 20
15.39932590347139
 30
0.0
 11
2.884404809404735
 21
15.39932590347139
 31
0.0
  0
LINE
  5
191
330
2
100
AcDbEntity
  8
0
100
AcDbLine
 10
2.900277809404734
 20
15.32013990347139
 30
0.0
 11
3.958191635338658
 21
15.32013990347139
 31
0.0
  0
LINE
  5
192
330
2
100
AcDbEntity
  8
0
100
AcDbLine
 10
3.958191635338658
 20
15.32013990347139
 30
0.0
 11
3.958191635338658
 21
15.39932590347139
 31
0.0
  0
LINE
  5
193
330
2
100
AcDbEntity
  8
0
100
AcDbLine
 10
-3.383832853258049
 20
2.199322111282102
 30
0.0
 11
-3.123508979534844
 21
2.269075683016768
 31
0.0
  0
ARC
  5
194
330
2
100
AcDbEntity
  8
0
100
AcDbCircle
 10
-3.131584133742039
 20
2.299212568796987
 30
0.0
 40
0.0311999999999997
100
AcDbArc
 50
284.9999999999938
 51
44.99999999999424
  0
LINE
  5
195
330
2
100
AcDbEntity
  8
0
100
AcDbLine
 10
-3.109522402169016
 20
2.321274300370005
 30
0.0
 11
-3.300092704157542
 21
2.511844602358538
 31
0.0
  0
ARC
  5
196
330
2
100
AcDbEntity
  8
0
100
AcDbCircle
 10
-3.322154435730565
 20
2.48978287078552
 30
0.0
 40
0.0312
100
AcDbArc
 50
44.99999999999424
 51
164.9999999999948
  0
LINE
  5
197
330
2
100
AcDbEntity
  8
0
100
AcDbLine
 10
-3.352291321510784
 20
2.497858024992722
 30
0.0
 11
-3.422044893245463
 21
2.23753415126952
 31
0.0
  0
ARC
  5
198
330
2
100
AcDbEntity
  8
0
100
AcDbCircle
 10
-3.391908007465246
 20
2.22945899706232
 30
0.0
 40
0.0311999999999983
100
AcDbArc
 50
164.9999999999971
 51
284.9999999999977
  0
LINE
  5
199
330
2
100
AcDbEntity
  8
0
100
AcDbLine
 10
-3.383832853258049
 20
3.38298810652109
 30
0.0
 11
-3.123508979534844
 21
3.452741678255755
 31
0.0
  0
ARC
  5
19A
330
2
100
AcDbEntity
  8
0
100
AcDbCircle
 10
-3.131584133742039
 20
3.482878564035975
 30
0.0
 40
0.0311999999999997
100
AcDbArc
 50
284.9999999999938
 51
44.99999999999424
  0
LINE
  5
19B
330
2
100
AcDbEntity
  8
0
100
AcDbLine
 10
-3.109522402169016
 20
3.504940295608993
 30
0.0
 11
-3.300092704157542
 21
3.695510597597526
 31
0.0
  0
ARC
  5
19C
330
2
100
AcDbEntity
  8
0
100
AcDbCircle
 10
-3.322154435730565
 20
3.673448866024508
 30
0.0
 40
0.0312
100
AcDbArc
 50
44.99999999999424
 51
164.9999999999948
  0
LINE
  5
19D
330
2
100
AcDbEntity
  8
0
100
AcDbLine
 10
-3.352291321510784
 20
3.681524020231709
 30
0.0
 11
-3.422044893245463
 21
3.421200146508507
 31
0.0
  0
ARC
  5
19E
330
2
100
AcDbEntity
  8
0
100
AcDbCircle
 10
-3.391908007465246
 20
3.413124992301308
 30
0.0
 40
0.0311999999999983
100
AcDbArc
 50
164.9999999999971
 51
284.9999999999977
  0
LINE
  5
19F
330
2
100
AcDbEntity
  8
0
100
AcDbLine
 10
3.404929252338974
 20
3.605313876820764
 30
0.0
 11
3.335175680604301
 21
3.344990003097562
 31
0.0
  0
ARC
  5
1A0
330
2
100
AcDbEntity
  8
0
100
AcDbCircle
 10
3.30503879482408
 20
3.353065157304759
 30
0.0
 40
0.0312000000000017
100
AcDbArc
 50
225.0000000000046
 51
345.0000000000055
  0
LINE
  5
1A1
330
2
100
AcDbEntity
  8
0
100
AcDbLine
 10
3.28297706325106
 20
3.331003425731735
 30
0.0
 11
3.092406761262533
 21
3.521573727720265
 31
0.0
  0
ARC
  5
1A2
330
2
100
AcDbEntity
  8
0
100
AcDbCircle
 10
3.114468492835552
 20
3.543635459293286
 30
0.0
 40
0.0312000000000006
100
AcDbArc
 50
105.0000000000016
 51
225.0000000000023
  0
LINE
  5
1A3
330
2
100
AcDbEntity
  8
0
100
AcDbLine
 10
3.106393338628353
 20
3.573772345073506
 30
0.0
 11
3.366717212351556
 21
3.643525916808178
 31
0.0
  0
ARC
  5
1A4
330
2
100
AcDbEntity
  8
0
100
AcDbCircle
 10
3.374792366558756
 20
3.613389031027962
 30
0.0
 40
0.0311999999999975
100
AcDbArc
 50
345.0000000000007
 51
105.0000000000033
  0
LINE
  5
1A5
330
2
100
AcDbEntity
  8
0
100
AcDbLine
 10
3.404929252338974
 20
2.421647881581777
 30
0.0
 11
3.335175680604301
 21
2.161324007858575
 31
0.0
  0
ARC
  5
1A6
330
2
100
AcDbEntity
  8
0
100
AcDbCircle
 10
3.30503879482408
 20
2.169399162065771
 30
0.0
 40
0.0312000000000017
100
AcDbArc
 50
225.0000000000046
 51
345.0000000000055
  0
LINE
  5
1A7
330
2
100
AcDbEntity
  8
0
100
AcDbLine
 10
3.28297706325106
 20
2.147337430492748
 30
0.0
 11
3.092406761262533
 21
2.337907732481277
 31
0.0
  0
ARC
  5
1A8
330
2
100
AcDbEntity
  8
0
100
AcDbCircle
 10
3.114468492835552
 20
2.359969464054299
 30
0.0
 40
0.0312000000000006
100
AcDbArc
 50
105.0000000000016
 51
225.0000000000023
  0
LINE
  5
1A9
330
2
100
AcDbEntity
  8
0
100
AcDbLine
 10
3.106393338628353
 20
2.390106349834518
 30
0.0
 11
3.366717212351556
 21
2.459859921569191
 31
0.0
  0
ARC
  5
1AA
330
2
100
AcDbEntity
  8
0
100
AcDbCircle
 10
3.374792366558756
 20
2.429723035788973
 30
0.0
 40
0.0311999999999992
100
AcDbArc
 50
345.0000000000038
 51
105.0000000000025
  0
LINE
  5
1AB
330
2
100
AcDbEntity
  8
0
100
AcDbLine
 10
-3.383832853258049
 20
7.871817991157693
 30
0.0
 11
-3.123508979534844
 21
7.941571562892358
 31
0.0
  0
ARC
  5
1AC
330
2
100
AcDbEntity
  8
0
100
AcDbCircle
 10
-3.131584133742039
 20
7.971708448672578
 30
0.0
 40
0.0311999999999997
100
AcDbArc
 50
284.9999999999938
 51
44.99999999999424
  0
LINE
  5
1AD
330
2
100
AcDbEntity
  8
0
100
AcDbLine
 10
-3.109522402169016
 20
7.993770180245596
 30
0.0
 11
-3.300092704157542
 21
8.184340482234129
 31
0.0
  0
ARC
  5
1AE
330
2
100
AcDbEntity
  8
0
100
AcDbCircle
 10
-3.322154435730565
 20
8.162278750661111
 30
0.0
 40
0.0312
100
AcDbArc
 50
44.99999999999424
 51
164.9999999999948
  0
LINE
  5
1AF
330
2
100
AcDbEntity
  8
0
100
AcDbLine
 10
-3.352291321510784
 20
8.170353904868312
 30
0.0
 11
-3.422044893245463
 21
7.91003003114511
 31
0.0
  0
ARC
  5
1B0
330
2
100
AcDbEntity
  8
0
100
AcDbCircle
 10
-3.391908007465246
 20
7.901954876937911
 30
0.0
 40
0.0311999999999983
100
AcDbArc
 50
164.9999999999971
 51
284.9999999999977
  0
LINE
  5
1B1
330
2
100
AcDbEntity
  8
0
100
AcDbLine
 10
3.404929252338974
 20
8.094143761457367
 30
0.0
 11
3.335175680604301
 21
7.833819887734165
 31
0.0
  0
ARC
  5
1B2
330
2
100
AcDbEntity
  8
0
100
AcDbCircle
 10
3.30503879482408
 20
7.841895041941362
 30
0.0
 40
0.0312000000000017
100
AcDbArc
 50
225.0000000000046
 51
345.0000000000055
  0
LINE
  5
1B3
330
2
100
AcDbEntity
  8
0
100
AcDbLine
 10
3.28297706325106
 20
7.819833310368338
 30
0.0
 11
3.092406761262533
 21
8.010403612356868
 31
0.0
  0
ARC
  5
1B4
330
2
100
AcDbEntity
  8
0
100
AcDbCircle
 10
3.114468492835552
 20
8.032465343929889
 30
0.0
 40
0.0312000000000006
100
AcDbArc
 50
105.0000000000016
 51
225.0000000000023
  0
LINE
  5
1B5
330
2
100
AcDbEntity
  8
0
100
AcDbLine
 10
3.106393338628353
 20
8.062602229710109
 30
0.0
 11
3.366717212351556
 21
8.132355801444781
 31
0.0
  0
ARC
  5
1B6
330
2
100
AcDbEntity
  8
0
100
AcDbCircle
 10
3.374792366558756
 20
8.102218915664563
 30
0.0
 40
0.0311999999999992
100
AcDbArc
 50
345.0000000000038
 51
105.0000000000025
  0
LINE
  5
1B7
330
2
100
AcDbEntity
  8
0
100
AcDbLine
 10
9.18503352273807
 20
3.724855926883384
 30
0.0
 11
9.115279951003398
 21
3.464532053160182
 31
0.0
  0
ARC
  5
1B8
330
2
100
AcDbEntity
  8
0
100
AcDbCircle
 10
9.085143065223175
 20
3.472607207367378
 30
0.0
 40
0.0312000000000034
100
AcDbArc
 50
225.0000000000069
 51
345.0000000000064
  0
LINE
  5
1B9
330
2
100
AcDbEntity
  8
0
100
AcDbLine
 10
9.063081333650157
 20
3.450545475794355
 30
0.0
 11
8.872511031661627
 21
3.641115777782884
 31
0.0
  0
ARC
  5
1BA
330
2
100
AcDbEntity
  8
0
100
AcDbCircle
 10
8.894572763234649
 20
3.663177509355906
 30
0.0
 40
0.0312000000000019
100
AcDbArc
 50
105.0000000000048
 51
225.0
  0
LINE
  5
1BB
330
2
100
AcDbEntity
  8
0
100
AcDbLine
 10
8.886497609027448
 20
3.693314395136126
 30
0.0
 11
9.146821482750649
 21
3.763067966870798
 31
0.0
  0
ARC
  5
1BC
330
2
100
AcDbEntity
  8
0
100
AcDbCircle
 10
9.154896636957851
 20
3.73293108109058
 30
0.0
 40
0.0311999999999996
100
AcDbArc
 50
345.0000000000047
 51
105.0000000000056
  0
LINE
  5
1C1
330
2
100
AcDbEntity
  8
0
100
AcDbLine
 10
-9.747910340225678
 20
0.4942047235656393
 30
0.0
 11
-9.747910340225685
 21
9.513344744436749
 31
0.0
  0
LINE
  5
1C2
330
2
100
AcDbEntity
  8
0
100
AcDbLine
 10
-8.704450340225682
 20
9.513480163753071
 30
0.0
 11
-8.704450340225682
 21
2.198784723565643
 31
0.0
  0
LINE
  5
1C3
330
2
100
AcDbEntity
  8
0
100
AcDbLine
 10
-9.641954340225679
 20
0.4942047235656393
 30
0.0
 11
-9.641954340225679
 21
9.513358495312756
 31
0.0
  0
LINE
  5
1C4
330
2
100
AcDbEntity
  8
0
  6
HIDDEN
100
AcDbLine
 10
-7.650260340225676
 20
0.1439547235656402
 30
0.0
 11
-9.641954340225679
 21
0.1439547235656402
 31
0.0
  0
LINE
  5
1C5
330
2
100
AcDbEntity
  8
0
100
AcDbLine
 10
-7.650260340225676
 20
0.0814547235656384
 30
0.0
 11
-9.641954340225679
 21
0.0814547235656384
 31
0.0
  0
LINE
  5
1C6
330
2
100
AcDbEntity
  8
0
100
AcDbLine
 10
-8.704450340225682
 20
2.198784723565643
 30
0.0
 11
-7.650260340225676
 21
0.4502647235656401
 31
0.0
  0
LINE
  5
1C7
330
2
100
AcDbEntity
  8
0
100
AcDbLine
 10
-7.650260340225676
 20
0.0814547235656384
 30
0.0
 11
-7.650260340225676
 21
0.4502647235656401
 31
0.0
  0
LINE
  5
1C9
330
2
100
AcDbEntity
  8
0
100
AcDbLine
 10
-9.641954340225679
 20
0.4942047235656393
 30
0.0
 11
-9.641954340225679
 21
0.0812947235656374
 31
0.0
  0
LINE
  5
1CA
330
2
100
AcDbEntity
  8
0
100
AcDbLine
 10
-9.641954340225679
 20
0.4942047235656393
 30
0.0
 11
-9.747910340225678
 21
0.4942047235656393
 31
0.0
  0
CIRCLE
  5
1CC
330
2
100
AcDbEntity
  8
0
100
AcDbCircle
 10
-9.048300340225678
 20
1.686213524151542
 30
0.0
 40
0.109
  0
LINE
  5
1D0
330
2
100
AcDbEntity
  8
0
100
AcDbLine
 10
-9.180379448867454
 20
4.444732541551366
 30
0.0
 11
-9.110625877132781
 21
4.184408667828164
 31
0.0
  0
LINE
  5
1D1
330
2
100
AcDbEntity
  8
0
100
AcDbLine
 10
-9.05842725977954
 20
4.170422090462337
 30
0.0
 11
-8.867856957791011
 21
4.360992392450866
 31
0.0
  0
CIRCLE
  5
1D2
330
2
100
AcDbEntity
  8
0
100
AcDbCircle
 10
-9.048300340225678
 20
2.325656849549832
 30
0.0
 40
0.109
  0
ARC
  5
1D3
330
2
100
AcDbEntity
  8
0
100
AcDbCircle
 10
-9.080488991352558
 20
4.19248382203536
 30
0.0
 40
0.0312000000000034
100
AcDbArc
 50
194.9999999999936
 51
314.9999999999931
  0
LINE
  5
1D4
330
2
100
AcDbEntity
  8
0
100
AcDbLine
 10
-8.881843535156831
 20
4.413191009804107
 30
0.0
 11
-9.142167408880033
 21
4.48294458153878
 31
0.0
  0
ARC
  5
1D5
330
2
100
AcDbEntity
  8
0
100
AcDbCircle
 10
-8.889918689364032
 20
4.383054124023888
 30
0.0
 40
0.0312000000000019
100
AcDbArc
 50
315.0
 51
74.99999999999524
  0
ARC
  5
1D6
330
2
100
AcDbEntity
  8
0
100
AcDbCircle
 10
-9.150242563087234
 20
4.452807695758562
 30
0.0
 40
0.0311999999999996
100
AcDbArc
 50
74.99999999999439
 51
194.9999999999953
  0
LINE
  5
1DA
330
2
100
AcDbEntity
  8
0
100
AcDbLine
 10
-9.048300340225685
 20
5.759522441932242
 30
0.0
 11
-9.048300340225685
 21
5.87952244193224
 31
0.0
  0
LINE
  5
1DB
330
2
100
AcDbEntity
  8
0
100
AcDbLine
 10
-9.108300340225673
 20
5.819522441932241
 30
0.0
 11
-8.988300340225683
 21
5.819522441932241
 31
0.0
  0
CIRCLE
  5
1DC
330
2
100
AcDbEntity
  8
0
100
AcDbCircle
 10
-9.048300340225685
 20
5.819522441932241
 30
0.0
 40
0.109
  0
LINE
  5
1DD
330
2
100
AcDbEntity
  8
0
100
AcDbLine
 10
-8.704450340225675
 20
9.513480163753071
 30
0.0
 11
-9.747910340225678
 21
9.513344744436749
 31
0.0
  0
ENDSEC
  0
SECTION
  2
OBJECTS
  0
DICTIONARY
  5
7
330
0
100
AcDbDictionary
281
     1
  3
ACAD_COLOR
350
1E2
  3
ACAD_GROUP
350
1F
  3
ACAD_LAYOUT
350
B
  3
ACAD_MATERIAL
350
1E1
  3
ACAD_MLINESTYLE
350
20
  3
ACAD_PLOTSETTINGS
350
21
  3
ACAD_PLOTSTYLENAME
350
6
  3
ACAD_TABLESTYLE
350
1E3
  3
ACDBHEADERROUNDTRIPXREC
350
1F3
  3
AcDbVariableDictionary
350
E5
  0
DICTIONARY
  5
1E2
102
{ACAD_REACTORS
330
7
102
}
330
7
100
AcDbDictionary
281
     1
  0
DICTIONARY
  5
1F
102
{ACAD_REACTORS
330
7
102
}
330
7
100
AcDbDictionary
281
     1
  0
DICTIONARY
  5
B
102
{ACAD_REACTORS
330
7
102
}
330
7
100
AcDbDictionary
281
     1
  3
Layout1
350
F
  3
Model
350
A
  0
DICTIONARY
  5
1E1
102
{ACAD_REACTORS
330
7
102
}
330
7
100
AcDbDictionary
281
     1
  0
DICTIONARY
  5
20
102
{ACAD_REACTORS
330
7
102
}
330
7
100
AcDbDictionary
281
     1
  3
STANDARD
350
23
  0
DICTIONARY
  5
21
102
{ACAD_REACTORS
330
7
102
}
330
7
100
AcDbDictionary
281
     1
  0
ACDBDICTIONARYWDFLT
  5
6
102
{ACAD_REACTORS
330
7
102
}
330
7
100
AcDbDictionary
281
     1
  3
Normal
350
5
100
AcDbDictionaryWithDefault
340
5
  0
DICTIONARY
  5
1E3
102
{ACAD_REACTORS
330
7
102
}
330
7
100
AcDbDictionary
281
     1
  3
Standard
350
1E4
  0
DICTIONARY
  5
1F3
102
{ACAD_REACTORS
330
7
102
}
330
7
100
AcDbDictionary
281
     1
  3
COLORDICT
350
1F4
  3
MATERIALDICT
350
1F5
  0
DICTIONARY
  5
E5
102
{ACAD_REACTORS
330
7
102
}
330
7
100
AcDbDictionary
281
     1
  3
CTABLESTYLE
350
1F0
  3
HIDETEXT
350
1F2
  0
LAYOUT
  5
F
102
{ACAD_REACTORS
330
B
102
}
102
{ACAD_XDICTIONARY
360
1F6
102
}
330
B
100
AcDbPlotSettings
  1

  2
Client\ssd-helder#\hp psc 2100 series [UPD:PCL4]
  4

  6

 40
0.0
 41
0.0
 42
0.0
 43
0.0
 44
0.0
 45
0.0
 46
0.0
 47
0.0
 48
0.0
 49
0.0
140
0.0
141
0.0
142
1.0
143
1.0
 70
   688
 72
     0
 73
     0
 74
     5
  7

 75
    16
147
1.0
148
0.0
149
0.0
100
AcDbLayout
  1
Layout1
 70
     0
 71
     1
 10
0.0
 20
0.0
 11
12.0
 21
9.0
 12
0.0
 22
0.0
 32
0.0
 14
1.000000000000000E+20
 24
1.000000000000000E+20
 34
1.000000000000000E+20
 15
-1.000000000000000E+20
 25
-1.000000000000000E+20
 35
-1.000000000000000E+20
146
0.0
 13
0.0
 23
0.0
 33
0.0
 16
1.0
 26
0.0
 36
0.0
 17
0.0
 27
1.0
 37
0.0
 76
     0
330
C
  0
LAYOUT
  5
A
102
{ACAD_REACTORS
330
B
102
}
102
{ACAD_XDICTIONARY
360
1F8
102
}
330
B
100
AcDbPlotSettings
  1

  2
Client\ssd-helder#\hp psc 2100 series [UPD:PCL4]
  4

  6

 40
0.0
 41
0.0
 42
0.0
 43
0.0
 44
0.0
 45
0.0
 46
0.0
 47
0.0
 48
0.0
 49
0.0
140
0.0
141
0.0
142
1.0
143
1.0
 70
  1712
 72
     0
 73
     0
 74
     0
  7

 75
     0
147
1.0
148
0.0
149
0.0
100
AcDbLayout
  1
Model
 70
     1
 71
     0
 10
0.0
 20
0.0
 11
12.0
 21
9.0
 12
0.0
 22
0.0
 32
0.0
 14
0.0
 24
0.0
 34
0.0
 15
0.0
 25
0.0
 35
0.0
146
0.0
 13
0.0
 23
0.0
 33
0.0
 16
1.0
 26
0.0
 36
0.0
 17
0.0
 27
1.0
 37
0.0
 76
     0
330
2
  0
MLINESTYLE
  5
23
102
{ACAD_REACTORS
330
20
102
}
330
20
100
AcDbMlineStyle
  2
STANDARD
 70
     0
  3

 62
   256
 51
90.0
 52
90.0
 71
     2
 49
0.5
 62
   256
  6
BYLAYER
 49
-0.5
 62
   256
  6
BYLAYER
  0
ACDBPLACEHOLDER
  5
5
102
{ACAD_REACTORS
330
6
102
}
330
6
  0
ACAD_PROXY_OBJECT
  5
1E4
102
{ACAD_REACTORS
330
1E3
102
}
330
1E3
100
AcDbProxyObject
 90
      499
 91
      505
 95
   983063
 70
     0
 93
     1841
310
4214DD185B99185C9928B81E85EB51B8AE3F2E07A17AD46E2B8FC02B5E8DC0F42B1CFD028000000C1008070000C3001FDFF8000000C1003FBFF000000182007F7FE00000030400FEFFC00000060801FDFF8000000C1003FBFF00000018200000000000000681FA0B0000001820100E000186003FBFF000000182007F7FE000
310
00030400FEFFC00000060801FDFF8000000C1003FBFF000000182007F7FE000000304000AD7A3703D0AC73F4160000003040201C00030C007F7FE00000030400FEFFC00000060801FDFF8000000C1003FBFF000000182007F7FE00000030400FEFFC000000608000
340
12
340
12
340
12
 94
        0
  0
XRECORD
  5
1F4
102
{ACAD_REACTORS
330
1F3
102
}
330
1F3
100
AcDbXrecord
340
1E2
  0
XRECORD
  5
1F5
102
{ACAD_REACTORS
330
1F3
102
}
330
1F3
100
AcDbXrecord
340
1E1
  0
DICTIONARYVAR
  5
1F0
102
{ACAD_REACTORS
330
E5
102
}
330
E5
100
DictionaryVariables
280
     0
  1
STANDARD
  0
DICTIONARYVAR
  5
1F2
102
{ACAD_REACTORS
330
E5
102
}
330
E5
100
DictionaryVariables
280
     0
  1
0
  0
DICTIONARY
  5
1F6
330
F
100
AcDbDictionary
280
     1
281
     1
  3
ACAD_XREC_ROUNDTRIP
360
1F7
  0
DICTIONARY
  5
1F8
330
A
100
AcDbDictionary
280
     1
281
     1
  3
ACAD_XREC_ROUNDTRIP
360
1F9
  0
XRECORD
  5
1F7
102
{ACAD_REACTORS
330
1F6
102
}
330
1F6
100
AcDbXrecord
102
SHADEPLOT
 70
     0
102
SHADEPLOTRESLEVEL
 70
     2
102
SHADEPLOTCUSTOMDPI
 70
   300
  0
XRECORD
  5
1F9
102
{ACAD_REACTORS
330
1F8
102
}
330
1F8
100
AcDbXrecord
102
SHADEPLOT
 70
     0
102
SHADEPLOTRESLEVEL
 70
     2
102
SHADEPLOTCUSTOMDPI
 70
   300
  0
ENDSEC
  0
EOF
