  0
SECTION
  2
HEADER
  9
$ACADVER
  1
AC1015
  9
$ACADMAINTVER
 70
     6
  9
$DWGCODEPAGE
  3
ANSI_1252
  9
$INSBASE
 10
0.0
 20
0.0
 30
0.0
  9
$EXTMIN
 10
-9.937698656725502
 20
-0.121351918738462
 30
-0.0000000000112498
  9
$EXTMAX
 10
9.941238386877387
 20
14.50796664623388
 30
0.0000000000002956
  9
$LIMMIN
 10
0.0
 20
0.0
  9
$LIMMAX
 10
31.5
 20
24.0
  9
$ORTHOMODE
 70
     1
  9
$REGENMODE
 70
     1
  9
$FILLMODE
 70
     1
  9
$QTEXTMODE
 70
     0
  9
$MIRRTEXT
 70
     0
  9
$LTSCALE
 40
1.0
  9
$ATTMODE
 70
     1
  9
$TEXTSIZE
 40
0.27
  9
$TRACEWID
 40
0.05
  9
$TEXTSTYLE
  7
STANDARD
  9
$CLAYER
  8
0
  9
$CELTYPE
  6
BYLAYER
  9
$CECOLOR
 62
   256
  9
$CELTSCALE
 40
1.0
  9
$DISPSILH
 70
     0
  9
$DIMSCALE
 40
1.0
  9
$DIMASZ
 40
0.375
  9
$DIMEXO
 40
0.0625
  9
$DIMDLI
 40
0.75
  9
$DIMRND
 40
0.0
  9
$DIMDLE
 40
0.0
  9
$DIMEXE
 40
0.18
  9
$DIMTP
 40
0.0
  9
$DIMTM
 40
0.0
  9
$DIMTXT
 40
0.27
  9
$DIMCEN
 40
-0.06
  9
$DIMTSZ
 40
0.0
  9
$DIMTOL
 70
     0
  9
$DIMLIM
 70
     0
  9
$DIMTIH
 70
     1
  9
$DIMTOH
 70
     1
  9
$DIMSE1
 70
     0
  9
$DIMSE2
 70
     0
  9
$DIMTAD
 70
     0
  9
$DIMZIN
 70
     0
  9
$DIMBLK
  1

  9
$DIMASO
 70
     0
  9
$DIMSHO
 70
     0
  9
$DIMPOST
  1

  9
$DIMAPOST
  1

  9
$DIMALT
 70
     0
  9
$DIMALTD
 70
     2
  9
$DIMALTF
 40
25.4
  9
$DIMLFAC
 40
1.0
  9
$DIMTOFL
 70
     0
  9
$DIMTVP
 40
0.0
  9
$DIMTIX
 70
     0
  9
$DIMSOXD
 70
     0
  9
$DIMSAH
 70
     0
  9
$DIMBLK1
  1

  9
$DIMBLK2
  1

  9
$DIMSTYLE
  2
STANDARD
  9
$DIMCLRD
 70
     0
  9
$DIMCLRE
 70
     0
  9
$DIMCLRT
 70
     0
  9
$DIMTFAC
 40
1.0
  9
$DIMGAP
 40
0.09
  9
$DIMJUST
 70
     0
  9
$DIMSD1
 70
     0
  9
$DIMSD2
 70
     0
  9
$DIMTOLJ
 70
     1
  9
$DIMTZIN
 70
     0
  9
$DIMALTZ
 70
     0
  9
$DIMALTTZ
 70
     0
  9
$DIMUPT
 70
     0
  9
$DIMDEC
 70
     3
  9
$DIMTDEC
 70
     3
  9
$DIMALTU
 70
     2
  9
$DIMALTTD
 70
     2
  9
$DIMTXSTY
  7
STANDARD
  9
$DIMAUNIT
 70
     0
  9
$DIMADEC
 70
     0
  9
$DIMALTRND
 40
0.0
  9
$DIMAZIN
 70
     0
  9
$DIMDSEP
 70
    46
  9
$DIMATFIT
 70
     3
  9
$DIMFRAC
 70
     0
  9
$DIMLDRBLK
  1

  9
$DIMLUNIT
 70
     2
  9
$DIMLWD
 70
    -2
  9
$DIMLWE
 70
    -2
  9
$DIMTMOVE
 70
     2
  9
$LUNITS
 70
     2
  9
$LUPREC
 70
     3
  9
$SKETCHINC
 40
0.1
  9
$FILLETRAD
 40
0.0625
  9
$AUNITS
 70
     0
  9
$AUPREC
 70
     0
  9
$MENU
  1
ACAD
  9
$ELEVATION
 40
0.0
  9
$PELEVATION
 40
0.0
  9
$THICKNESS
 40
0.0
  9
$LIMCHECK
 70
     0
  9
$CHAMFERA
 40
0.0
  9
$CHAMFERB
 40
0.0
  9
$CHAMFERC
 40
0.0
  9
$CHAMFERD
 40
0.0
  9
$SKPOLY
 70
     0
  9
$TDCREATE
 40
2450304.754653935
  9
$TDUCREATE
 40
2450305.087987268
  9
$TDUPDATE
 40
2454165.812534861
  9
$TDUUPDATE
 40
2454166.145868194
  9
$TDINDWG
 40
0.0501331019
  9
$TDUSRTIMER
 40
0.0501331019
  9
$USRTIMER
 70
     1
  9
$ANGBASE
 50
0.0
  9
$ANGDIR
 70
     0
  9
$PDMODE
 70
     0
  9
$PDSIZE
 40
0.0
  9
$PLINEWID
 40
0.0
  9
$SPLFRAME
 70
     0
  9
$SPLINETYPE
 70
     6
  9
$SPLINESEGS
 70
     8
  9
$HANDSEED
  5
1C3
  9
$SURFTAB1
 70
     6
  9
$SURFTAB2
 70
     6
  9
$SURFTYPE
 70
     6
  9
$SURFU
 70
     6
  9
$SURFV
 70
     6
  9
$UCSBASE
  2

  9
$UCSNAME
  2

  9
$UCSORG
 10
0.0
 20
0.0
 30
0.0
  9
$UCSXDIR
 10
1.0
 20
0.0
 30
0.0
  9
$UCSYDIR
 10
0.0
 20
1.0
 30
0.0
  9
$UCSORTHOREF
  2

  9
$UCSORTHOVIEW
 70
     0
  9
$UCSORGTOP
 10
0.0
 20
0.0
 30
0.0
  9
$UCSORGBOTTOM
 10
0.0
 20
0.0
 30
0.0
  9
$UCSORGLEFT
 10
0.0
 20
0.0
 30
0.0
  9
$UCSORGRIGHT
 10
0.0
 20
0.0
 30
0.0
  9
$UCSORGFRONT
 10
0.0
 20
0.0
 30
0.0
  9
$UCSORGBACK
 10
0.0
 20
0.0
 30
0.0
  9
$PUCSBASE
  2

  9
$PUCSNAME
  2

  9
$PUCSORG
 10
0.0
 20
0.0
 30
0.0
  9
$PUCSXDIR
 10
1.0
 20
0.0
 30
0.0
  9
$PUCSYDIR
 10
0.0
 20
1.0
 30
0.0
  9
$PUCSORTHOREF
  2

  9
$PUCSORTHOVIEW
 70
     0
  9
$PUCSORGTOP
 10
0.0
 20
0.0
 30
0.0
  9
$PUCSORGBOTTOM
 10
0.0
 20
0.0
 30
0.0
  9
$PUCSORGLEFT
 10
0.0
 20
0.0
 30
0.0
  9
$PUCSORGRIGHT
 10
0.0
 20
0.0
 30
0.0
  9
$PUCSORGFRONT
 10
0.0
 20
0.0
 30
0.0
  9
$PUCSORGBACK
 10
0.0
 20
0.0
 30
0.0
  9
$USERI1
 70
     0
  9
$USERI2
 70
     0
  9
$USERI3
 70
     0
  9
$USERI4
 70
     0
  9
$USERI5
 70
     0
  9
$USERR1
 40
0.0
  9
$USERR2
 40
0.0
  9
$USERR3
 40
0.0
  9
$USERR4
 40
0.0
  9
$USERR5
 40
0.0
  9
$WORLDVIEW
 70
     1
  9
$SHADEDGE
 70
     3
  9
$SHADEDIF
 70
    70
  9
$TILEMODE
 70
     1
  9
$MAXACTVP
 70
    16
  9
$PINSBASE
 10
0.0
 20
0.0
 30
0.0
  9
$PLIMCHECK
 70
     0
  9
$PEXTMIN
 10
1.000000000000000E+20
 20
1.000000000000000E+20
 30
1.000000000000000E+20
  9
$PEXTMAX
 10
-1.000000000000000E+20
 20
-1.000000000000000E+20
 30
-1.000000000000000E+20
  9
$PLIMMIN
 10
0.0
 20
0.0
  9
$PLIMMAX
 10
12.0
 20
9.0
  9
$UNITMODE
 70
     0
  9
$VISRETAIN
 70
     0
  9
$PLINEGEN
 70
     0
  9
$PSLTSCALE
 70
     0
  9
$TREEDEPTH
 70
  3020
  9
$CMLSTYLE
  2
STANDARD
  9
$CMLJUST
 70
     0
  9
$CMLSCALE
 40
1.0
  9
$PROXYGRAPHICS
 70
     1
  9
$MEASUREMENT
 70
     0
  9
$CELWEIGHT
370
    -1
  9
$ENDCAPS
280
     0
  9
$JOINSTYLE
280
     0
  9
$LWDISPLAY
290
     0
  9
$INSUNITS
 70
     0
  9
$HYPERLINKBASE
  1

  9
$STYLESHEET
  1

  9
$XEDIT
290
     1
  9
$CEPSNTYPE
380
     0
  9
$PSTYLEMODE
290
     1
  9
$FINGERPRINTGUID
  2
{2AE0F6ED-B1E2-468D-BE52-708C17CB6697}
  9
$VERSIONGUID
  2
{B4F76BD9-3171-42C8-BDAD-E61DDC536300}
  9
$EXTNAMES
290
     1
  9
$PSVPSCALE
 40
0.0
  9
$OLESTARTUP
290
     0
  0
ENDSEC
  0
SECTION
  2
CLASSES
  0
CLASS
  1
DICTIONARYVAR
  2
AcDbDictionaryVar
  3
AutoCAD 2000
 90
        0
280
     0
281
     0
  0
CLASS
  1
LWPOLYLINE
  2
AcDbPolyline
  3
AutoCAD 2000
 90
        0
280
     0
281
     1
  0
CLASS
  1
ACDBDICTIONARYWDFLT
  2
AcDbDictionaryWithDefault
  3
AutoCAD 2000
 90
        0
280
     0
281
     0
  0
CLASS
  1
ACDBPLACEHOLDER
  2
AcDbPlaceHolder
  3
ObjectDBX Classes
 90
        0
280
     0
281
     0
  0
CLASS
  1
LAYOUT
  2
AcDbLayout
  3
ObjectDBX Classes
 90
        0
280
     0
281
     0
  0
CLASS
  1
LONG_TRANSACTION
  2
AcDbLongTransaction
  3
ObjectDBX Classes
 90
   -65536
280
     1
281
     0
  0
CLASS
  1
LWPOLYLINE
  2
AcDbPolyline
  3
AutoCAD 2000
 90
        0
280
     0
281
     1
  0
CLASS
  1
HATCH
  2
AcDbHatch
  3
AutoCAD 2000
 90
        0
280
     0
281
     1
  0
CLASS
  1
XRECORD
  2
AcDbXrecord
  3
AutoCAD 2000
 90
        0
280
     0
281
     0
  0
CLASS
  1
LONG_TRANSACTION
  2
AcDbLongTransaction
  3
ObjectDBX Classes
 90
   -65536
280
     1
281
     0
  0
CLASS
  1
LWPOLYLINE
  2
AcDbPolyline
  3
AutoCAD 2000
 90
        0
280
     0
281
     1
  0
CLASS
  1
HATCH
  2
AcDbHatch
  3
AutoCAD 2000
 90
        0
280
     0
281
     1
  0
CLASS
  1
XRECORD
  2
AcDbXrecord
  3
AutoCAD 2000
 90
        0
280
     0
281
     0
  0
CLASS
  1
TABLESTYLE
  2
AcDbTableStyle
  3
ObjectDBX Classes
 90
     2047
280
     1
281
     0
  0
CLASS
  1
SORTENTSTABLE
  2
AcDbSortentsTable
  3
AutoCAD 2000
 90
        0
280
     0
281
     0
  0
ENDSEC
  0
SECTION
  2
TABLES
  0
TABLE
  2
VPORT
  5
1D
330
0
100
AcDbSymbolTable
 70
     3
  0
VPORT
  5
1B3
330
1D
100
AcDbSymbolTableRecord
100
AcDbViewportTableRecord
  2
*Active
 70
     0
 10
0.0
 20
0.0
 11
1.0
 21
1.0
 12
4.464460854555028
 22
7.676184744480858
 13
0.0
 23
0.0
 14
0.0625
 24
0.0625
 15
0.5
 25
0.5
 16
0.0
 26
0.0
 36
1.0
 17
0.0
 27
0.0
 37
0.0
 40
18.91716053665205
 41
1.814583333333333
 42
50.0
 43
0.0
 44
0.0
 50
0.0
 51
0.0
 71
     0
 72
   100
 73
     1
 74
     3
 75
     0
 76
     0
 77
     0
 78
     0
281
     0
 65
     1
110
0.0
120
0.0
130
0.0
111
1.0
121
0.0
131
0.0
112
0.0
122
1.0
132
0.0
 79
     0
146
0.0
  0
ENDTAB
  0
TABLE
  2
LTYPE
  5
18
330
0
100
AcDbSymbolTable
 70
     2
  0
LTYPE
  5
19
330
18
100
AcDbSymbolTableRecord
100
AcDbLinetypeTableRecord
  2
BYBLOCK
 70
     0
  3

 72
    65
 73
     0
 40
0.0
  0
LTYPE
  5
1A
330
18
100
AcDbSymbolTableRecord
100
AcDbLinetypeTableRecord
  2
BYLAYER
 70
     0
  3

 72
    65
 73
     0
 40
0.0
  0
LTYPE
  5
A
330
18
100
AcDbSymbolTableRecord
100
AcDbLinetypeTableRecord
  2
CONTINUOUS
 70
     0
  3
Solid line
 72
    65
 73
     0
 40
0.0
  0
LTYPE
  5
1B2
330
18
100
AcDbSymbolTableRecord
100
AcDbLinetypeTableRecord
  2
HIDDEN
 70
     0
  3
Hidden __ __ __ __ __ __ __ __ __ __ __ __ __ _
 72
    65
 73
     2
 40
0.375
 49
0.25
 74
     0
 49
-0.125
 74
     0
  0
ENDTAB
  0
TABLE
  2
LAYER
  5
14
330
0
100
AcDbSymbolTable
 70
     2
  0
LAYER
  5
6
330
14
100
AcDbSymbolTableRecord
100
AcDbLayerTableRecord
  2
0
 70
     0
 62
     7
  6
CONTINUOUS
370
    -3
390
7
  0
ENDTAB
  0
TABLE
  2
STYLE
  5
15
330
0
100
AcDbSymbolTable
 70
     2
  0
STYLE
  5
16
330
15
100
AcDbSymbolTableRecord
100
AcDbTextStyleTableRecord
  2
STANDARD
 70
     0
 40
0.0
 41
1.0
 50
0.0
 71
     0
 42
0.27
  3
TXT
  4

  0
STYLE
  5
1B1
330
15
100
AcDbSymbolTableRecord
100
AcDbTextStyleTableRecord
  2

 70
     1
 40
0.0
 41
1.0
 50
0.0
 71
     0
 42
0.27
  3
ltypeshp.shx
  4

  0
ENDTAB
  0
TABLE
  2
VIEW
  5
1B
330
0
100
AcDbSymbolTable
 70
     0
  0
ENDTAB
  0
TABLE
  2
UCS
  5
1C
330
0
100
AcDbSymbolTable
 70
     0
  0
ENDTAB
  0
TABLE
  2
APPID
  5
1F
330
0
100
AcDbSymbolTable
 70
     1
  0
APPID
  5
20
330
1F
100
AcDbSymbolTableRecord
100
AcDbRegAppTableRecord
  2
ACAD
 70
     0
  0
ENDTAB
  0
TABLE
  2
DIMSTYLE
  5
21
330
0
100
AcDbSymbolTable
 70
     1
100
AcDbDimStyleTable
  0
DIMSTYLE
105
28
330
21
100
AcDbSymbolTableRecord
100
AcDbDimStyleTableRecord
  2
STANDARD
 70
     0
  3

  4

340
16
  0
ENDTAB
  0
TABLE
  2
BLOCK_RECORD
  5
1
330
0
100
AcDbSymbolTable
 70
     0
  0
BLOCK_RECORD
  5
2
102
{ACAD_XDICTIONARY
360
3
102
}
330
1
100
AcDbSymbolTableRecord
100
AcDbBlockTableRecord
  2
*MODEL_SPACE
340
C
  0
BLOCK_RECORD
  5
E
330
1
100
AcDbSymbolTableRecord
100
AcDbBlockTableRecord
  2
*PAPER_SPACE
340
13
  0
ENDTAB
  0
ENDSEC
  0
SECTION
  2
BLOCKS
  0
BLOCK
  5
5
330
2
100
AcDbEntity
  8
0
100
AcDbBlockBegin
  2
*MODEL_SPACE
 70
     0
 10
0.0
 20
0.0
 30
0.0
  3
*MODEL_SPACE
  1

  4

  0
ENDBLK
  5
B
330
2
100
AcDbEntity
  8
0
100
AcDbBlockEnd
  0
BLOCK
  5
11
330
E
100
AcDbEntity
 67
     1
  8
0
100
AcDbBlockBegin
  2
*PAPER_SPACE
 70
     0
 10
0.0
 20
0.0
 30
0.0
  3
*PAPER_SPACE
  1

  4

  0
ENDBLK
  5
12
330
E
100
AcDbEntity
 67
     1
  8
0
100
AcDbBlockEnd
  0
ENDSEC
  0
SECTION
  2
ENTITIES
  0
LINE
  5
D4
330
2
100
AcDbEntity
  8
0
100
AcDbLine
 10
0.4239723083830769
 20
8.812139332062532
 30
0.0
 11
0.4239660881678398
 21
1.615397028909023
 31
0.0
  0
LINE
  5
D5
330
2
100
AcDbEntity
  8
0
100
AcDbLine
 10
1.562066516897039
 20
0.1248135013734659
 30
0.0
 11
1.562066516897039
 21
5.065853501373467
 31
0.0
  0
LINE
  5
D6
330
2
100
AcDbEntity
  8
0
100
AcDbLine
 10
-1.557775219122935
 20
8.81270216669078
 30
0.0
 11
-1.557775219122944
 21
1.050143501373465
 31
0.0
  0
LINE
  5
D7
330
2
100
AcDbEntity
  8
0
100
AcDbLine
 10
-1.636385219122933
 20
8.812712368627079
 30
0.0
 11
-1.636385219122941
 21
1.050143501373465
 31
0.0
  0
LINE
  5
D8
330
2
100
AcDbEntity
  8
0
100
AcDbLine
 10
1.640996516897039
 20
5.065853501373467
 30
0.0
 11
1.640996516897039
 21
0.1207435013734672
 31
0.0
  0
LINE
  5
D9
330
2
100
AcDbEntity
  8
0
100
AcDbLine
 10
-0.4029713672170261
 20
8.812862238050077
 30
0.0
 11
-0.4029651463769821
 21
1.615397028909023
 31
0.0
  0
CIRCLE
  5
DC
330
2
100
AcDbEntity
  8
0
100
AcDbCircle
 10
1.123226516897037
 20
2.890997969419606
 30
0.0
 40
0.109
  0
CIRCLE
  5
DD
330
2
100
AcDbEntity
  8
0
100
AcDbCircle
 10
1.18647651689704
 20
1.340489787767896
 30
0.0
 40
0.109
  0
LINE
  5
DE
330
2
100
AcDbEntity
  8
0
100
AcDbLine
 10
-1.437046516897042
 20
0.0001864986265341
 30
0.0
 11
1.43704651689704
 21
-0.0001864986265341
 31
0.0
  0
LINE
  5
DF
330
2
100
AcDbEntity
  8
0
100
AcDbLine
 10
-1.436385219122946
 20
-0.0792564986265356
 30
0.0
 11
1.440996516897043
 21
-0.0792564986265356
 31
0.0
  0
LINE
  5
E0
330
2
100
AcDbEntity
  8
0
100
AcDbLine
 10
1.562066516897043
 20
0.1375435013734636
 30
0.0
 11
0.4239660881678327
 21
1.615397028909025
 31
0.0
  0
LINE
  5
E1
330
2
100
AcDbEntity
  8
0
100
AcDbLine
 10
-1.636385219122941
 20
1.059963501373466
 30
0.0
 11
-1.636385219122941
 21
0.117933501373467
 31
0.0
  0
LINE
  5
E2
330
2
100
AcDbEntity
  8
0
100
AcDbLine
 10
-1.557775219122944
 20
1.059963501373466
 30
0.0
 11
-1.557775219122944
 21
0.1222535013734634
 31
0.0
  0
LINE
  5
E3
330
2
100
AcDbEntity
  8
0
100
AcDbLine
 10
-1.541065575106185
 20
0.1375435013734636
 30
0.0
 11
-0.402965146376975
 21
1.615397028909025
 31
0.0
  0
ARC
  5
E4
330
2
100
AcDbEntity
  8
0
100
AcDbCircle
 10
-1.436385219122946
 20
0.1207435013734672
 30
0.0
 40
0.2
100
AcDbArc
 50
180.0
 51
270.0
  0
ARC
  5
E5
330
2
100
AcDbEntity
  8
0
100
AcDbCircle
 10
-1.432775219122944
 20
0.1251135013734652
 30
0.0
 40
0.125
100
AcDbArc
 50
180.0
 51
269.9927
  0
LINE
  5
E6
330
2
100
AcDbEntity
  8
0
100
AcDbLine
 10
-0.6477587013598547
 20
0.000084065551607
 30
0.0
 11
-0.6477587013598547
 21
-0.0792564986265347
 31
0.0
  0
LINE
  5
E7
330
2
100
AcDbEntity
  8
0
100
AcDbLine
 10
-0.8977587013598547
 20
0.0001165103305931
 30
0.0
 11
-0.8977587013598538
 21
-0.0792564986265347
 31
0.0
  0
LINE
  5
E8
330
2
100
AcDbEntity
  8
0
100
AcDbLine
 10
-0.3050924057964317
 20
-0.0801035644262731
 30
0.0
 11
-0.1547506697764498
 21
-0.0801035644262731
 31
0.0
  0
LINE
  5
E9
330
2
100
AcDbEntity
  8
0
100
AcDbLine
 10
0.6647412986401453
 20
-0.0000862695380688
 30
0.0
 11
0.6647412986401444
 21
-0.0792564986265356
 31
0.0
  0
LINE
  5
EA
330
2
100
AcDbEntity
  8
0
100
AcDbLine
 10
0.9147412986401453
 20
-0.0001187143170549
 30
0.0
 11
0.9147412986401453
 21
-0.0792564986265356
 31
0.0
  0
CIRCLE
  5
EB
330
2
100
AcDbEntity
  8
0
100
AcDbCircle
 10
-1.165475575106183
 20
1.340489787767896
 30
0.0
 40
0.109
  0
CIRCLE
  5
EC
330
2
100
AcDbEntity
  8
0
100
AcDbCircle
 10
-0.7234660341498835
 20
1.767128681743352
 30
0.0
 40
0.109
  0
CIRCLE
  5
EE
330
2
100
AcDbEntity
  8
0
100
AcDbCircle
 10
0.7444669759407412
 20
1.767128681743352
 30
0.0
 40
0.109
  0
ARC
  5
F0
330
2
100
AcDbEntity
  8
0
100
AcDbCircle
 10
-1.557775219122942
 20
2.718902189585791
 30
0.0
 40
0.156
100
AcDbArc
 50
270.0
 51
89.99999999999967
  0
CIRCLE
  5
F1
330
2
100
AcDbEntity
  8
0
100
AcDbCircle
 10
-1.102225575106179
 20
2.890997969419606
 30
0.0
 40
0.109
  0
CIRCLE
  5
F2
330
2
100
AcDbEntity
  8
0
100
AcDbCircle
 10
-0.7234660341498835
 20
3.818000774766623
 30
0.0
 40
0.109
  0
CIRCLE
  5
F3
330
2
100
AcDbEntity
  8
0
100
AcDbCircle
 10
0.7444669759407412
 20
3.818000774766623
 30
0.0
 40
0.109
  0
ARC
  5
F4
330
2
100
AcDbEntity
  8
0
100
AcDbCircle
 10
1.440996516897043
 20
0.1207435013734672
 30
0.0
 40
0.2
100
AcDbArc
 50
270.0
 51
0.0
  0
ARC
  5
F5
330
2
100
AcDbEntity
  8
0
100
AcDbCircle
 10
1.437066516897039
 20
0.1248135013734659
 30
0.0
 40
0.125
100
AcDbArc
 50
269.9927
 51
0.0
  0
ARC
  5
F6
330
2
100
AcDbEntity
  8
0
100
AcDbCircle
 10
1.562066516897039
 20
2.718497299283405
 30
0.0
 40
0.156
100
AcDbArc
 50
90.0
 51
270.0
  0
LINE
  5
F7
330
2
100
AcDbEntity
  8
0
100
AcDbLine
 10
1.640996516897042
 20
8.812297276388396
 30
0.0
 11
0.42397074182148
 21
8.812139331859225
 31
0.0
  0
CIRCLE
  5
F8
330
2
100
AcDbEntity
  8
0
100
AcDbCircle
 10
-0.7779683421325694
 20
4.937862238052689
 30
0.0
 40
0.109
  0
CIRCLE
  5
F9
330
2
100
AcDbEntity
  8
0
100
AcDbCircle
 10
0.7989790067838176
 20
4.937139980300702
 30
0.0
 40
0.109
  0
CIRCLE
  5
FA
330
2
100
AcDbEntity
  8
0
100
AcDbCircle
 10
-0.7779713672170261
 20
6.687862238050076
 30
0.0
 40
0.109
  0
CIRCLE
  5
FB
330
2
100
AcDbEntity
  8
0
100
AcDbCircle
 10
0.7989759816993609
 20
6.687139980298089
 30
0.0
 40
0.109
  0
LINE
  5
FC
330
2
100
AcDbEntity
  8
0
100
AcDbLine
 10
-0.402969800655431
 20
8.812862238253384
 30
0.0
 11
-1.636385219122932
 21
8.81270216669078
 31
0.0
  0
CIRCLE
  5
FD
330
2
100
AcDbEntity
  8
0
100
AcDbCircle
 10
-0.7779713672170261
 20
8.437862238050077
 30
0.0
 40
0.109
  0
CIRCLE
  5
FE
330
2
100
AcDbEntity
  8
0
100
AcDbCircle
 10
0.7989729566149042
 20
8.437139980295473
 30
0.0
 40
0.109
  0
LINE
  5
FF
330
2
100
AcDbEntity
  8
0
100
AcDbLine
 10
1.640996516897042
 20
8.812287032922772
 30
0.0
 11
1.640996516897039
 21
5.059963501373466
 31
0.0
  0
LINE
  5
100
330
2
100
AcDbEntity
  8
0
100
AcDbLine
 10
1.562066516897039
 20
5.059963501373466
 30
0.0
 11
1.562066516897039
 21
8.812297276388396
 31
0.0
  0
LINE
  5
101
330
2
100
AcDbEntity
  8
0
100
AcDbLine
 10
0.9147412986401453
 20
11.87221059294924
 30
0.0
 11
1.649604006998493
 21
11.87221059294924
 31
0.0
  0
LINE
  5
102
330
2
100
AcDbEntity
  8
0
100
AcDbLine
 10
0.4475155708502006
 20
14.48369345224038
 30
0.0
 11
1.539604006998494
 21
14.48369345224038
 31
0.0
  0
LINE
  5
103
330
2
100
AcDbEntity
  8
0
100
AcDbLine
 10
1.509096250842644
 20
14.40441329242993
 30
0.0
 11
0.4475155708502006
 21
14.40441329242993
 31
0.0
  0
LINE
  5
104
330
2
100
AcDbEntity
  8
0
100
AcDbLine
 10
1.563466471384429
 20
14.37221059294924
 30
0.0
 11
0.9147412986401462
 21
14.37221059294924
 31
0.0
  0
LINE
  5
105
330
2
100
AcDbEntity
  8
0
100
AcDbLine
 10
-1.554146960373712
 20
14.3382237027927
 30
0.0
 11
-1.554146960373712
 21
11.87221059294924
 31
0.0
  0
LINE
  5
106
330
2
100
AcDbEntity
  8
0
100
AcDbLine
 10
-1.632621409718195
 20
14.37221059295299
 30
0.0
 11
-1.632621409718202
 21
11.87221059294924
 31
0.0
  0
LINE
  5
107
330
2
100
AcDbEntity
  8
0
100
AcDbLine
 10
-0.6477587013598547
 20
11.87221059294924
 30
0.0
 11
0.6647412986401453
 21
11.87221059294924
 31
0.0
  0
LINE
  5
108
330
2
100
AcDbEntity
  8
0
100
AcDbLine
 10
-1.632621409718202
 20
11.87221059294924
 30
0.0
 11
-0.8977587013598547
 21
11.87221059294924
 31
0.0
  0
ARC
  5
109
330
2
100
AcDbEntity
  8
0
100
AcDbCircle
 10
-0.7102587013598556
 20
11.90346059294924
 30
0.0
 40
0.0625
100
AcDbArc
 50
359.9999999999994
 51
90.0
  0
ARC
  5
10A
330
2
100
AcDbEntity
  8
0
100
AcDbCircle
 10
-0.8352587013598556
 20
11.90346059294924
 30
0.0
 40
0.0625
100
AcDbArc
 50
90.0
 51
179.9999999999994
  0
LINE
  5
10B
330
2
100
AcDbEntity
  8
0
100
AcDbLine
 10
-0.8352587013598556
 20
11.96596059294924
 30
0.0
 11
-0.7102587013598556
 21
11.96596059294924
 31
0.0
  0
LINE
  5
10C
330
2
100
AcDbEntity
  8
0
100
AcDbLine
 10
-0.6477587013598547
 20
11.87221059294924
 30
0.0
 11
-0.6477587013598556
 21
11.90346059294924
 31
0.0
  0
LINE
  5
10D
330
2
100
AcDbEntity
  8
0
100
AcDbLine
 10
-0.8977587013598547
 20
11.87221059294924
 30
0.0
 11
-0.8977587013598556
 21
11.90346059294924
 31
0.0
  0
LINE
  5
10E
330
2
100
AcDbEntity
  8
0
100
AcDbLine
 10
-1.632621409718199
 20
12.99721059294924
 30
0.0
 11
-1.554146960373712
 21
12.99721059294924
 31
0.0
  0
ARC
  5
10F
330
2
100
AcDbEntity
  8
0
100
AcDbCircle
 10
0.7272412986401444
 20
11.90346059294924
 30
0.0
 40
0.0625
100
AcDbArc
 50
90.0
 51
179.9999999999994
  0
LINE
  5
110
330
2
100
AcDbEntity
  8
0
100
AcDbLine
 10
0.6647412986401453
 20
11.87221059294924
 30
0.0
 11
0.6647412986401444
 21
11.90346059294924
 31
0.0
  0
ARC
  5
111
330
2
100
AcDbEntity
  8
0
100
AcDbCircle
 10
0.8522412986401444
 20
11.90346059294924
 30
0.0
 40
0.0625
100
AcDbArc
 50
359.9999999999994
 51
90.0
  0
LINE
  5
112
330
2
100
AcDbEntity
  8
0
100
AcDbLine
 10
0.7272412986401444
 20
11.96596059294924
 30
0.0
 11
0.8522412986401444
 21
11.96596059294924
 31
0.0
  0
LINE
  5
113
330
2
100
AcDbEntity
  8
0
100
AcDbLine
 10
0.9147412986401453
 20
11.87221059294924
 30
0.0
 11
0.9147412986401444
 21
11.90346059294924
 31
0.0
  0
LINE
  5
114
330
2
100
AcDbEntity
  8
0
100
AcDbLine
 10
0.6647412986401462
 20
14.37221059294924
 30
0.0
 11
-0.6477587013598538
 21
14.37221059294924
 31
0.0
  0
LINE
  5
115
330
2
100
AcDbEntity
  8
0
100
AcDbLine
 10
-1.492146960373721
 20
14.4002237027927
 30
0.0
 11
-0.3807343629005167
 21
14.4002237027927
 31
0.0
  0
LINE
  5
116
330
2
100
AcDbEntity
  8
0
100
AcDbLine
 10
-0.3807343629005167
 20
14.47950386260314
 30
0.0
 11
-1.522654716529563
 21
14.47950386260314
 31
0.0
  0
LINE
  5
117
330
2
100
AcDbEntity
  8
0
100
AcDbLine
 10
-0.8977587013598538
 20
14.37221059294924
 30
0.0
 11
-1.544001480885315
 21
14.37221059294924
 31
0.0
  0
ARC
  5
118
330
2
100
AcDbEntity
  8
0
100
AcDbCircle
 10
-1.522654716529563
 20
14.36950386260314
 30
0.0
 40
0.11
100
AcDbArc
 50
90.00000000000006
 51
178.5900010943918
  0
ARC
  5
119
330
2
100
AcDbEntity
  8
0
100
AcDbCircle
 10
-1.492146960373721
 20
14.3382237027927
 30
0.0
 40
0.062
100
AcDbArc
 50
90.00000000000006
 51
180.0
  0
ARC
  5
11A
330
2
100
AcDbEntity
  8
0
100
AcDbCircle
 10
-0.8352587013598538
 20
14.34096059294924
 30
0.0
 40
0.0625
100
AcDbArc
 50
179.9999999999994
 51
270.0
  0
ARC
  5
11B
330
2
100
AcDbEntity
  8
0
100
AcDbCircle
 10
-0.7102587013598538
 20
14.34096059294924
 30
0.0
 40
0.0625
100
AcDbArc
 50
270.0
 51
359.9999999999994
  0
LINE
  5
11C
330
2
100
AcDbEntity
  8
0
100
AcDbLine
 10
-0.7102587013598538
 20
14.27846059294924
 30
0.0
 11
-0.8352587013598538
 21
14.27846059294924
 31
0.0
  0
LINE
  5
11D
330
2
100
AcDbEntity
  8
0
100
AcDbLine
 10
-0.6477587013598538
 20
14.34096059294924
 30
0.0
 11
-0.6477587013598538
 21
14.37221059294924
 31
0.0
  0
LINE
  5
11E
330
2
100
AcDbEntity
  8
0
100
AcDbLine
 10
-0.8977587013598538
 20
14.34096059294924
 30
0.0
 11
-0.8977587013598538
 21
14.37221059294924
 31
0.0
  0
LINE
  5
11F
330
2
100
AcDbEntity
  8
0
100
AcDbLine
 10
-0.3807343629005167
 20
14.4002237027927
 30
0.0
 11
-0.3807343629005167
 21
14.47950386260314
 31
0.0
  0
ARC
  5
120
330
2
100
AcDbEntity
  8
0
100
AcDbCircle
 10
0.7272412986401462
 20
14.34096059294924
 30
0.0
 40
0.0625
100
AcDbArc
 50
179.9999999999994
 51
270.0
  0
LINE
  5
121
330
2
100
AcDbEntity
  8
0
100
AcDbLine
 10
0.6647412986401462
 20
14.34096059294924
 30
0.0
 11
0.6647412986401462
 21
14.37221059294924
 31
0.0
  0
LINE
  5
122
330
2
100
AcDbEntity
  8
0
100
AcDbLine
 10
0.4475155708502006
 20
14.40441329242993
 30
0.0
 11
0.4475155708502006
 21
14.48369345224038
 31
0.0
  0
ARC
  5
123
330
2
100
AcDbEntity
  8
0
100
AcDbCircle
 10
0.8522412986401462
 20
14.34096059294924
 30
0.0
 40
0.0625
100
AcDbArc
 50
270.0
 51
359.9999999999994
  0
LINE
  5
124
330
2
100
AcDbEntity
  8
0
100
AcDbLine
 10
0.9147412986401462
 20
14.34096059294924
 30
0.0
 11
0.9147412986401462
 21
14.37221059294924
 31
0.0
  0
LINE
  5
125
330
2
100
AcDbEntity
  8
0
100
AcDbLine
 10
0.8522412986401462
 20
14.27846059294924
 30
0.0
 11
0.7272412986401462
 21
14.27846059294924
 31
0.0
  0
LINE
  5
126
330
2
100
AcDbEntity
  8
0
100
AcDbLine
 10
1.571096250842649
 20
14.34241329242994
 30
0.0
 11
1.571096250842649
 21
11.87221059294924
 31
0.0
  0
LINE
  5
127
330
2
100
AcDbEntity
  8
0
100
AcDbLine
 10
1.649604006998493
 20
11.87221059294924
 30
0.0
 11
1.649604006998493
 21
14.37369345224038
 31
0.0
  0
LINE
  5
128
330
2
100
AcDbEntity
  8
0
100
AcDbLine
 10
1.571096250842649
 20
12.99721059294925
 30
0.0
 11
1.649604006998495
 21
12.99721059294924
 31
0.0
  0
ARC
  5
129
330
2
100
AcDbEntity
  8
0
100
AcDbCircle
 10
1.509096250842644
 20
14.34241329242994
 30
0.0
 40
0.062
100
AcDbArc
 50
359.9999999999999
 51
89.99999999999994
  0
ARC
  5
12A
330
2
100
AcDbEntity
  8
0
100
AcDbCircle
 10
1.539604006998494
 20
14.37369345224038
 30
0.0
 40
0.11
100
AcDbArc
 50
359.9999999999999
 51
89.99999999999994
  0
LINE
  5
12B
330
2
100
AcDbEntity
  8
0
100
AcDbLine
 10
1.649604006998493
 20
14.37369345224038
 30
0.0
 11
1.649604006998493
 21
14.37221059294924
 31
0.0
  0
LINE
  5
12C
330
2
100
AcDbEntity
  8
0
  6
HIDDEN
100
AcDbLine
 10
9.785163648661165
 20
2.872227641727615
 30
0.0
 11
9.78516364866115
 21
8.809927866058711
 31
0.0
  0
CIRCLE
  5
12D
330
2
100
AcDbEntity
  8
0
100
AcDbCircle
 10
8.806570077390365
 20
4.31321614066185
 30
0.0
 40
0.078
  0
LINE
  5
12E
330
2
100
AcDbEntity
  8
0
100
AcDbLine
 10
8.431570077390365
 20
8.810075080602825
 30
0.0
 11
8.431570077390365
 21
1.615397028909025
 31
0.0
  0
LINE
  5
12F
330
2
100
AcDbEntity
  8
0
100
AcDbLine
 10
9.891119648661157
 20
0.1375435013734636
 30
0.0
 11
9.891119648661171
 21
8.80991634246362
 31
0.0
  0
LINE
  5
130
330
2
100
AcDbEntity
  8
0
  6
HIDDEN
100
AcDbLine
 10
9.785163648661165
 20
0.1375435013734636
 30
0.0
 11
9.785163648661165
 21
2.560227641727614
 31
0.0
  0
LINE
  5
131
330
2
100
AcDbEntity
  8
0
100
AcDbLine
 10
7.293469648661155
 20
0.1375435013734636
 30
0.0
 11
8.431570077390365
 21
1.615397028909025
 31
0.0
  0
LINE
  5
132
330
2
100
AcDbEntity
  8
0
  6
HIDDEN
100
AcDbLine
 10
7.293469648661155
 20
0.003753501373466
 30
0.0
 11
9.785163648661165
 21
0.003753501373466
 31
0.0
  0
LINE
  5
133
330
2
100
AcDbEntity
  8
0
100
AcDbLine
 10
7.293469648661155
 20
-0.058746498626534
 30
0.0
 11
9.785163648661165
 21
-0.058746498626534
 31
0.0
  0
LINE
  5
134
330
2
100
AcDbEntity
  8
0
100
AcDbLine
 10
7.293469648661155
 20
-0.058746498626534
 30
0.0
 11
7.293469648661155
 21
0.1375435013734636
 31
0.0
  0
LINE
  5
135
330
2
100
AcDbEntity
  8
0
100
AcDbLine
 10
9.785163648661172
 20
0.1375435013734636
 30
0.0
 11
9.891119648661157
 21
0.1375435013734636
 31
0.0
  0
LINE
  5
136
330
2
100
AcDbEntity
  8
0
100
AcDbLine
 10
9.785163648661165
 20
-0.058746498626534
 30
0.0
 11
9.785163648661165
 21
0.1375435013734636
 31
0.0
  0
CIRCLE
  5
137
330
2
100
AcDbEntity
  8
0
100
AcDbCircle
 10
8.806570077390365
 20
0.9493061424929694
 30
0.0
 40
0.078
  0
ARC
  5
13F
330
2
100
AcDbEntity
  8
0
100
AcDbCircle
 10
9.785163648661158
 20
2.716227641727614
 30
0.0
 40
0.156
100
AcDbArc
 50
47.21843985917577
 51
312.7815601408242
  0
LINE
  5
140
330
2
100
AcDbEntity
  8
0
100
AcDbLine
 10
9.785163648661165
 20
2.872227641727615
 30
0.0
 11
9.785163648661165
 21
2.560227641727614
 31
0.0
  0
CIRCLE
  5
146
330
2
100
AcDbEntity
  8
0
100
AcDbCircle
 10
8.806570077390365
 20
8.435075080602832
 30
0.0
 40
0.078
  0
LINE
  5
147
330
2
100
AcDbEntity
  8
0
100
AcDbLine
 10
8.431570077390365
 20
8.810075080602832
 30
0.0
 11
9.891119648661164
 21
8.80991634246362
 31
0.0
  0
LWPOLYLINE
  5
148
330
2
100
AcDbEntity
  8
0
100
AcDbPolyline
 90
        6
 70
     1
 43
0.0
 10
-1.106443054641983
 20
3.482002211042031
 10
-1.289430995868188
 20
3.432970739624859
 42
0.5773502686101053
 10
-1.303439987568334
 20
3.380688470655309
 10
-1.169483517259879
 20
3.246732000346854
 42
0.5773502697691459
 10
-1.117201248262205
 20
3.260740992151958
 10
-1.068169777410996
 20
3.443728933811044
 42
0.5773502691896258
  0
LWPOLYLINE
  5
14F
330
2
100
AcDbEntity
  8
0
100
AcDbPolyline
 90
        6
 70
     1
 43
0.0
 10
-1.106443054641983
 20
2.354003675975176
 10
-1.289430995868188
 20
2.304972204558003
 42
0.5773502686101053
 10
-1.303439987568334
 20
2.252689935588452
 10
-1.169483517259879
 20
2.118733465279997
 42
0.5773502697691459
 10
-1.117201248262205
 20
2.132742457085102
 10
-1.068169777410996
 20
2.315730398744187
 42
0.5773502691896258
  0
LWPOLYLINE
  5
156
330
2
100
AcDbEntity
  8
0
100
AcDbPolyline
 90
        6
 70
     1
 43
0.0
 10
1.12744399643284
 20
3.482002211042032
 10
1.310431937659045
 20
3.432970739624859
 42
-0.5773502686101053
 10
1.324440929359192
 20
3.380688470655309
 10
1.190484459050737
 20
3.246732000346854
 42
-0.5773502697691459
 10
1.138202190053063
 20
3.260740992151958
 10
1.089170719201853
 20
3.443728933811044
 42
-0.5773502691896258
  0
LWPOLYLINE
  5
15D
330
2
100
AcDbEntity
  8
0
100
AcDbPolyline
 90
        6
 70
     1
 43
0.0
 10
1.12744399643284
 20
2.354003675975176
 10
1.310431937659045
 20
2.304972204558003
 42
-0.5773502686101053
 10
1.324440929359192
 20
2.252689935588452
 10
1.190484459050737
 20
2.118733465279997
 42
-0.5773502697691459
 10
1.138202190053063
 20
2.132742457085102
 10
1.089170719201853
 20
2.315730398744187
 42
-0.5773502691896258
  0
LWPOLYLINE
  5
164
330
2
100
AcDbEntity
  8
0
100
AcDbPolyline
 90
        6
 70
     1
 43
0.0
 10
8.875821786077434
 20
2.979979362026929
 10
8.692833844851233
 20
2.930947890609757
 42
0.5773502686101053
 10
8.678824853151088
 20
2.878665621640207
 10
8.812781323459543
 20
2.744709151331752
 42
0.5773502697691459
 10
8.865063592457215
 20
2.758718143136856
 10
8.914095063308427
 20
2.941706084795942
 42
0.5773502691896258
  0
LWPOLYLINE
  5
16B
330
2
100
AcDbEntity
  8
0
100
AcDbPolyline
 90
        6
 70
     1
 43
0.0
 10
8.875821786077434
 20
6.976838301967914
 10
8.692833844851233
 20
6.927806830550741
 42
0.5773502686101053
 10
8.678824853151081
 20
6.87552456158119
 10
8.812781323459536
 20
6.741568091272735
 42
0.5773502697691459
 10
8.865063592457215
 20
6.755577083077839
 10
8.91409506330842
 20
6.938565024736925
 42
0.5773502691896258
  0
LINE
  5
17E
330
2
100
AcDbEntity
  8
0
  6
HIDDEN
100
AcDbLine
 10
-9.780552350887067
 20
2.872227641727615
 30
0.0
 11
-9.780552350887053
 21
8.809927866058711
 31
0.0
  0
CIRCLE
  5
17F
330
2
100
AcDbEntity
  8
0
100
AcDbCircle
 10
-8.801958779616268
 20
3.66058841680174
 30
0.0
 40
0.078
  0
LINE
  5
180
330
2
100
AcDbEntity
  8
0
100
AcDbLine
 10
-8.426958779616268
 20
8.810075080602825
 30
0.0
 11
-8.426958779616268
 21
1.615397028909025
 31
0.0
  0
LINE
  5
181
330
2
100
AcDbEntity
  8
0
100
AcDbLine
 10
-9.886508350887059
 20
0.1375435013734636
 30
0.0
 11
-9.886508350887073
 21
8.80991634246362
 31
0.0
  0
LINE
  5
182
330
2
100
AcDbEntity
  8
0
  6
HIDDEN
100
AcDbLine
 10
-9.780552350887067
 20
0.1375435013734636
 30
0.0
 11
-9.780552350887067
 21
2.560227641727614
 31
0.0
  0
LINE
  5
183
330
2
100
AcDbEntity
  8
0
100
AcDbLine
 10
-7.288858350887058
 20
0.1375435013734636
 30
0.0
 11
-8.426958779616268
 21
1.615397028909025
 31
0.0
  0
LINE
  5
184
330
2
100
AcDbEntity
  8
0
  6
HIDDEN
100
AcDbLine
 10
-7.288858350887058
 20
0.003753501373466
 30
0.0
 11
-9.780552350887067
 21
0.003753501373466
 31
0.0
  0
LINE
  5
185
330
2
100
AcDbEntity
  8
0
100
AcDbLine
 10
-7.288858350887058
 20
-0.058746498626534
 30
0.0
 11
-9.780552350887067
 21
-0.058746498626534
 31
0.0
  0
LINE
  5
186
330
2
100
AcDbEntity
  8
0
100
AcDbLine
 10
-7.288858350887058
 20
-0.058746498626534
 30
0.0
 11
-7.288858350887058
 21
0.1375435013734636
 31
0.0
  0
LINE
  5
187
330
2
100
AcDbEntity
  8
0
100
AcDbLine
 10
-9.780552350887074
 20
0.1375435013734636
 30
0.0
 11
-9.886508350887059
 21
0.1375435013734636
 31
0.0
  0
LINE
  5
188
330
2
100
AcDbEntity
  8
0
100
AcDbLine
 10
-9.780552350887067
 20
-0.058746498626534
 30
0.0
 11
-9.780552350887067
 21
0.1375435013734636
 31
0.0
  0
CIRCLE
  5
189
330
2
100
AcDbEntity
  8
0
100
AcDbCircle
 10
-8.801958779616268
 20
1.46172374000258
 30
0.0
 40
0.078
  0
ARC
  5
190
330
2
100
AcDbEntity
  8
0
100
AcDbCircle
 10
-9.78055235088706
 20
2.716227641727614
 30
0.0
 40
0.156
100
AcDbArc
 50
227.2184398591758
 51
132.7815601408242
  0
LINE
  5
191
330
2
100
AcDbEntity
  8
0
100
AcDbLine
 10
-9.780552350887067
 20
2.872227641727615
 30
0.0
 11
-9.780552350887067
 21
2.560227641727614
 31
0.0
  0
CIRCLE
  5
196
330
2
100
AcDbEntity
  8
0
100
AcDbCircle
 10
-8.801958779616268
 20
7.782447356742722
 30
0.0
 40
0.078
  0
LINE
  5
197
330
2
100
AcDbEntity
  8
0
100
AcDbLine
 10
-8.426958779616268
 20
8.810075080602832
 30
0.0
 11
-9.886508350887066
 21
8.80991634246362
 31
0.0
  0
LINE
  5
19B
330
2
100
AcDbEntity
  8
0
100
AcDbLine
 10
-8.871210488303337
 20
2.327351638166818
 30
0.0
 11
-8.688222547077135
 21
2.278320166749647
 31
0.0
  0
ARC
  5
19C
330
2
100
AcDbEntity
  8
0
100
AcDbCircle
 10
-8.696310642289069
 20
2.248134984692176
 30
0.0
 40
0.0312499999999993
100
AcDbArc
 50
314.9999999999977
 51
74.99999990038599
  0
LINE
  5
19D
330
2
100
AcDbEntity
  8
0
100
AcDbLine
 10
-8.674213555376991
 20
2.226037897780096
 30
0.0
 11
-8.808170025685445
 21
2.092081427471642
 31
0.0
  0
ARC
  5
19E
330
2
100
AcDbEntity
  8
0
100
AcDbCircle
 10
-8.830267112597523
 20
2.11417851438372
 30
0.0
 40
0.0312499999999984
100
AcDbArc
 50
194.9999999003876
 51
314.9999999999988
  0
LINE
  5
19F
330
2
100
AcDbEntity
  8
0
100
AcDbLine
 10
-8.860452294683118
 20
2.106090419276746
 30
0.0
 11
-8.909483765534329
 21
2.289078360935831
 31
0.0
  0
ARC
  5
1A0
330
2
100
AcDbEntity
  8
0
100
AcDbCircle
 10
-8.879298583462793
 20
2.297166456095284
 30
0.0
 40
0.0312500000000021
100
AcDbArc
 50
74.99999999999633
 51
194.9999999999959
  0
LINE
  5
1A2
330
2
100
AcDbEntity
  8
0
100
AcDbLine
 10
-8.871210488303337
 20
6.324210578107803
 30
0.0
 11
-8.688222547077135
 21
6.27517910669063
 31
0.0
  0
ARC
  5
1A3
330
2
100
AcDbEntity
  8
0
100
AcDbCircle
 10
-8.696310642289065
 20
6.244993924633158
 30
0.0
 40
0.0312500000000001
100
AcDbArc
 50
315.0000000000046
 51
74.99999990039312
  0
LINE
  5
1A4
330
2
100
AcDbEntity
  8
0
100
AcDbLine
 10
-8.674213555376984
 20
6.22289683772108
 30
0.0
 11
-8.808170025685438
 21
6.088940367412625
 31
0.0
  0
ARC
  5
1A5
330
2
100
AcDbEntity
  8
0
100
AcDbCircle
 10
-8.83026711259752
 20
6.111037454324706
 30
0.0
 40
0.0312500000000021
100
AcDbArc
 50
194.999999900389
 51
315.0000000000012
  0
LINE
  5
1A6
330
2
100
AcDbEntity
  8
0
100
AcDbLine
 10
-8.860452294683118
 20
6.102949359217729
 30
0.0
 11
-8.909483765534322
 21
6.285937300876815
 31
0.0
  0
ARC
  5
1A7
330
2
100
AcDbEntity
  8
0
100
AcDbCircle
 10
-8.87929858346279
 20
6.29402539603627
 30
0.0
 40
0.0312499999999995
100
AcDbArc
 50
75.00000000000199
 51
195.0000000000031
  0
ENDSEC
  0
SECTION
  2
OBJECTS
  0
DICTIONARY
  5
9
330
0
100
AcDbDictionary
281
     1
  3
ACAD_COLOR
350
179
  3
ACAD_GROUP
350
23
  3
ACAD_LAYOUT
350
D
  3
ACAD_MATERIAL
350
178
  3
ACAD_MLINESTYLE
350
24
  3
ACAD_PLOTSETTINGS
350
25
  3
ACAD_PLOTSTYLENAME
350
8
  3
ACAD_TABLESTYLE
350
17A
  3
ACDBHEADERROUNDTRIPXREC
350
1BC
  3
AcDbVariableDictionary
350
C8
  0
DICTIONARY
  5
3
330
2
100
AcDbDictionary
280
     1
281
     1
  3
ACAD_SORTENTS
360
1A1
  0
DICTIONARY
  5
179
102
{ACAD_REACTORS
330
9
102
}
330
9
100
AcDbDictionary
281
     1
  0
DICTIONARY
  5
23
102
{ACAD_REACTORS
330
9
102
}
330
9
100
AcDbDictionary
281
     1
  0
DICTIONARY
  5
D
102
{ACAD_REACTORS
330
9
102
}
330
9
100
AcDbDictionary
281
     1
  3
Layout1
350
13
  3
Model
350
C
  0
DICTIONARY
  5
178
102
{ACAD_REACTORS
330
9
102
}
330
9
100
AcDbDictionary
281
     1
  0
DICTIONARY
  5
24
102
{ACAD_REACTORS
330
9
102
}
330
9
100
AcDbDictionary
281
     1
  3
STANDARD
350
27
  0
DICTIONARY
  5
25
102
{ACAD_REACTORS
330
9
102
}
330
9
100
AcDbDictionary
281
     1
  0
ACDBDICTIONARYWDFLT
  5
8
102
{ACAD_REACTORS
330
9
102
}
330
9
100
AcDbDictionary
281
     1
  3
Normal
350
7
100
AcDbDictionaryWithDefault
340
7
  0
DICTIONARY
  5
17A
102
{ACAD_REACTORS
330
9
102
}
330
9
100
AcDbDictionary
281
     1
  3
Standard
350
17B
  0
DICTIONARY
  5
1BC
102
{ACAD_REACTORS
330
9
102
}
330
9
100
AcDbDictionary
281
     1
  3
COLORDICT
350
1BD
  3
MATERIALDICT
350
1BE
  0
DICTIONARY
  5
C8
102
{ACAD_REACTORS
330
9
102
}
330
9
100
AcDbDictionary
281
     1
  3
CTABLESTYLE
350
1B9
  3
HIDETEXT
350
1BB
  0
SORTENTSTABLE
  5
1A1
102
{ACAD_REACTORS
330
3
102
}
330
3
100
AcDbSortentsTable
330
2
331
0
  5
1A0
331
16B
  5
16B
331
100
  5
100
331
105
  5
105
331
140
  5
140
331
11C
  5
11C
331
118
  5
118
331
12D
  5
12D
331
19F
  5
19E
331
129
  5
129
331
182
  5
182
331
184
  5
184
331
15D
  5
15D
331
10E
  5
10E
331
E7
  5
E7
331
121
  5
121
331
F5
  5
F5
331
DC
  5
DC
331
D7
  5
D7
331
11B
  5
11B
331
DD
  5
DD
331
F0
  5
F0
331
12B
  5
12B
331
180
  5
180
331
FD
  5
FD
331
13F
  5
13F
331
119
  5
119
331
FC
  5
FC
331
F4
  5
F4
331
148
  5
148
331
D5
  5
D5
331
DE
  5
DE
331
113
  5
113
331
12E
  5
12E
331
136
  5
136
331
124
  5
124
331
E5
  5
E5
331
111
  5
111
331
189
  5
189
331
10C
  5
10C
331
190
  5
190
331
188
  5
188
331
19D
  5
19C
331
FB
  5
FB
331
108
  5
108
331
19C
  5
19B
331
F6
  5
F6
331
123
  5
123
331
E4
  5
E4
331
10F
  5
10F
331
12F
  5
12F
331
115
  5
115
331
11F
  5
11F
331
110
  5
110
331
156
  5
156
331
E1
  5
E1
331
1A5
  5
1A5
331
147
  5
147
331
191
  5
191
331
EE
  5
EE
331
131
  5
131
331
197
  5
197
331
11A
  5
11A
331
1A0
  5
19F
331
10A
  5
10A
331
116
  5
116
331
134
  5
134
331
101
  5
101
331
104
  5
104
331
D8
  5
D8
331
126
  5
126
331
17F
  5
17F
331
122
  5
122
331
DF
  5
DF
331
187
  5
187
331
102
  5
102
331
E2
  5
E2
331
186
  5
186
331
F3
  5
F3
331
103
  5
103
331
1A3
  5
1A3
331
1A7
  5
1A7
331
D4
  5
D4
331
114
  5
114
331
19B
  5
199
331
14F
  5
14F
331
109
  5
109
331
EC
  5
EC
331
E9
  5
E9
331
FF
  5
FF
331
D6
  5
D6
331
19E
  5
19D
331
1A2
  5
1A2
331
EA
  5
EA
331
FA
  5
FA
331
1A4
  5
1A4
331
11E
  5
11E
331
E0
  5
E0
331
130
  5
130
331
E6
  5
E6
331
F8
  5
F8
331
135
  5
135
331
117
  5
117
331
F7
  5
F7
331
125
  5
125
331
120
  5
120
331
164
  5
164
331
10B
  5
10B
331
E3
  5
E3
331
10D
  5
10D
331
D9
  5
D9
331
132
  5
132
331
F2
  5
F2
331
137
  5
137
331
127
  5
127
331
106
  5
106
331
107
  5
107
331
128
  5
128
331
12A
  5
12A
331
112
  5
112
331
17E
  5
17E
331
F1
  5
F1
331
183
  5
183
331
196
  5
196
331
185
  5
185
331
12C
  5
12C
331
11D
  5
11D
331
E8
  5
E8
331
FE
  5
FE
331
EB
  5
EB
331
181
  5
181
331
F9
  5
F9
331
146
  5
146
331
1A6
  5
1A6
331
133
  5
133
  0
LAYOUT
  5
13
102
{ACAD_REACTORS
330
D
102
}
102
{ACAD_XDICTIONARY
360
1BF
102
}
330
D
100
AcDbPlotSettings
  1

  2
C:\ACAD2000\plotters\HP LaserJet 2100 Series PS.pc3
  4

  6

 40
0.0
 41
0.0
 42
0.0
 43
0.0
 44
0.0
 45
0.0
 46
0.0
 47
0.0
 48
0.0
 49
0.0
140
0.0
141
0.0
142
1.0
143
1.0
 70
   688
 72
     0
 73
     0
 74
     5
  7

 75
    16
147
1.0
148
0.0
149
0.0
100
AcDbLayout
  1
Layout1
 70
     0
 71
     1
 10
0.0
 20
0.0
 11
12.0
 21
9.0
 12
0.0
 22
0.0
 32
0.0
 14
1.000000000000000E+20
 24
1.000000000000000E+20
 34
1.000000000000000E+20
 15
-1.000000000000000E+20
 25
-1.000000000000000E+20
 35
-1.000000000000000E+20
146
0.0
 13
0.0
 23
0.0
 33
0.0
 16
1.0
 26
0.0
 36
0.0
 17
0.0
 27
1.0
 37
0.0
 76
     0
330
E
  0
LAYOUT
  5
C
102
{ACAD_REACTORS
330
D
102
}
102
{ACAD_XDICTIONARY
360
1C1
102
}
330
D
100
AcDbPlotSettings
  1

  2
HP LaserJet 2100 Series PS
  4
Letter
  6

 40
3.174999952316284
 41
3.174999952316284
 42
3.175003051757813
 43
3.17498779296875
 44
215.9000091552734
 45
279.3999938964844
 46
0.0
 47
0.0
 48
0.0
 49
0.0
140
0.0
141
0.0
142
1.0
143
3.818181706101661
 70
 28336
 72
     0
 73
     1
 74
     2
  7

 75
     0
147
0.2619047695928001
148
0.0
149
0.0
100
AcDbLayout
  1
Model
 70
     1
 71
     0
 10
0.0
 20
0.0
 11
12.0
 21
9.0
 12
0.0
 22
0.0
 32
0.0
 14
0.0
 24
0.0
 34
0.0
 15
0.0
 25
0.0
 35
0.0
146
0.0
 13
0.0
 23
0.0
 33
0.0
 16
1.0
 26
0.0
 36
0.0
 17
0.0
 27
1.0
 37
0.0
 76
     0
330
2
  0
MLINESTYLE
  5
27
102
{ACAD_REACTORS
330
24
102
}
330
24
100
AcDbMlineStyle
  2
STANDARD
 70
     0
  3

 62
   256
 51
90.0
 52
90.0
 71
     2
 49
0.5
 62
   256
  6
BYLAYER
 49
-0.5
 62
   256
  6
BYLAYER
  0
ACDBPLACEHOLDER
  5
7
102
{ACAD_REACTORS
330
8
102
}
330
8
  0
ACAD_PROXY_OBJECT
  5
17B
102
{ACAD_REACTORS
330
17A
102
}
330
17A
100
AcDbProxyObject
 90
      499
 91
      513
 95
   983063
 70
     0
 93
     1841
310
4214DD185B99185C9928B81E85EB51B8AE3F2E07A17AD46E2B8FC02B5E8DC0F42B1CFD028000000C1008070000C3001FDFF8000000C1003FBFF000000182007F7FE00000030400FEFFC00000060801FDFF8000000C1003FBFF00000018200000000000000681FA0B0000001820100E000186003FBFF000000182007F7FE000
310
00030400FEFFC00000060801FDFF8000000C1003FBFF000000182007F7FE000000304000AD7A3703D0AC73F4160000003040201C00030C007F7FE00000030400FEFFC00000060801FDFF8000000C1003FBFF000000182007F7FE00000030400FEFFC000000608000
340
16
340
16
340
16
 94
        0
  0
XRECORD
  5
1BD
102
{ACAD_REACTORS
330
1BC
102
}
330
1BC
100
AcDbXrecord
340
179
  0
XRECORD
  5
1BE
102
{ACAD_REACTORS
330
1BC
102
}
330
1BC
100
AcDbXrecord
340
178
  0
DICTIONARYVAR
  5
1B9
102
{ACAD_REACTORS
330
C8
102
}
330
C8
100
DictionaryVariables
280
     0
  1
STANDARD
  0
DICTIONARYVAR
  5
1BB
102
{ACAD_REACTORS
330
C8
102
}
330
C8
100
DictionaryVariables
280
     0
  1
0
  0
DICTIONARY
  5
1BF
330
13
100
AcDbDictionary
280
     1
281
     1
  3
ACAD_XREC_ROUNDTRIP
360
1C0
  0
DICTIONARY
  5
1C1
330
C
100
AcDbDictionary
280
     1
281
     1
  3
ACAD_XREC_ROUNDTRIP
360
1C2
  0
XRECORD
  5
1C0
102
{ACAD_REACTORS
330
1BF
102
}
330
1BF
100
AcDbXrecord
102
SHADEPLOT
 70
     0
102
SHADEPLOTRESLEVEL
 70
     2
102
SHADEPLOTCUSTOMDPI
 70
   300
  0
XRECORD
  5
1C2
102
{ACAD_REACTORS
330
1C1
102
}
330
1C1
100
AcDbXrecord
102
SHADEPLOT
 70
     0
102
SHADEPLOTRESLEVEL
 70
     2
102
SHADEPLOTCUSTOMDPI
 70
   300
  0
ENDSEC
  0
EOF
