  0
SECTION
  2
HEADER
  9
$ACADVER
  1
AC1015
  9
$ACADMAINTVER
 70
     6
  9
$DWGCODEPAGE
  3
ANSI_1252
  9
$INSBASE
 10
0.0
 20
0.0
 30
0.0
  9
$EXTMIN
 10
-2.217150612272937
 20
0.4006102545943175
 30
0.0
  9
$EXTMAX
 10
18.6563343005872
 20
25.17973342713085
 30
0.0
  9
$LIMMIN
 10
0.0
 20
0.0
  9
$LIMMAX
 10
52.5
 20
40.0
  9
$ORTHOMODE
 70
     0
  9
$REGENMODE
 70
     1
  9
$FILLMODE
 70
     1
  9
$QTEXTMODE
 70
     0
  9
$MIRRTEXT
 70
     0
  9
$LTSCALE
 40
1.0
  9
$ATTMODE
 70
     1
  9
$TEXTSIZE
 40
1.0
  9
$TRACEWID
 40
0.05
  9
$TEXTSTYLE
  7
STANDARD
  9
$CLAYER
  8
0
  9
$CELTYPE
  6
HIDDEN
  9
$CECOLOR
 62
   256
  9
$CELTSCALE
 40
1.0
  9
$DISPSILH
 70
     0
  9
$DIMSCALE
 40
5.0
  9
$DIMASZ
 40
0.125
  9
$DIMEXO
 40
0.062
  9
$DIMDLI
 40
0.375
  9
$DIMRND
 40
0.0
  9
$DIMDLE
 40
0.0
  9
$DIMEXE
 40
0.08
  9
$DIMTP
 40
0.0
  9
$DIMTM
 40
0.0
  9
$DIMTXT
 40
0.09
  9
$DIMCEN
 40
-0.03125
  9
$DIMTSZ
 40
0.0
  9
$DIMTOL
 70
     0
  9
$DIMLIM
 70
     0
  9
$DIMTIH
 70
     1
  9
$DIMTOH
 70
     1
  9
$DIMSE1
 70
     0
  9
$DIMSE2
 70
     0
  9
$DIMTAD
 70
     0
  9
$DIMZIN
 70
     0
  9
$DIMBLK
  1

  9
$DIMASO
 70
     0
  9
$DIMSHO
 70
     0
  9
$DIMPOST
  1

  9
$DIMAPOST
  1

  9
$DIMALT
 70
     0
  9
$DIMALTD
 70
     2
  9
$DIMALTF
 40
25.4
  9
$DIMLFAC
 40
1.0
  9
$DIMTOFL
 70
     0
  9
$DIMTVP
 40
0.0
  9
$DIMTIX
 70
     0
  9
$DIMSOXD
 70
     0
  9
$DIMSAH
 70
     0
  9
$DIMBLK1
  1

  9
$DIMBLK2
  1

  9
$DIMSTYLE
  2
Standard
  9
$DIMCLRD
 70
     0
  9
$DIMCLRE
 70
     0
  9
$DIMCLRT
 70
     0
  9
$DIMTFAC
 40
1.0
  9
$DIMGAP
 40
0.09
  9
$DIMJUST
 70
     0
  9
$DIMSD1
 70
     0
  9
$DIMSD2
 70
     0
  9
$DIMTOLJ
 70
     1
  9
$DIMTZIN
 70
     0
  9
$DIMALTZ
 70
     0
  9
$DIMALTTZ
 70
     0
  9
$DIMUPT
 70
     0
  9
$DIMDEC
 70
     4
  9
$DIMTDEC
 70
     4
  9
$DIMALTU
 70
     5
  9
$DIMALTTD
 70
     2
  9
$DIMTXSTY
  7
STANDARD
  9
$DIMAUNIT
 70
     0
  9
$DIMADEC
 70
     0
  9
$DIMALTRND
 40
0.0
  9
$DIMAZIN
 70
     0
  9
$DIMDSEP
 70
    46
  9
$DIMATFIT
 70
     3
  9
$DIMFRAC
 70
     0
  9
$DIMLDRBLK
  1

  9
$DIMLUNIT
 70
     5
  9
$DIMLWD
 70
    -2
  9
$DIMLWE
 70
    -2
  9
$DIMTMOVE
 70
     2
  9
$LUNITS
 70
     5
  9
$LUPREC
 70
     4
  9
$SKETCHINC
 40
0.1
  9
$FILLETRAD
 40
0.0
  9
$AUNITS
 70
     0
  9
$AUPREC
 70
     0
  9
$MENU
  1
acad
  9
$ELEVATION
 40
0.0
  9
$PELEVATION
 40
0.0
  9
$THICKNESS
 40
0.0
  9
$LIMCHECK
 70
     0
  9
$CHAMFERA
 40
0.0
  9
$CHAMFERB
 40
0.0
  9
$CHAMFERC
 40
0.0
  9
$CHAMFERD
 40
0.0
  9
$SKPOLY
 70
     0
  9
$TDCREATE
 40
2449489.947862847
  9
$TDUCREATE
 40
2449490.281196181
  9
$TDUPDATE
 40
2454165.816522002
  9
$TDUUPDATE
 40
2454166.149855336
  9
$TDINDWG
 40
0.0865156019
  9
$TDUSRTIMER
 40
0.0865156019
  9
$USRTIMER
 70
     1
  9
$ANGBASE
 50
0.0
  9
$ANGDIR
 70
     0
  9
$PDMODE
 70
     0
  9
$PDSIZE
 40
0.0
  9
$PLINEWID
 40
0.0
  9
$SPLFRAME
 70
     0
  9
$SPLINETYPE
 70
     6
  9
$SPLINESEGS
 70
     8
  9
$HANDSEED
  5
466
  9
$SURFTAB1
 70
     6
  9
$SURFTAB2
 70
     6
  9
$SURFTYPE
 70
     6
  9
$SURFU
 70
     6
  9
$SURFV
 70
     6
  9
$UCSBASE
  2

  9
$UCSNAME
  2

  9
$UCSORG
 10
0.0
 20
0.0
 30
0.0
  9
$UCSXDIR
 10
1.0
 20
0.0
 30
0.0
  9
$UCSYDIR
 10
0.0
 20
1.0
 30
0.0
  9
$UCSORTHOREF
  2

  9
$UCSORTHOVIEW
 70
     0
  9
$UCSORGTOP
 10
0.0
 20
0.0
 30
0.0
  9
$UCSORGBOTTOM
 10
0.0
 20
0.0
 30
0.0
  9
$UCSORGLEFT
 10
0.0
 20
0.0
 30
0.0
  9
$UCSORGRIGHT
 10
0.0
 20
0.0
 30
0.0
  9
$UCSORGFRONT
 10
0.0
 20
0.0
 30
0.0
  9
$UCSORGBACK
 10
0.0
 20
0.0
 30
0.0
  9
$PUCSBASE
  2

  9
$PUCSNAME
  2

  9
$PUCSORG
 10
0.0
 20
0.0
 30
0.0
  9
$PUCSXDIR
 10
1.0
 20
0.0
 30
0.0
  9
$PUCSYDIR
 10
0.0
 20
1.0
 30
0.0
  9
$PUCSORTHOREF
  2

  9
$PUCSORTHOVIEW
 70
     0
  9
$PUCSORGTOP
 10
0.0
 20
0.0
 30
0.0
  9
$PUCSORGBOTTOM
 10
0.0
 20
0.0
 30
0.0
  9
$PUCSORGLEFT
 10
0.0
 20
0.0
 30
0.0
  9
$PUCSORGRIGHT
 10
0.0
 20
0.0
 30
0.0
  9
$PUCSORGFRONT
 10
0.0
 20
0.0
 30
0.0
  9
$PUCSORGBACK
 10
0.0
 20
0.0
 30
0.0
  9
$USERI1
 70
     0
  9
$USERI2
 70
     0
  9
$USERI3
 70
     0
  9
$USERI4
 70
     0
  9
$USERI5
 70
     0
  9
$USERR1
 40
0.0
  9
$USERR2
 40
0.0
  9
$USERR3
 40
0.0
  9
$USERR4
 40
0.0
  9
$USERR5
 40
0.0
  9
$WORLDVIEW
 70
     1
  9
$SHADEDGE
 70
     3
  9
$SHADEDIF
 70
    70
  9
$TILEMODE
 70
     1
  9
$MAXACTVP
 70
    16
  9
$PINSBASE
 10
0.0
 20
0.0
 30
0.0
  9
$PLIMCHECK
 70
     0
  9
$PEXTMIN
 10
1.000000000000000E+20
 20
1.000000000000000E+20
 30
1.000000000000000E+20
  9
$PEXTMAX
 10
-1.000000000000000E+20
 20
-1.000000000000000E+20
 30
-1.000000000000000E+20
  9
$PLIMMIN
 10
0.0
 20
0.0
  9
$PLIMMAX
 10
12.0
 20
9.0
  9
$UNITMODE
 70
     0
  9
$VISRETAIN
 70
     0
  9
$PLINEGEN
 70
     0
  9
$PSLTSCALE
 70
     0
  9
$TREEDEPTH
 70
  3020
  9
$CMLSTYLE
  2
Standard
  9
$CMLJUST
 70
     0
  9
$CMLSCALE
 40
1.0
  9
$PROXYGRAPHICS
 70
     1
  9
$MEASUREMENT
 70
     0
  9
$CELWEIGHT
370
    -1
  9
$ENDCAPS
280
     0
  9
$JOINSTYLE
280
     0
  9
$LWDISPLAY
290
     0
  9
$INSUNITS
 70
     0
  9
$HYPERLINKBASE
  1

  9
$STYLESHEET
  1

  9
$XEDIT
290
     1
  9
$CEPSNTYPE
380
     0
  9
$PSTYLEMODE
290
     1
  9
$FINGERPRINTGUID
  2
{42DA60EC-A71B-4EF0-BA70-1EE191F8C164}
  9
$VERSIONGUID
  2
{B58636A2-4152-4580-8B4A-34BEB30C86AE}
  9
$EXTNAMES
290
     1
  9
$PSVPSCALE
 40
0.0
  9
$OLESTARTUP
290
     0
  0
ENDSEC
  0
SECTION
  2
CLASSES
  0
CLASS
  1
ACDBDICTIONARYWDFLT
  2
AcDbDictionaryWithDefault
  3
AutoCAD 2000
 90
        0
280
     0
281
     0
  0
CLASS
  1
ACDBPLACEHOLDER
  2
AcDbPlaceHolder
  3
ObjectDBX Classes
 90
        0
280
     0
281
     0
  0
CLASS
  1
LAYOUT
  2
AcDbLayout
  3
ObjectDBX Classes
 90
        0
280
     0
281
     0
  0
CLASS
  1
TABLESTYLE
  2
AcDbTableStyle
  3
ObjectDBX Classes
 90
     2047
280
     1
281
     0
  0
CLASS
  1
DICTIONARYVAR
  2
AcDbDictionaryVar
  3
AutoCAD 2000
 90
        0
280
     0
281
     0
  0
ENDSEC
  0
SECTION
  2
TABLES
  0
TABLE
  2
VPORT
  5
8
330
0
100
AcDbSymbolTable
 70
     3
  0
VPORT
  5
458
330
8
100
AcDbSymbolTableRecord
100
AcDbViewportTableRecord
  2
*Active
 70
     0
 10
0.0
 20
0.0
 11
1.0
 21
1.0
 12
22.77725492983706
 22
14.00952880926882
 13
0.0
 23
0.0
 14
0.0625
 24
0.0625
 15
0.25
 25
0.25
 16
0.0
 26
0.0
 36
1.0
 17
0.0
 27
0.0
 37
0.0
 40
40.49896048010184
 41
1.814583333333333
 42
50.0
 43
0.0
 44
0.0
 50
0.0
 51
0.0
 71
     0
 72
   100
 73
     1
 74
     0
 75
     0
 76
     0
 77
     0
 78
     0
281
     0
 65
     1
110
0.0
120
0.0
130
0.0
111
1.0
121
0.0
131
0.0
112
0.0
122
1.0
132
0.0
 79
     0
146
0.0
  0
ENDTAB
  0
TABLE
  2
LTYPE
  5
5
330
0
100
AcDbSymbolTable
 70
     2
  0
LTYPE
  5
13
330
5
100
AcDbSymbolTableRecord
100
AcDbLinetypeTableRecord
  2
ByBlock
 70
     0
  3

 72
    65
 73
     0
 40
0.0
  0
LTYPE
  5
14
330
5
100
AcDbSymbolTableRecord
100
AcDbLinetypeTableRecord
  2
ByLayer
 70
     0
  3

 72
    65
 73
     0
 40
0.0
  0
LTYPE
  5
15
330
5
100
AcDbSymbolTableRecord
100
AcDbLinetypeTableRecord
  2
CONTINUOUS
 70
     0
  3
Solid line
 72
    65
 73
     0
 40
0.0
  0
LTYPE
  5
41
330
5
100
AcDbSymbolTableRecord
100
AcDbLinetypeTableRecord
  2
HIDDEN
 70
     0
  3
_ _ _ _ _ _ _ _ _ _ _ _ _ _ _ _ _ _ _ _ _ _ _
 72
    65
 73
     2
 40
0.375
 49
0.25
 74
     0
 49
-0.125
 74
     0
  0
ENDTAB
  0
TABLE
  2
LAYER
  5
2
102
{ACAD_XDICTIONARY
360
442
102
}
330
0
100
AcDbSymbolTable
 70
     3
  0
LAYER
  5
10
330
2
100
AcDbSymbolTableRecord
100
AcDbLayerTableRecord
  2
0
 70
     0
 62
     7
  6
CONTINUOUS
370
    -3
390
F
  0
LAYER
  5
4F
330
2
100
AcDbSymbolTableRecord
100
AcDbLayerTableRecord
  2
OBJECT
 70
     0
 62
     7
  6
CONTINUOUS
370
    -3
390
F
  0
LAYER
  5
57
330
2
100
AcDbSymbolTableRecord
100
AcDbLayerTableRecord
  2
DEFPOINTS
 70
     0
 62
     7
  6
CONTINUOUS
290
     0
370
    -3
390
F
  0
ENDTAB
  0
TABLE
  2
STYLE
  5
3
330
0
100
AcDbSymbolTable
 70
     1
  0
STYLE
  5
11
330
3
100
AcDbSymbolTableRecord
100
AcDbTextStyleTableRecord
  2
STANDARD
 70
     0
 40
0.0
 41
1.0
 50
0.0
 71
     0
 42
1.0
  3
TXT
  4

  0
ENDTAB
  0
TABLE
  2
VIEW
  5
6
330
0
100
AcDbSymbolTable
 70
     0
  0
ENDTAB
  0
TABLE
  2
UCS
  5
7
330
0
100
AcDbSymbolTable
 70
     0
  0
ENDTAB
  0
TABLE
  2
APPID
  5
9
330
0
100
AcDbSymbolTable
 70
     1
  0
APPID
  5
12
330
9
100
AcDbSymbolTableRecord
100
AcDbRegAppTableRecord
  2
ACAD
 70
     0
  0
ENDTAB
  0
TABLE
  2
DIMSTYLE
  5
A
330
0
100
AcDbSymbolTable
 70
     1
100
AcDbDimStyleTable
  0
DIMSTYLE
105
3FF
330
A
100
AcDbSymbolTableRecord
100
AcDbDimStyleTableRecord
  2
Standard
 70
     0
  3

  4

340
11
  0
ENDTAB
  0
TABLE
  2
BLOCK_RECORD
  5
1
330
0
100
AcDbSymbolTable
 70
     2
  0
BLOCK_RECORD
  5
1E
330
1
100
AcDbSymbolTableRecord
100
AcDbBlockTableRecord
  2
*Model_Space
340
21
  0
BLOCK_RECORD
  5
1A
330
1
100
AcDbSymbolTableRecord
100
AcDbBlockTableRecord
  2
*Paper_Space
340
1D
  0
BLOCK_RECORD
  5
3C
330
1
100
AcDbSymbolTableRecord
100
AcDbBlockTableRecord
  2
ACAD315A
340
0
102
{BLKREFS
331
3DB
331
3DC
102
}
  0
BLOCK_RECORD
  5
3D
330
1
100
AcDbSymbolTableRecord
100
AcDbBlockTableRecord
  2
ACAD1A21
340
0
  0
ENDTAB
  0
ENDSEC
  0
SECTION
  2
BLOCKS
  0
BLOCK
  5
5A
330
1E
100
AcDbEntity
  8
0
100
AcDbBlockBegin
  2
*Model_Space
 70
     0
 10
0.0
 20
0.0
 30
0.0
  3
*Model_Space
  1

  4

  0
ENDBLK
  5
5B
330
1E
100
AcDbEntity
  8
0
100
AcDbBlockEnd
  0
BLOCK
  5
58
330
1A
100
AcDbEntity
 67
     1
  8
0
100
AcDbBlockBegin
  2
*Paper_Space
 70
     0
 10
0.0
 20
0.0
 30
0.0
  3
*Paper_Space
  1

  4

  0
ENDBLK
  5
59
330
1A
100
AcDbEntity
 67
     1
  8
0
100
AcDbBlockEnd
  0
BLOCK
  5
28B
330
3C
100
AcDbEntity
  8
0
100
AcDbBlockBegin
  2
ACAD315A
 70
     0
 10
0.0
 20
0.0
 30
0.0
  3
ACAD315A
  1

  4

  0
LWPOLYLINE
  5
28C
330
3C
100
AcDbEntity
  8
OBJECT
100
AcDbPolyline
 90
        6
 70
     1
 43
0.0
 10
39.27659023425719
 20
32.50339663847758
 10
39.01626636053398
 20
32.57315021021224
 42
-0.5773502691896287
 10
39.00227978316816
 20
32.62534882756548
 10
39.19285008515668
 20
32.81591912955401
 42
-0.577350269189627
 10
39.24504870250992
 20
32.8019325521882
 10
39.3148022742446
 20
32.54160867846499
 42
-0.577350269189625
  0
LWPOLYLINE
  5
294
330
3C
100
AcDbEntity
  8
OBJECT
100
AcDbPolyline
 90
        4
 70
     0
 43
0.0
 10
39.67884272697286
 20
33.25892316693143
 10
39.43914413822891
 20
33.32315021021224
 42
-0.5773502691896287
 10
39.4251575608631
 20
33.37534882756548
 10
39.61377070006392
 20
33.56396196676632
 42
-0.577350269189627
  0
LWPOLYLINE
  5
29A
330
3C
100
AcDbEntity
  8
OBJECT
100
AcDbPolyline
 90
        6
 70
     1
 43
0.0
 10
39.65159023425719
 20
33.25339663847758
 10
39.39126636053398
 20
33.32315021021224
 42
-0.5773502691896287
 10
39.37727978316816
 20
33.37534882756548
 10
39.56785008515668
 20
33.56591912955401
 42
-0.577350269189627
 10
39.62004870250992
 20
33.5519325521882
 10
39.6898022742446
 20
33.29160867846499
 42
-0.577350269189625
  0
LWPOLYLINE
  5
2A2
330
3C
100
AcDbEntity
  8
OBJECT
100
AcDbPolyline
 90
        4
 70
     0
 43
0.0
 10
39.30384272697286
 20
32.50892316693143
 10
39.06414413822891
 20
32.57315021021224
 42
-0.5773502691896287
 10
39.0501575608631
 20
32.62534882756548
 10
39.23877070006392
 20
32.81396196676632
 42
-0.577350269189627
  0
ENDBLK
  5
2A8
330
3C
100
AcDbEntity
  8
0
100
AcDbBlockEnd
  0
BLOCK
  5
2A9
330
3D
100
AcDbEntity
  8
0
100
AcDbBlockBegin
  2
ACAD1A21
 70
     0
 10
0.0
 20
0.0
 30
0.0
  3
ACAD1A21
  1

  4

  0
LWPOLYLINE
  5
2AA
330
3D
100
AcDbEntity
  8
OBJECT
100
AcDbPolyline
 90
        6
 70
     1
 43
0.0
 10
15.85276467971578
 20
32.50339663847758
 10
15.59244080599257
 20
32.57315021021224
 42
-0.5773502691896287
 10
15.57845422862674
 20
32.62534882756548
 10
15.76902453061527
 20
32.81591912955401
 42
-0.577350269189627
 10
15.82122314796851
 20
32.8019325521882
 10
15.89097671970319
 20
32.54160867846499
 42
-0.577350269189625
  0
LWPOLYLINE
  5
2B2
330
3D
100
AcDbEntity
  8
OBJECT
100
AcDbPolyline
 90
        2
 70
     0
 43
0.0
 10
16.14551159657519
 20
33.36814973620083
 10
15.98836298170753
 20
33.41025758064628
 42
-0.5773502691896287
  0
LWPOLYLINE
  5
2B6
330
3D
100
AcDbEntity
  8
OBJECT
100
AcDbPolyline
 90
        6
 70
     1
 43
0.0
 10
16.22776467971578
 20
33.25339663847758
 10
15.96744080599257
 20
33.32315021021224
 42
-0.5773502691896287
 10
15.95345422862674
 20
33.37534882756548
 10
16.14402453061527
 20
33.56591912955401
 42
-0.577350269189627
 10
16.19622314796851
 20
33.5519325521882
 10
16.26597671970319
 20
33.29160867846499
 42
-0.577350269189625
  0
LWPOLYLINE
  5
2BE
330
3D
100
AcDbEntity
  8
OBJECT
100
AcDbPolyline
 90
        2
 70
     0
 43
0.0
 10
15.77051159657519
 20
32.61814973620083
 10
15.61336298170753
 20
32.66025758064628
 42
-0.5773502691896287
  0
LWPOLYLINE
  5
2C2
330
3D
100
AcDbEntity
  8
OBJECT
100
AcDbPolyline
 90
        3
 70
     0
 43
0.0
 10
15.76661579211714
 20
32.81351039105589
 10
15.8087236365626
 20
32.65636177618824
 42
-0.577350269189625
 10
15.77051159657519
 20
32.61814973620083
  0
LWPOLYLINE
  5
2C7
330
3D
100
AcDbEntity
  8
OBJECT
100
AcDbPolyline
 90
        3
 70
     0
 43
0.0
 10
16.14161579211714
 20
33.56351039105589
 10
16.1837236365626
 20
33.40636177618824
 42
-0.577350269189625
 10
16.14551159657519
 20
33.36814973620083
  0
ENDBLK
  5
2CC
330
3D
100
AcDbEntity
  8
0
100
AcDbBlockEnd
  0
ENDSEC
  0
SECTION
  2
ENTITIES
  0
LINE
  5
308
330
1E
100
AcDbEntity
  8
0
100
AcDbLine
 10
0.0254716361773841
 20
14.02561025459432
 30
0.0
 11
4.582229544394959
 21
14.02561025459432
 31
0.0
  0
LINE
  5
309
330
1E
100
AcDbEntity
  8
0
  6
HIDDEN
100
AcDbLine
 10
0.1358494138723199
 20
0.4631102545943175
 30
0.0
 11
4.409351766700024
 21
0.4631102545943175
 31
0.0
  0
LINE
  5
30A
330
1E
100
AcDbEntity
  8
0
100
AcDbLine
 10
0.1504716361773841
 20
0.4006102545943175
 30
0.0
 11
1.757440660393725
 21
0.4006102545943175
 31
0.0
  0
LINE
  5
30B
330
1E
100
AcDbEntity
  8
0
100
AcDbLine
 10
4.582229544394959
 20
14.02561025459432
 30
0.0
 11
4.582229544394959
 21
1.150610254594318
 31
0.0
  0
LINE
  5
30C
330
1E
100
AcDbEntity
  8
0
100
AcDbLine
 10
4.519729544394959
 20
14.02561025459432
 30
0.0
 11
4.519729544394959
 21
1.150610254594318
 31
0.0
  0
LINE
  5
30D
330
1E
100
AcDbEntity
  8
0
100
AcDbLine
 10
0.0733494138723199
 20
0.5256102545943175
 30
0.0
 11
0.0733494138723199
 21
14.02561025459432
 31
0.0
  0
LINE
  5
30E
330
1E
100
AcDbEntity
  8
0
100
AcDbLine
 10
0.0254716361773841
 20
0.5256102545943175
 30
0.0
 11
0.0254716361773841
 21
14.02561025459432
 31
0.0
  0
LINE
  5
30F
330
1E
100
AcDbEntity
  8
0
100
AcDbLine
 10
4.409351766700024
 20
0.4006102545943175
 30
0.0
 11
4.409351766700024
 21
1.150610254594318
 31
0.0
  0
LINE
  5
310
330
1E
100
AcDbEntity
  8
0
100
AcDbLine
 10
4.457229544394959
 20
0.4006102545943175
 30
0.0
 11
4.457229544394959
 21
1.150610254594318
 31
0.0
  0
ARC
  5
31C
330
1E
100
AcDbEntity
  8
0
100
AcDbCircle
 10
0.1504716361773841
 20
0.5256102545943175
 30
0.0
 40
0.125
100
AcDbArc
 50
180.0
 51
270.0
  0
ARC
  5
31D
330
1E
100
AcDbEntity
  8
0
100
AcDbCircle
 10
0.1358494138723199
 20
0.5256102545943175
 30
0.0
 40
0.0625
100
AcDbArc
 50
180.0
 51
270.0
  0
LINE
  5
31E
330
1E
100
AcDbEntity
  8
0
100
AcDbLine
 10
1.757440660393725
 20
0.4006102545943175
 30
0.0
 11
2.725260520178619
 21
0.4006102545943175
 31
0.0
  0
LINE
  5
31F
330
1E
100
AcDbEntity
  8
0
100
AcDbLine
 10
2.725260773388765
 20
0.4006102545943175
 30
0.0
 11
4.457229544394959
 21
0.4006102545943175
 31
0.0
  0
LINE
  5
322
330
1E
100
AcDbEntity
  8
0
100
AcDbLine
 10
4.409351766700024
 20
1.150610254594318
 30
0.0
 11
4.457229544394959
 21
1.150610254594318
 31
0.0
  0
LINE
  5
323
330
1E
100
AcDbEntity
  8
0
100
AcDbLine
 10
4.457229544394959
 20
1.150610254594318
 30
0.0
 11
4.582229544394959
 21
1.150610254594318
 31
0.0
  0
CIRCLE
  5
344
330
1E
100
AcDbEntity
  8
0
100
AcDbCircle
 10
0.832229544394961
 20
7.338110254594318
 30
0.0
 40
0.109375
  0
CIRCLE
  5
345
330
1E
100
AcDbEntity
  8
0
100
AcDbCircle
 10
0.832229544394961
 20
10.33811025459432
 30
0.0
 40
0.109375
  0
CIRCLE
  5
346
330
1E
100
AcDbEntity
  8
0
100
AcDbCircle
 10
0.832229544394961
 20
13.33811025459432
 30
0.0
 40
0.109375
  0
CIRCLE
  5
347
330
1E
100
AcDbEntity
  8
0
100
AcDbCircle
 10
0.832229544394961
 20
4.275610254594318
 30
0.0
 40
0.109375
  0
CIRCLE
  5
348
330
1E
100
AcDbEntity
  8
0
100
AcDbCircle
 10
0.457229544394961
 20
3.525610254594318
 30
0.0
 40
0.109375
  0
CIRCLE
  5
349
330
1E
100
AcDbEntity
  8
0
100
AcDbCircle
 10
0.457229544394961
 20
12.58811025459432
 30
0.0
 40
0.109375
  0
CIRCLE
  5
34A
330
1E
100
AcDbEntity
  8
0
100
AcDbCircle
 10
0.457229544394961
 20
9.588110254594314
 30
0.0
 40
0.109375
  0
CIRCLE
  5
34B
330
1E
100
AcDbEntity
  8
0
100
AcDbCircle
 10
0.457229544394961
 20
6.588110254594318
 30
0.0
 40
0.109375
  0
TEXT
  5
38B
330
1E
100
AcDbEntity
  8
0
100
AcDbText
 10
19.08146878781334
 20
31.44552270486583
 30
0.0
 40
0.45
  1
   
 72
     1
 11
19.75646878781334
 21
31.67052270486583
 31
0.0
100
AcDbText
 73
     2
  0
TEXT
  5
39D
330
1E
100
AcDbEntity
  8
0
100
AcDbText
 10
18.01219849684805
 20
37.74041422805389
 30
0.0
 40
0.45
  1
   
 11
18.01219849684805
 21
37.96541422805389
 31
0.0
100
AcDbText
 73
     2
  0
TEXT
  5
39E
330
1E
100
AcDbEntity
  8
0
100
AcDbText
 10
14.51219849684808
 20
37.74041422805389
 30
0.0
 40
0.45
  1
   
 72
     2
 11
15.86219849684808
 21
37.96541422805389
 31
0.0
100
AcDbText
 73
     2
  0
ARC
  5
39F
330
1E
100
AcDbEntity
  8
0
100
AcDbCircle
 10
0.5051073220898967
 20
9.588110254594314
 30
0.0
 40
0.109375
100
AcDbArc
 50
102.6426619919372
 51
257.3573380080628
  0
ARC
  5
3A0
330
1E
100
AcDbEntity
  8
0
100
AcDbCircle
 10
0.8801073220898967
 20
10.33811025459432
 30
0.0
 40
0.109375
100
AcDbArc
 50
102.6426619919372
 51
257.3573380080628
  0
ARC
  5
3A1
330
1E
100
AcDbEntity
  8
0
100
AcDbCircle
 10
0.5051073220898967
 20
12.58811025459432
 30
0.0
 40
0.109375
100
AcDbArc
 50
102.6426619919377
 51
257.3573380080624
  0
ARC
  5
3A2
330
1E
100
AcDbEntity
  8
0
100
AcDbCircle
 10
0.8801073220898967
 20
13.33811025459432
 30
0.0
 40
0.109375
100
AcDbArc
 50
102.6426619919377
 51
257.3573380080624
  0
ARC
  5
3A3
330
1E
100
AcDbEntity
  8
0
100
AcDbCircle
 10
0.8801073220898967
 20
7.338110254594318
 30
0.0
 40
0.109375
100
AcDbArc
 50
102.6426619919372
 51
257.3573380080628
  0
ARC
  5
3A4
330
1E
100
AcDbEntity
  8
0
100
AcDbCircle
 10
0.5051073220898967
 20
6.588110254594318
 30
0.0
 40
0.109375
100
AcDbArc
 50
102.6426619919372
 51
257.3573380080628
  0
ARC
  5
3A5
330
1E
100
AcDbEntity
  8
0
100
AcDbCircle
 10
0.8801073220898967
 20
4.275610254594318
 30
0.0
 40
0.109375
100
AcDbArc
 50
102.6426619919372
 51
257.3573380080628
  0
ARC
  5
3A6
330
1E
100
AcDbEntity
  8
0
100
AcDbCircle
 10
0.5051073220898967
 20
3.525610254594318
 30
0.0
 40
0.109375
100
AcDbArc
 50
102.6426619919372
 51
257.3573380080628
  0
LINE
  5
3AF
330
1E
100
AcDbEntity
  8
0
  6
HIDDEN
100
AcDbLine
 10
1.587971636177384
 20
0.5256102545943175
 30
0.0
 11
1.587971636177384
 21
14.02561025459432
 31
0.0
  0
LINE
  5
3B0
330
1E
100
AcDbEntity
  8
0
  6
HIDDEN
100
AcDbLine
 10
1.63584941387232
 20
0.5256102545943175
 30
0.0
 11
1.63584941387232
 21
14.02561025459432
 31
0.0
  0
INSERT
  5
3DB
330
1E
100
AcDbEntity
  8
0
100
AcDbBlockReference
  2
ACAD315A
 10
-38.72814513209751
 20
-21.60439974541478
 30
0.0
  0
INSERT
  5
3DC
330
1E
100
AcDbEntity
  8
0
100
AcDbBlockReference
  2
ACAD315A
 10
-38.72814513209751
 20
-24.5567432370867
 30
0.0
  0
ENDSEC
  0
SECTION
  2
OBJECTS
  0
DICTIONARY
  5
C
330
0
100
AcDbDictionary
281
     1
  3
ACAD_COLOR
350
41D
  3
ACAD_GROUP
350
D
  3
ACAD_LAYOUT
350
19
  3
ACAD_MATERIAL
350
41C
  3
ACAD_MLINESTYLE
350
16
  3
ACAD_PLOTSETTINGS
350
18
  3
ACAD_PLOTSTYLENAME
350
E
  3
ACAD_TABLESTYLE
350
41E
  3
ACDBHEADERROUNDTRIPXREC
350
45F
  3
AcDbVariableDictionary
350
44B
  0
DICTIONARY
  5
442
330
2
100
AcDbDictionary
280
     1
281
     1
  3
ACAD_LAYERFILTERS
360
444
  3
ACLYDICTIONARY
360
443
  0
DICTIONARY
  5
41D
102
{ACAD_REACTORS
330
C
102
}
330
C
100
AcDbDictionary
281
     1
  0
DICTIONARY
  5
D
102
{ACAD_REACTORS
330
C
102
}
330
C
100
AcDbDictionary
281
     1
  0
DICTIONARY
  5
19
102
{ACAD_REACTORS
330
C
102
}
330
C
100
AcDbDictionary
281
     1
  3
Layout1
350
1D
  3
Model
350
21
  0
DICTIONARY
  5
41C
102
{ACAD_REACTORS
330
C
102
}
330
C
100
AcDbDictionary
281
     1
  0
DICTIONARY
  5
16
102
{ACAD_REACTORS
330
C
102
}
330
C
100
AcDbDictionary
281
     1
  3
Standard
350
17
  0
DICTIONARY
  5
18
102
{ACAD_REACTORS
330
C
102
}
330
C
100
AcDbDictionary
281
     1
  0
ACDBDICTIONARYWDFLT
  5
E
102
{ACAD_REACTORS
330
C
102
}
330
C
100
AcDbDictionary
281
     1
  3
Normal
350
F
100
AcDbDictionaryWithDefault
340
F
  0
DICTIONARY
  5
41E
102
{ACAD_REACTORS
330
C
102
}
330
C
100
AcDbDictionary
281
     1
  3
Standard
350
41F
  0
DICTIONARY
  5
45F
102
{ACAD_REACTORS
330
C
102
}
330
C
100
AcDbDictionary
281
     1
  3
COLORDICT
350
460
  3
MATERIALDICT
350
461
  0
DICTIONARY
  5
44B
102
{ACAD_REACTORS
330
C
102
}
330
C
100
AcDbDictionary
281
     1
  3
CTABLESTYLE
350
44C
  0
DICTIONARY
  5
444
102
{ACAD_REACTORS
330
442
102
}
330
442
100
AcDbDictionary
281
     1
  0
DICTIONARY
  5
443
102
{ACAD_REACTORS
330
442
102
}
330
442
100
AcDbDictionary
281
     1
1001
ACAD
1000
<All
  0
LAYOUT
  5
1D
102
{ACAD_REACTORS
330
19
102
}
102
{ACAD_XDICTIONARY
360
462
102
}
330
19
100
AcDbPlotSettings
  1

  2
HP LaserJet 2100 Series PS
  4

  6

 40
0.0
 41
0.0
 42
0.0
 43
0.0
 44
0.0
 45
0.0
 46
0.0
 47
0.0
 48
0.0
 49
0.0
140
0.0
141
0.0
142
1.0
143
1.0
 70
   688
 72
     0
 73
     0
 74
     5
  7
monochrome.ctb
 75
    16
147
1.0
148
0.0
149
0.0
100
AcDbLayout
  1
Layout1
 70
     0
 71
     1
 10
0.0
 20
0.0
 11
12.0
 21
9.0
 12
0.0
 22
0.0
 32
0.0
 14
1.000000000000000E+20
 24
1.000000000000000E+20
 34
1.000000000000000E+20
 15
-1.000000000000000E+20
 25
-1.000000000000000E+20
 35
-1.000000000000000E+20
146
0.0
 13
0.0
 23
0.0
 33
0.0
 16
1.0
 26
0.0
 36
0.0
 17
0.0
 27
1.0
 37
0.0
 76
     0
330
1A
  0
LAYOUT
  5
21
102
{ACAD_REACTORS
330
19
102
}
102
{ACAD_XDICTIONARY
360
464
102
}
330
19
100
AcDbPlotSettings
  1

  2
HP LaserJet 2100 Series PS
  4

  6

 40
0.0
 41
0.0
 42
0.0
 43
0.0
 44
0.0
 45
0.0
 46
0.0
 47
0.0
 48
0.0
 49
0.0
140
0.0
141
0.0
142
1.0
143
1.0
 70
  1712
 72
     0
 73
     0
 74
     0
  7
monochrome.ctb
 75
     0
147
1.0
148
0.0
149
0.0
100
AcDbLayout
  1
Model
 70
     1
 71
     0
 10
0.0
 20
0.0
 11
12.0
 21
9.0
 12
0.0
 22
0.0
 32
0.0
 14
0.0
 24
0.0
 34
0.0
 15
0.0
 25
0.0
 35
0.0
146
0.0
 13
0.0
 23
0.0
 33
0.0
 16
1.0
 26
0.0
 36
0.0
 17
0.0
 27
1.0
 37
0.0
 76
     0
330
1E
  0
MLINESTYLE
  5
17
102
{ACAD_REACTORS
330
16
102
}
330
16
100
AcDbMlineStyle
  2
STANDARD
 70
     0
  3

 62
   256
 51
90.0
 52
90.0
 71
     2
 49
0.5
 62
   256
  6
BYLAYER
 49
-0.5
 62
   256
  6
BYLAYER
  0
ACDBPLACEHOLDER
  5
F
102
{ACAD_REACTORS
330
E
102
}
330
E
  0
ACAD_PROXY_OBJECT
  5
41F
102
{ACAD_REACTORS
330
41E
102
}
330
41E
100
AcDbProxyObject
 90
      499
 91
      503
 95
   983063
 70
     0
 93
     1841
310
4214DD185B99185C9928B81E85EB51B8AE3F2E07A17AD46E2B8FC02B5E8DC0F42B1CFD028000000C1008070000C3001FDFF8000000C1003FBFF000000182007F7FE00000030400FEFFC00000060801FDFF8000000C1003FBFF00000018200000000000000681FA0B0000001820100E000186003FBFF000000182007F7FE000
310
00030400FEFFC00000060801FDFF8000000C1003FBFF000000182007F7FE000000304000AD7A3703D0AC73F4160000003040201C00030C007F7FE00000030400FEFFC00000060801FDFF8000000C1003FBFF000000182007F7FE00000030400FEFFC000000608000
340
11
340
11
340
11
 94
        0
  0
XRECORD
  5
460
102
{ACAD_REACTORS
330
45F
102
}
330
45F
100
AcDbXrecord
340
41D
  0
XRECORD
  5
461
102
{ACAD_REACTORS
330
45F
102
}
330
45F
100
AcDbXrecord
340
41C
  0
DICTIONARYVAR
  5
44C
102
{ACAD_REACTORS
330
44B
102
}
330
44B
100
DictionaryVariables
280
     0
  1
STANDARD
  0
DICTIONARY
  5
462
330
1D
100
AcDbDictionary
280
     1
281
     1
  3
ACAD_XREC_ROUNDTRIP
360
463
  0
DICTIONARY
  5
464
330
21
100
AcDbDictionary
280
     1
281
     1
  3
ACAD_XREC_ROUNDTRIP
360
465
  0
XRECORD
  5
463
102
{ACAD_REACTORS
330
462
102
}
330
462
100
AcDbXrecord
102
SHADEPLOT
 70
     0
102
SHADEPLOTRESLEVEL
 70
     2
102
SHADEPLOTCUSTOMDPI
 70
   300
  0
XRECORD
  5
465
102
{ACAD_REACTORS
330
464
102
}
330
464
100
AcDbXrecord
102
SHADEPLOT
 70
     0
102
SHADEPLOTRESLEVEL
 70
     2
102
SHADEPLOTCUSTOMDPI
 70
   300
  0
ENDSEC
  0
EOF
