  0
SECTION
  2
HEADER
  9
$ACADVER
  1
AC1015
  9
$ACADMAINTVER
 70
     6
  9
$DWGCODEPAGE
  3
ANSI_1252
  9
$INSBASE
 10
0.0
 20
0.0
 30
0.0
  9
$EXTMIN
 10
-17.63751973472246
 20
0.0598145463268907
 30
-0.0000000349181948
  9
$EXTMAX
 10
3.23879248432209
 20
24.69665534875433
 30
0.0000000814935746
  9
$LIMMIN
 10
0.0
 20
0.0
  9
$LIMMAX
 10
52.5
 20
40.0
  9
$ORTHOMODE
 70
     0
  9
$REGENMODE
 70
     1
  9
$FILLMODE
 70
     1
  9
$QTEXTMODE
 70
     0
  9
$MIRRTEXT
 70
     0
  9
$LTSCALE
 40
1.0
  9
$ATTMODE
 70
     1
  9
$TEXTSIZE
 40
1.0
  9
$TRACEWID
 40
0.05
  9
$TEXTSTYLE
  7
STANDARD
  9
$CLAYER
  8
0
  9
$CELTYPE
  6
ByLayer
  9
$CECOLOR
 62
   256
  9
$CELTSCALE
 40
1.0
  9
$DISPSILH
 70
     0
  9
$DIMSCALE
 40
5.0
  9
$DIMASZ
 40
0.125
  9
$DIMEXO
 40
0.062
  9
$DIMDLI
 40
0.375
  9
$DIMRND
 40
0.0
  9
$DIMDLE
 40
0.0
  9
$DIMEXE
 40
0.08
  9
$DIMTP
 40
0.0
  9
$DIMTM
 40
0.0
  9
$DIMTXT
 40
0.09
  9
$DIMCEN
 40
-0.03125
  9
$DIMTSZ
 40
0.0
  9
$DIMTOL
 70
     0
  9
$DIMLIM
 70
     0
  9
$DIMTIH
 70
     1
  9
$DIMTOH
 70
     1
  9
$DIMSE1
 70
     0
  9
$DIMSE2
 70
     0
  9
$DIMTAD
 70
     0
  9
$DIMZIN
 70
     0
  9
$DIMBLK
  1

  9
$DIMASO
 70
     0
  9
$DIMSHO
 70
     0
  9
$DIMPOST
  1

  9
$DIMAPOST
  1

  9
$DIMALT
 70
     0
  9
$DIMALTD
 70
     2
  9
$DIMALTF
 40
25.4
  9
$DIMLFAC
 40
1.0
  9
$DIMTOFL
 70
     0
  9
$DIMTVP
 40
0.0
  9
$DIMTIX
 70
     0
  9
$DIMSOXD
 70
     0
  9
$DIMSAH
 70
     0
  9
$DIMBLK1
  1

  9
$DIMBLK2
  1

  9
$DIMSTYLE
  2
Standard
  9
$DIMCLRD
 70
     0
  9
$DIMCLRE
 70
     0
  9
$DIMCLRT
 70
     0
  9
$DIMTFAC
 40
1.0
  9
$DIMGAP
 40
0.09
  9
$DIMJUST
 70
     0
  9
$DIMSD1
 70
     0
  9
$DIMSD2
 70
     0
  9
$DIMTOLJ
 70
     1
  9
$DIMTZIN
 70
     0
  9
$DIMALTZ
 70
     0
  9
$DIMALTTZ
 70
     0
  9
$DIMUPT
 70
     0
  9
$DIMDEC
 70
     4
  9
$DIMTDEC
 70
     4
  9
$DIMALTU
 70
     5
  9
$DIMALTTD
 70
     2
  9
$DIMTXSTY
  7
STANDARD
  9
$DIMAUNIT
 70
     0
  9
$DIMADEC
 70
     0
  9
$DIMALTRND
 40
0.0
  9
$DIMAZIN
 70
     0
  9
$DIMDSEP
 70
    46
  9
$DIMATFIT
 70
     3
  9
$DIMFRAC
 70
     0
  9
$DIMLDRBLK
  1

  9
$DIMLUNIT
 70
     5
  9
$DIMLWD
 70
    -2
  9
$DIMLWE
 70
    -2
  9
$DIMTMOVE
 70
     2
  9
$LUNITS
 70
     5
  9
$LUPREC
 70
     4
  9
$SKETCHINC
 40
0.1
  9
$FILLETRAD
 40
0.0
  9
$AUNITS
 70
     0
  9
$AUPREC
 70
     0
  9
$MENU
  1
acad
  9
$ELEVATION
 40
0.0
  9
$PELEVATION
 40
0.0
  9
$THICKNESS
 40
0.0
  9
$LIMCHECK
 70
     0
  9
$CHAMFERA
 40
0.0
  9
$CHAMFERB
 40
0.0
  9
$CHAMFERC
 40
0.0
  9
$CHAMFERD
 40
0.0
  9
$SKPOLY
 70
     0
  9
$TDCREATE
 40
2449489.947862847
  9
$TDUCREATE
 40
2449490.281196181
  9
$TDUPDATE
 40
2454165.818000787
  9
$TDUUPDATE
 40
2454166.15133412
  9
$TDINDWG
 40
0.0848390046
  9
$TDUSRTIMER
 40
0.0848390046
  9
$USRTIMER
 70
     1
  9
$ANGBASE
 50
0.0
  9
$ANGDIR
 70
     0
  9
$PDMODE
 70
     0
  9
$PDSIZE
 40
0.0
  9
$PLINEWID
 40
0.0
  9
$SPLFRAME
 70
     0
  9
$SPLINETYPE
 70
     6
  9
$SPLINESEGS
 70
     8
  9
$HANDSEED
  5
454
  9
$SURFTAB1
 70
     6
  9
$SURFTAB2
 70
     6
  9
$SURFTYPE
 70
     6
  9
$SURFU
 70
     6
  9
$SURFV
 70
     6
  9
$UCSBASE
  2

  9
$UCSNAME
  2

  9
$UCSORG
 10
0.0
 20
0.0
 30
0.0
  9
$UCSXDIR
 10
1.0
 20
0.0
 30
0.0
  9
$UCSYDIR
 10
0.0
 20
1.0
 30
0.0
  9
$UCSORTHOREF
  2

  9
$UCSORTHOVIEW
 70
     0
  9
$UCSORGTOP
 10
0.0
 20
0.0
 30
0.0
  9
$UCSORGBOTTOM
 10
0.0
 20
0.0
 30
0.0
  9
$UCSORGLEFT
 10
0.0
 20
0.0
 30
0.0
  9
$UCSORGRIGHT
 10
0.0
 20
0.0
 30
0.0
  9
$UCSORGFRONT
 10
0.0
 20
0.0
 30
0.0
  9
$UCSORGBACK
 10
0.0
 20
0.0
 30
0.0
  9
$PUCSBASE
  2

  9
$PUCSNAME
  2

  9
$PUCSORG
 10
0.0
 20
0.0
 30
0.0
  9
$PUCSXDIR
 10
1.0
 20
0.0
 30
0.0
  9
$PUCSYDIR
 10
0.0
 20
1.0
 30
0.0
  9
$PUCSORTHOREF
  2

  9
$PUCSORTHOVIEW
 70
     0
  9
$PUCSORGTOP
 10
0.0
 20
0.0
 30
0.0
  9
$PUCSORGBOTTOM
 10
0.0
 20
0.0
 30
0.0
  9
$PUCSORGLEFT
 10
0.0
 20
0.0
 30
0.0
  9
$PUCSORGRIGHT
 10
0.0
 20
0.0
 30
0.0
  9
$PUCSORGFRONT
 10
0.0
 20
0.0
 30
0.0
  9
$PUCSORGBACK
 10
0.0
 20
0.0
 30
0.0
  9
$USERI1
 70
     0
  9
$USERI2
 70
     0
  9
$USERI3
 70
     0
  9
$USERI4
 70
     0
  9
$USERI5
 70
     0
  9
$USERR1
 40
0.0
  9
$USERR2
 40
0.0
  9
$USERR3
 40
0.0
  9
$USERR4
 40
0.0
  9
$USERR5
 40
0.0
  9
$WORLDVIEW
 70
     1
  9
$SHADEDGE
 70
     3
  9
$SHADEDIF
 70
    70
  9
$TILEMODE
 70
     1
  9
$MAXACTVP
 70
    16
  9
$PINSBASE
 10
0.0
 20
0.0
 30
0.0
  9
$PLIMCHECK
 70
     0
  9
$PEXTMIN
 10
1.000000000000000E+20
 20
1.000000000000000E+20
 30
1.000000000000000E+20
  9
$PEXTMAX
 10
-1.000000000000000E+20
 20
-1.000000000000000E+20
 30
-1.000000000000000E+20
  9
$PLIMMIN
 10
0.0
 20
0.0
  9
$PLIMMAX
 10
12.0
 20
9.0
  9
$UNITMODE
 70
     0
  9
$VISRETAIN
 70
     0
  9
$PLINEGEN
 70
     0
  9
$PSLTSCALE
 70
     0
  9
$TREEDEPTH
 70
  3020
  9
$CMLSTYLE
  2
Standard
  9
$CMLJUST
 70
     0
  9
$CMLSCALE
 40
1.0
  9
$PROXYGRAPHICS
 70
     1
  9
$MEASUREMENT
 70
     0
  9
$CELWEIGHT
370
    -1
  9
$ENDCAPS
280
     0
  9
$JOINSTYLE
280
     0
  9
$LWDISPLAY
290
     0
  9
$INSUNITS
 70
     0
  9
$HYPERLINKBASE
  1

  9
$STYLESHEET
  1

  9
$XEDIT
290
     1
  9
$CEPSNTYPE
380
     0
  9
$PSTYLEMODE
290
     1
  9
$FINGERPRINTGUID
  2
{42DA60EC-A71B-4EF0-BA70-1EE191F8C164}
  9
$VERSIONGUID
  2
{398AEFE3-EDB7-44CD-8A52-91A753253E15}
  9
$EXTNAMES
290
     1
  9
$PSVPSCALE
 40
0.0
  9
$OLESTARTUP
290
     0
  0
ENDSEC
  0
SECTION
  2
CLASSES
  0
CLASS
  1
ACDBDICTIONARYWDFLT
  2
AcDbDictionaryWithDefault
  3
AutoCAD 2000
 90
        0
280
     0
281
     0
  0
CLASS
  1
ACDBPLACEHOLDER
  2
AcDbPlaceHolder
  3
ObjectDBX Classes
 90
        0
280
     0
281
     0
  0
CLASS
  1
LAYOUT
  2
AcDbLayout
  3
ObjectDBX Classes
 90
        0
280
     0
281
     0
  0
CLASS
  1
TABLESTYLE
  2
AcDbTableStyle
  3
ObjectDBX Classes
 90
     2047
280
     1
281
     0
  0
CLASS
  1
DICTIONARYVAR
  2
AcDbDictionaryVar
  3
AutoCAD 2000
 90
        0
280
     0
281
     0
  0
ENDSEC
  0
SECTION
  2
TABLES
  0
TABLE
  2
VPORT
  5
8
330
0
100
AcDbSymbolTable
 70
     5
  0
VPORT
  5
442
330
8
100
AcDbSymbolTableRecord
100
AcDbViewportTableRecord
  2
*Active
 70
     0
 10
0.0
 20
0.0
 11
1.0
 21
1.0
 12
9.247075217598187
 22
16.96257797511984
 13
0.0
 23
0.0
 14
0.0625
 24
0.0625
 15
0.25
 25
0.25
 16
0.0
 26
0.0
 36
1.0
 17
0.0
 27
0.0
 37
0.0
 40
40.49896055717252
 41
1.814583333333333
 42
50.0
 43
0.0
 44
0.0
 50
0.0
 51
0.0
 71
     0
 72
   100
 73
     1
 74
     0
 75
     0
 76
     0
 77
     0
 78
     0
281
     0
 65
     1
110
0.0
120
0.0
130
0.0
111
1.0
121
0.0
131
0.0
112
0.0
122
1.0
132
0.0
 79
     0
146
0.0
  0
ENDTAB
  0
TABLE
  2
LTYPE
  5
5
330
0
100
AcDbSymbolTable
 70
     7
  0
LTYPE
  5
13
330
5
100
AcDbSymbolTableRecord
100
AcDbLinetypeTableRecord
  2
ByBlock
 70
     0
  3

 72
    65
 73
     0
 40
0.0
  0
LTYPE
  5
14
330
5
100
AcDbSymbolTableRecord
100
AcDbLinetypeTableRecord
  2
ByLayer
 70
     0
  3

 72
    65
 73
     0
 40
0.0
  0
LTYPE
  5
15
330
5
100
AcDbSymbolTableRecord
100
AcDbLinetypeTableRecord
  2
CONTINUOUS
 70
     0
  3
Solid line
 72
    65
 73
     0
 40
0.0
  0
LTYPE
  5
42D
330
5
100
AcDbSymbolTableRecord
100
AcDbLinetypeTableRecord
  2
HIDDEN
 70
     0
  3
Hidden __ __ __ __ __ __ __ __ __ __ __ __ __ _
 72
    65
 73
     2
 40
0.375
 49
0.25
 74
     0
 49
-0.125
 74
     0
  0
ENDTAB
  0
TABLE
  2
LAYER
  5
2
330
0
100
AcDbSymbolTable
 70
    11
  0
LAYER
  5
10
330
2
100
AcDbSymbolTableRecord
100
AcDbLayerTableRecord
  2
0
 70
     0
 62
     7
  6
CONTINUOUS
370
    -3
390
F
  0
LAYER
  5
4F
330
2
100
AcDbSymbolTableRecord
100
AcDbLayerTableRecord
  2
OBJECT
 70
     0
 62
     7
  6
CONTINUOUS
370
    -3
390
F
  0
LAYER
  5
57
330
2
100
AcDbSymbolTableRecord
100
AcDbLayerTableRecord
  2
DEFPOINTS
 70
     0
 62
     7
  6
CONTINUOUS
290
     0
370
    -3
390
F
  0
ENDTAB
  0
TABLE
  2
STYLE
  5
3
330
0
100
AcDbSymbolTable
 70
     3
  0
STYLE
  5
11
330
3
100
AcDbSymbolTableRecord
100
AcDbTextStyleTableRecord
  2
STANDARD
 70
     0
 40
0.0
 41
1.0
 50
0.0
 71
     0
 42
1.0
  3
TXT
  4

  0
STYLE
  5
42C
330
3
100
AcDbSymbolTableRecord
100
AcDbTextStyleTableRecord
  2

 70
     1
 40
0.0
 41
1.0
 50
0.0
 71
     0
 42
1.0
  3
ltypeshp.shx
  4

  0
ENDTAB
  0
TABLE
  2
VIEW
  5
6
330
0
100
AcDbSymbolTable
 70
     0
  0
ENDTAB
  0
TABLE
  2
UCS
  5
7
330
0
100
AcDbSymbolTable
 70
     0
  0
ENDTAB
  0
TABLE
  2
APPID
  5
9
330
0
100
AcDbSymbolTable
 70
     1
  0
APPID
  5
12
330
9
100
AcDbSymbolTableRecord
100
AcDbRegAppTableRecord
  2
ACAD
 70
     0
  0
ENDTAB
  0
TABLE
  2
DIMSTYLE
  5
A
330
0
100
AcDbSymbolTable
 70
     1
100
AcDbDimStyleTable
  0
DIMSTYLE
105
3FF
330
A
100
AcDbSymbolTableRecord
100
AcDbDimStyleTableRecord
  2
Standard
 70
     0
  3

  4

340
11
  0
ENDTAB
  0
TABLE
  2
BLOCK_RECORD
  5
1
330
0
100
AcDbSymbolTable
 70
    30
  0
BLOCK_RECORD
  5
1E
330
1
100
AcDbSymbolTableRecord
100
AcDbBlockTableRecord
  2
*Model_Space
340
21
  0
BLOCK_RECORD
  5
1A
330
1
100
AcDbSymbolTableRecord
100
AcDbBlockTableRecord
  2
*Paper_Space
340
1D
  0
BLOCK_RECORD
  5
3C
330
1
100
AcDbSymbolTableRecord
100
AcDbBlockTableRecord
  2
ACAD315A
340
0
  0
BLOCK_RECORD
  5
3D
330
1
100
AcDbSymbolTableRecord
100
AcDbBlockTableRecord
  2
ACAD1A21
340
0
102
{BLKREFS
331
3DD
331
3DE
102
}
  0
ENDTAB
  0
ENDSEC
  0
SECTION
  2
BLOCKS
  0
BLOCK
  5
5A
330
1E
100
AcDbEntity
  8
0
100
AcDbBlockBegin
  2
*Model_Space
 70
     0
 10
0.0
 20
0.0
 30
0.0
  3
*Model_Space
  1

  4

  0
ENDBLK
  5
5B
330
1E
100
AcDbEntity
  8
0
100
AcDbBlockEnd
  0
BLOCK
  5
58
330
1A
100
AcDbEntity
 67
     1
  8
0
100
AcDbBlockBegin
  2
*Paper_Space
 70
     0
 10
0.0
 20
0.0
 30
0.0
  3
*Paper_Space
  1

  4

  0
ENDBLK
  5
59
330
1A
100
AcDbEntity
 67
     1
  8
0
100
AcDbBlockEnd
  0
BLOCK
  5
28B
330
3C
100
AcDbEntity
  8
0
100
AcDbBlockBegin
  2
ACAD315A
 70
     0
 10
0.0
 20
0.0
 30
0.0
  3
ACAD315A
  1

  4

  0
LWPOLYLINE
  5
28C
330
3C
100
AcDbEntity
  8
OBJECT
100
AcDbPolyline
 90
        6
 70
     1
 43
0.0
 10
39.27659023425719
 20
32.50339663847758
 10
39.01626636053398
 20
32.57315021021224
 42
-0.5773502691896287
 10
39.00227978316816
 20
32.62534882756548
 10
39.19285008515668
 20
32.81591912955401
 42
-0.577350269189627
 10
39.24504870250992
 20
32.8019325521882
 10
39.3148022742446
 20
32.54160867846499
 42
-0.577350269189625
  0
LWPOLYLINE
  5
294
330
3C
100
AcDbEntity
  8
OBJECT
100
AcDbPolyline
 90
        4
 70
     0
 43
0.0
 10
39.67884272697286
 20
33.25892316693143
 10
39.43914413822891
 20
33.32315021021224
 42
-0.5773502691896287
 10
39.4251575608631
 20
33.37534882756548
 10
39.61377070006392
 20
33.56396196676632
 42
-0.577350269189627
  0
LWPOLYLINE
  5
29A
330
3C
100
AcDbEntity
  8
OBJECT
100
AcDbPolyline
 90
        6
 70
     1
 43
0.0
 10
39.65159023425719
 20
33.25339663847758
 10
39.39126636053398
 20
33.32315021021224
 42
-0.5773502691896287
 10
39.37727978316816
 20
33.37534882756548
 10
39.56785008515668
 20
33.56591912955401
 42
-0.577350269189627
 10
39.62004870250992
 20
33.5519325521882
 10
39.6898022742446
 20
33.29160867846499
 42
-0.577350269189625
  0
LWPOLYLINE
  5
2A2
330
3C
100
AcDbEntity
  8
OBJECT
100
AcDbPolyline
 90
        4
 70
     0
 43
0.0
 10
39.30384272697286
 20
32.50892316693143
 10
39.06414413822891
 20
32.57315021021224
 42
-0.5773502691896287
 10
39.0501575608631
 20
32.62534882756548
 10
39.23877070006392
 20
32.81396196676632
 42
-0.577350269189627
  0
ENDBLK
  5
2A8
330
3C
100
AcDbEntity
  8
0
100
AcDbBlockEnd
  0
BLOCK
  5
2A9
330
3D
100
AcDbEntity
  8
0
100
AcDbBlockBegin
  2
ACAD1A21
 70
     0
 10
0.0
 20
0.0
 30
0.0
  3
ACAD1A21
  1

  4

  0
LWPOLYLINE
  5
2AA
330
3D
100
AcDbEntity
  8
OBJECT
100
AcDbPolyline
 90
        6
 70
     1
 43
0.0
 10
15.85276467971578
 20
32.50339663847758
 10
15.59244080599257
 20
32.57315021021224
 42
-0.5773502691896287
 10
15.57845422862674
 20
32.62534882756548
 10
15.76902453061527
 20
32.81591912955401
 42
-0.577350269189627
 10
15.82122314796851
 20
32.8019325521882
 10
15.89097671970319
 20
32.54160867846499
 42
-0.577350269189625
  0
LWPOLYLINE
  5
2B2
330
3D
100
AcDbEntity
  8
OBJECT
100
AcDbPolyline
 90
        2
 70
     0
 43
0.0
 10
16.14551159657519
 20
33.36814973620083
 10
15.98836298170753
 20
33.41025758064628
 42
-0.5773502691896287
  0
LWPOLYLINE
  5
2B6
330
3D
100
AcDbEntity
  8
OBJECT
100
AcDbPolyline
 90
        6
 70
     1
 43
0.0
 10
16.22776467971578
 20
33.25339663847758
 10
15.96744080599257
 20
33.32315021021224
 42
-0.5773502691896287
 10
15.95345422862674
 20
33.37534882756548
 10
16.14402453061527
 20
33.56591912955401
 42
-0.577350269189627
 10
16.19622314796851
 20
33.5519325521882
 10
16.26597671970319
 20
33.29160867846499
 42
-0.577350269189625
  0
LWPOLYLINE
  5
2BE
330
3D
100
AcDbEntity
  8
OBJECT
100
AcDbPolyline
 90
        2
 70
     0
 43
0.0
 10
15.77051159657519
 20
32.61814973620083
 10
15.61336298170753
 20
32.66025758064628
 42
-0.5773502691896287
  0
LWPOLYLINE
  5
2C2
330
3D
100
AcDbEntity
  8
OBJECT
100
AcDbPolyline
 90
        3
 70
     0
 43
0.0
 10
15.76661579211714
 20
32.81351039105589
 10
15.8087236365626
 20
32.65636177618824
 42
-0.577350269189625
 10
15.77051159657519
 20
32.61814973620083
  0
LWPOLYLINE
  5
2C7
330
3D
100
AcDbEntity
  8
OBJECT
100
AcDbPolyline
 90
        3
 70
     0
 43
0.0
 10
16.14161579211714
 20
33.56351039105589
 10
16.1837236365626
 20
33.40636177618824
 42
-0.577350269189625
 10
16.14551159657519
 20
33.36814973620083
  0
ENDBLK
  5
2CC
330
3D
100
AcDbEntity
  8
0
100
AcDbBlockEnd
  0
ENDSEC
  0
SECTION
  2
ENTITIES
  0
LINE
  5
2ED
330
1E
100
AcDbEntity
  8
0
100
AcDbLine
 10
-3.278128325250535
 20
13.71074097207744
 30
0.0
 11
-3.278128325250535
 21
0.8357409720774349
 31
0.0
  0
LINE
  5
2EE
330
1E
100
AcDbEntity
  8
0
100
AcDbLine
 10
-3.278128325250535
 20
0.8357409720774349
 30
0.0
 11
-2.028128325250535
 21
0.8357409720774349
 31
0.0
  0
LINE
  5
2EF
330
1E
100
AcDbEntity
  8
0
100
AcDbLine
 10
-2.028128325250535
 20
0.8357409720774349
 30
0.0
 11
-2.028128325250535
 21
13.71074097207744
 31
0.0
  0
LINE
  5
2F0
330
1E
100
AcDbEntity
  8
0
100
AcDbLine
 10
-2.028128325250535
 20
13.71074097207744
 30
0.0
 11
-3.278128325250535
 21
13.71074097207744
 31
0.0
  0
LINE
  5
2FB
330
1E
100
AcDbEntity
  8
0
100
AcDbLine
 10
0.7227171638307155
 20
0.8357409720774349
 30
0.0
 11
0.7227171638307155
 21
13.71074097207744
 31
0.0
  0
LINE
  5
2FC
330
1E
100
AcDbEntity
  8
0
100
AcDbLine
 10
-2.028128325250535
 20
13.71074097207744
 30
0.0
 11
-0.0157906389966165
 21
13.71074097207744
 31
0.0
  0
LINE
  5
2FD
330
1E
100
AcDbEntity
  8
0
100
AcDbLine
 10
-1.903128325250535
 20
0.0857409720774349
 30
0.0
 11
0.0690350292435369
 21
0.0857409720774349
 31
0.0
  0
LINE
  5
2FE
330
1E
100
AcDbEntity
  8
0
  6
HIDDEN
100
AcDbLine
 10
-1.925454099645137
 20
0.1482409720774385
 30
0.0
 11
-0.039218040075081
 21
0.1482409720774385
 31
0.0
  0
LINE
  5
2FF
330
1E
100
AcDbEntity
  8
0
100
AcDbLine
 10
-2.028128325250535
 20
0.8357409720774349
 30
0.0
 11
-2.028128325250535
 21
0.8357409720774349
 31
0.0
  0
LINE
  5
300
330
1E
100
AcDbEntity
  8
0
100
AcDbLine
 10
3.210972917925972
 20
0.2107409720774349
 30
0.0
 11
3.210972917925972
 21
13.71074097207744
 31
0.0
  0
LINE
  5
301
330
1E
100
AcDbEntity
  8
0
100
AcDbLine
 10
3.17079869232056
 20
0.2107409720774385
 30
0.0
 11
3.17079869232056
 21
13.71074097207744
 31
0.0
  0
LINE
  5
302
330
1E
100
AcDbEntity
  8
0
100
AcDbLine
 10
-0.0559648646020285
 20
0.2107409720774385
 30
0.0
 11
-0.0559648646020285
 21
13.71074097207744
 31
0.0
  0
LINE
  5
303
330
1E
100
AcDbEntity
  8
0
100
AcDbLine
 10
-0.0157906389966165
 20
0.2107409720774385
 30
0.0
 11
-0.0157906389966165
 21
13.71074097207744
 31
0.0
  0
LINE
  5
304
330
1E
100
AcDbEntity
  8
0
100
AcDbLine
 10
-2.028128325250535
 20
0.2107409720774349
 30
0.0
 11
-2.028128325250535
 21
0.8357409720774349
 31
0.0
  0
LINE
  5
305
330
1E
100
AcDbEntity
  8
0
  6
HIDDEN
100
AcDbLine
 10
-1.987954099645137
 20
0.2107409720774385
 30
0.0
 11
-1.987954099645137
 21
0.8357409720774349
 31
0.0
  0
LINE
  5
306
330
1E
100
AcDbEntity
  8
0
100
AcDbLine
 10
2.076656835901233
 20
0.1482409720774385
 30
0.0
 11
2.076656835901233
 21
13.71074097207744
 31
0.0
  0
LINE
  5
307
330
1E
100
AcDbEntity
  8
0
100
AcDbLine
 10
3.210972917925972
 20
13.71074097207744
 30
0.0
 11
0.7227171638307155
 21
13.71074097207744
 31
0.0
  0
LINE
  5
311
330
1E
100
AcDbEntity
  8
0
100
AcDbLine
 10
2.076656835901233
 20
0.8357409720774349
 30
0.0
 11
0.7227171638307155
 21
0.8357409720774349
 31
0.0
  0
ARC
  5
312
330
1E
100
AcDbEntity
  8
0
100
AcDbCircle
 10
3.10829869232056
 20
0.2107409720774385
 30
0.0
 40
0.0625
100
AcDbArc
 50
270.0
 51
0.000000000000007
  0
ARC
  5
313
330
1E
100
AcDbEntity
  8
0
  6
HIDDEN
100
AcDbCircle
 10
-1.925454099645137
 20
0.2107409720774385
 30
0.0
 40
0.0625
100
AcDbArc
 50
180.0
 51
270.0000000000001
  0
ARC
  5
314
330
1E
100
AcDbEntity
  8
0
100
AcDbCircle
 10
-1.903128325250535
 20
0.2107409720774349
 30
0.0
 40
0.125
100
AcDbArc
 50
180.0
 51
270.0
  0
ARC
  5
315
330
1E
100
AcDbEntity
  8
0
100
AcDbCircle
 10
3.085972917925972
 20
0.2107409720774349
 30
0.0
 40
0.125
100
AcDbArc
 50
270.0
 51
0.000000000000007
  0
LINE
  5
316
330
1E
100
AcDbEntity
  8
0
100
AcDbLine
 10
2.014156779650577
 20
0.1482409720774385
 30
0.0
 11
3.10829869232056
 21
0.1482409720774385
 31
0.0
  0
LINE
  5
317
330
1E
100
AcDbEntity
  8
0
100
AcDbLine
 10
2.01415674202687
 20
0.0857409720774349
 30
0.0
 11
3.085972917925972
 21
0.0857409720774349
 31
0.0
  0
LINE
  5
318
330
1E
100
AcDbEntity
  8
0
100
AcDbLine
 10
0.0690351353979679
 20
0.0857409720774385
 30
0.0
 11
2.014156835901218
 21
0.0857409720774349
 31
0.0
  0
LINE
  5
319
330
1E
100
AcDbEntity
  8
0
100
AcDbLine
 10
0.0467093610033835
 20
0.1482409720774385
 30
0.0
 11
2.014156835901233
 21
0.1482409720774385
 31
0.0
  0
ARC
  5
31A
330
1E
100
AcDbEntity
  8
0
100
AcDbCircle
 10
0.0467093610033835
 20
0.2107409720774385
 30
0.0
 40
0.0625
100
AcDbArc
 50
180.0
 51
270.0
  0
ARC
  5
31B
330
1E
100
AcDbEntity
  8
0
100
AcDbCircle
 10
0.0690351353979679
 20
0.2107409720774385
 30
0.0
 40
0.125
100
AcDbArc
 50
180.0
 51
270.0
  0
CIRCLE
  5
32B
330
1E
100
AcDbEntity
  8
0
100
AcDbCircle
 10
-0.4132966616803593
 20
6.273240972077439
 30
0.0
 40
0.109375
  0
CIRCLE
  5
32C
330
1E
100
AcDbEntity
  8
0
100
AcDbCircle
 10
-0.4132966616803593
 20
9.273240972077431
 30
0.0
 40
0.109375
  0
CIRCLE
  5
32D
330
1E
100
AcDbEntity
  8
0
100
AcDbCircle
 10
-0.4132966616803593
 20
12.27324097207744
 30
0.0
 40
0.109375
  0
CIRCLE
  5
33F
330
1E
100
AcDbEntity
  8
0
100
AcDbCircle
 10
-0.4132966616803593
 20
3.210740972077435
 30
0.0
 40
0.109375
  0
CIRCLE
  5
340
330
1E
100
AcDbEntity
  8
0
100
AcDbCircle
 10
-0.7882966616803593
 20
3.960740972077439
 30
0.0
 40
0.109375
  0
CIRCLE
  5
341
330
1E
100
AcDbEntity
  8
0
100
AcDbCircle
 10
-0.7882966616803593
 20
13.02324097207744
 30
0.0
 40
0.109375
  0
CIRCLE
  5
342
330
1E
100
AcDbEntity
  8
0
100
AcDbCircle
 10
-0.7882966616803593
 20
10.02324097207744
 30
0.0
 40
0.109375
  0
CIRCLE
  5
343
330
1E
100
AcDbEntity
  8
0
100
AcDbCircle
 10
-0.7882966616803593
 20
7.023240972077439
 30
0.0
 40
0.109375
  0
CIRCLE
  5
35C
330
1E
100
AcDbEntity
  8
0
100
AcDbCircle
 10
-2.903128325250535
 20
10.58182303885398
 30
0.0
 40
0.125
  0
CIRCLE
  5
35D
330
1E
100
AcDbEntity
  8
0
100
AcDbCircle
 10
-2.903128325250535
 20
13.08182303885399
 30
0.0
 40
0.125
  0
CIRCLE
  5
35E
330
1E
100
AcDbEntity
  8
0
100
AcDbCircle
 10
-2.715628325250535
 20
11.83182303885399
 30
0.0
 40
0.125
  0
CIRCLE
  5
35F
330
1E
100
AcDbEntity
  8
0
100
AcDbCircle
 10
-2.715628325250535
 20
9.331823038853983
 30
0.0
 40
0.125
  0
CIRCLE
  5
360
330
1E
100
AcDbEntity
  8
0
100
AcDbCircle
 10
-2.715628325250535
 20
6.956823038853983
 30
0.0
 40
0.125
  0
CIRCLE
  5
361
330
1E
100
AcDbEntity
  8
0
100
AcDbCircle
 10
-2.903128325250535
 20
8.206823038853983
 30
0.0
 40
0.125
  0
CIRCLE
  5
362
330
1E
100
AcDbEntity
  8
0
100
AcDbCircle
 10
-2.715628325250535
 20
4.581823038853983
 30
0.0
 40
0.125
  0
CIRCLE
  5
363
330
1E
100
AcDbEntity
  8
0
100
AcDbCircle
 10
-2.903128325250535
 20
5.831823038853983
 30
0.0
 40
0.125
  0
CIRCLE
  5
364
330
1E
100
AcDbEntity
  8
0
100
AcDbCircle
 10
-2.715628325250535
 20
2.206823038853983
 30
0.0
 40
0.125
  0
CIRCLE
  5
365
330
1E
100
AcDbEntity
  8
0
100
AcDbCircle
 10
-2.903128325250535
 20
3.456823038853983
 30
0.0
 40
0.125
  0
CIRCLE
  5
366
330
1E
100
AcDbEntity
  8
0
100
AcDbCircle
 10
-2.903128325250535
 20
1.144323038853983
 30
0.0
 40
0.125
  0
ARC
  5
367
330
1E
100
AcDbEntity
  8
0
100
AcDbCircle
 10
-0.7217108324713131
 20
13.08916296438654
 30
0.0
 40
0.109375
100
AcDbArc
 50
160.0749250917942
 51
289.3509995967403
  0
ARC
  5
368
330
1E
100
AcDbEntity
  8
0
100
AcDbCircle
 10
-0.3467108324713131
 20
12.33916296438654
 30
0.0
 40
0.109375
100
AcDbArc
 50
160.0749250917942
 51
289.3509995967403
  0
ARC
  5
369
330
1E
100
AcDbEntity
  8
0
100
AcDbCircle
 10
-0.7217108324713131
 20
10.08916296438654
 30
0.0
 40
0.109375
100
AcDbArc
 50
160.0749250917942
 51
289.3509995967403
  0
ARC
  5
36A
330
1E
100
AcDbEntity
  8
0
100
AcDbCircle
 10
-0.3467108324713131
 20
9.339162964386532
 30
0.0
 40
0.109375
100
AcDbArc
 50
160.0749250917942
 51
289.3509995967403
  0
ARC
  5
36B
330
1E
100
AcDbEntity
  8
0
100
AcDbCircle
 10
-0.7217108324713131
 20
7.089162964386539
 30
0.0
 40
0.109375
100
AcDbArc
 50
160.0749250917942
 51
289.3509995967403
  0
ARC
  5
36C
330
1E
100
AcDbEntity
  8
0
100
AcDbCircle
 10
-0.3467108324713131
 20
6.339162964386539
 30
0.0
 40
0.109375
100
AcDbArc
 50
160.0749250917942
 51
289.3509995967403
  0
ARC
  5
36D
330
1E
100
AcDbEntity
  8
0
100
AcDbCircle
 10
-0.7217108324713131
 20
4.026662964386539
 30
0.0
 40
0.109375
100
AcDbArc
 50
160.0749250917942
 51
289.3509995967403
  0
ARC
  5
36E
330
1E
100
AcDbEntity
  8
0
100
AcDbCircle
 10
-0.3467108324713131
 20
3.276662964386535
 30
0.0
 40
0.109375
100
AcDbArc
 50
160.0749250917942
 51
289.3509995967403
  0
CIRCLE
  5
371
330
1E
100
AcDbEntity
  8
0
100
AcDbCircle
 10
1.097717163830716
 20
13.0701112034148
 30
0.0
 40
0.109375
  0
CIRCLE
  5
372
330
1E
100
AcDbEntity
  8
0
100
AcDbCircle
 10
1.285217163830716
 20
11.8201112034148
 30
0.0
 40
0.109375
  0
CIRCLE
  5
373
330
1E
100
AcDbEntity
  8
0
100
AcDbCircle
 10
1.097717163830716
 20
10.5701112034148
 30
0.0
 40
0.109375
  0
CIRCLE
  5
374
330
1E
100
AcDbEntity
  8
0
100
AcDbCircle
 10
1.285217163830716
 20
9.320111203414797
 30
0.0
 40
0.109375
  0
CIRCLE
  5
375
330
1E
100
AcDbEntity
  8
0
100
AcDbCircle
 10
1.097717163830716
 20
8.195111203414797
 30
0.0
 40
0.109375
  0
CIRCLE
  5
376
330
1E
100
AcDbEntity
  8
0
100
AcDbCircle
 10
1.285217163830716
 20
6.945111203414797
 30
0.0
 40
0.109375
  0
CIRCLE
  5
377
330
1E
100
AcDbEntity
  8
0
100
AcDbCircle
 10
1.097717163830716
 20
5.820111203414797
 30
0.0
 40
0.109375
  0
CIRCLE
  5
378
330
1E
100
AcDbEntity
  8
0
100
AcDbCircle
 10
1.285217163830716
 20
4.570111203414797
 30
0.0
 40
0.109375
  0
CIRCLE
  5
379
330
1E
100
AcDbEntity
  8
0
100
AcDbCircle
 10
1.097717163830716
 20
3.445111203414797
 30
0.0
 40
0.109375
  0
CIRCLE
  5
37A
330
1E
100
AcDbEntity
  8
0
100
AcDbCircle
 10
1.285217163830716
 20
2.195111203414797
 30
0.0
 40
0.109375
  0
CIRCLE
  5
37B
330
1E
100
AcDbEntity
  8
0
100
AcDbCircle
 10
1.097717163830716
 20
1.132611203414797
 30
0.0
 40
0.109375
  0
LINE
  5
385
330
1E
100
AcDbEntity
  8
0
100
AcDbLine
 10
-2.028128325250535
 20
0.8357409720774349
 30
0.0
 11
-1.987954099645137
 21
0.8357409720774349
 31
0.0
  0
TEXT
  5
38B
330
1E
100
AcDbEntity
  8
0
100
AcDbText
 10
19.09770999937262
 20
31.01876889245225
 30
0.0
 40
0.45
  1
   
 72
     1
 11
19.77270999937262
 21
31.24376889245225
 31
0.0
100
AcDbText
 73
     2
  0
TEXT
  5
39D
330
1E
100
AcDbEntity
  8
0
100
AcDbText
 10
18.02843970840733
 20
37.31366041564031
 30
0.0
 40
0.45
  1
   
 11
18.02843970840733
 21
37.53866041564031
 31
0.0
100
AcDbText
 73
     2
  0
TEXT
  5
39E
330
1E
100
AcDbEntity
  8
0
100
AcDbText
 10
14.52843970840735
 20
37.31366041564031
 30
0.0
 40
0.45
  1
   
 72
     2
 11
15.87843970840735
 21
37.53866041564031
 31
0.0
100
AcDbText
 73
     2
  0
INSERT
  5
3DD
330
1E
100
AcDbEntity
  8
0
100
AcDbBlockReference
  2
ACAD1A21
 10
15.35187464105118
 20
-21.73144993433341
 30
0.0
 41
-1.0
  0
INSERT
  5
3DE
330
1E
100
AcDbEntity
  8
0
100
AcDbBlockReference
  2
ACAD1A21
 10
15.35187464105118
 20
-24.83066766157945
 30
0.0
 41
-1.0
  0
LWPOLYLINE
  5
40B
330
1E
100
AcDbEntity
  8
0
100
AcDbPolyline
 90
        6
 70
     1
 43
0.0
 10
1.093122363607641
 20
12.28644114936012
 10
1.353446237330847
 20
12.35619472109479
 42
0.5773502691896287
 10
1.367432814696674
 20
12.40839333844803
 10
1.176862512708148
 20
12.59896364043656
 42
0.577350269189627
 10
1.124663895354907
 20
12.58497706307074
 10
1.054910323620227
 20
12.32465318934754
 42
0.577350269189625
  0
LWPOLYLINE
  5
40C
330
1E
100
AcDbEntity
  8
0
100
AcDbPolyline
 90
        6
 70
     1
 43
0.0
 10
1.093122363607641
 20
9.786441149360122
 10
1.353446237330847
 20
9.856194721094788
 42
0.5773502691896287
 10
1.367432814696674
 20
9.908393338448025
 10
1.176862512708148
 20
10.09896364043656
 42
0.577350269189627
 10
1.124663895354907
 20
10.08497706307074
 10
1.054910323620227
 20
9.82465318934754
 42
0.577350269189625
  0
LWPOLYLINE
  5
40D
330
1E
100
AcDbEntity
  8
0
100
AcDbPolyline
 90
        6
 70
     1
 43
0.0
 10
1.093122363607641
 20
7.411441149360122
 10
1.353446237330847
 20
7.481194721094788
 42
0.5773502691896287
 10
1.367432814696674
 20
7.533393338448025
 10
1.176862512708148
 20
7.723963640436558
 42
0.577350269189627
 10
1.124663895354907
 20
7.709977063070742
 10
1.054910323620227
 20
7.44965318934754
 42
0.577350269189625
  0
LWPOLYLINE
  5
40E
330
1E
100
AcDbEntity
  8
0
100
AcDbPolyline
 90
        6
 70
     1
 43
0.0
 10
1.093122363607641
 20
5.036441149360122
 10
1.353446237330847
 20
5.106194721094788
 42
0.5773502691896287
 10
1.367432814696674
 20
5.158393338448025
 10
1.176862512708148
 20
5.348963640436558
 42
0.577350269189627
 10
1.124663895354907
 20
5.334977063070742
 10
1.054910323620227
 20
5.07465318934754
 42
0.577350269189625
  0
LWPOLYLINE
  5
40F
330
1E
100
AcDbEntity
  8
0
100
AcDbPolyline
 90
        6
 70
     1
 43
0.0
 10
-2.874200977270526
 20
5.036441149360122
 10
-2.613877103547321
 20
5.106194721094788
 42
0.5773502691896287
 10
-2.599890526181493
 20
5.158393338448025
 10
-2.790460828170019
 20
5.348963640436558
 42
0.577350269189627
 10
-2.84265944552326
 20
5.334977063070742
 10
-2.91241301725794
 20
5.07465318934754
 42
0.577350269189625
  0
LWPOLYLINE
  5
410
330
1E
100
AcDbEntity
  8
0
100
AcDbPolyline
 90
        6
 70
     1
 43
0.0
 10
-2.874200977270526
 20
7.411441149360122
 10
-2.613877103547321
 20
7.481194721094788
 42
0.5773502691896287
 10
-2.599890526181493
 20
7.533393338448025
 10
-2.790460828170019
 20
7.723963640436558
 42
0.577350269189627
 10
-2.84265944552326
 20
7.709977063070742
 10
-2.91241301725794
 20
7.44965318934754
 42
0.577350269189625
  0
LWPOLYLINE
  5
411
330
1E
100
AcDbEntity
  8
0
100
AcDbPolyline
 90
        6
 70
     1
 43
0.0
 10
-2.874200977270526
 20
9.786441149360122
 10
-2.613877103547321
 20
9.856194721094788
 42
0.5773502691896287
 10
-2.599890526181493
 20
9.908393338448025
 10
-2.790460828170019
 20
10.09896364043656
 42
0.577350269189627
 10
-2.84265944552326
 20
10.08497706307074
 10
-2.91241301725794
 20
9.82465318934754
 42
0.577350269189625
  0
LWPOLYLINE
  5
412
330
1E
100
AcDbEntity
  8
0
100
AcDbPolyline
 90
        6
 70
     1
 43
0.0
 10
-2.874200977270526
 20
12.28644114936012
 10
-2.613877103547321
 20
12.35619472109479
 42
0.5773502691896287
 10
-2.599890526181493
 20
12.40839333844803
 10
-2.790460828170019
 20
12.59896364043656
 42
0.577350269189627
 10
-2.84265944552326
 20
12.58497706307074
 10
-2.91241301725794
 20
12.32465318934754
 42
0.577350269189625
  0
ENDSEC
  0
SECTION
  2
OBJECTS
  0
DICTIONARY
  5
C
330
0
100
AcDbDictionary
281
     1
  3
ACAD_COLOR
350
41A
  3
ACAD_GROUP
350
D
  3
ACAD_LAYOUT
350
19
  3
ACAD_MATERIAL
350
419
  3
ACAD_MLINESTYLE
350
16
  3
ACAD_PLOTSETTINGS
350
18
  3
ACAD_PLOTSTYLENAME
350
E
  3
ACAD_TABLESTYLE
350
41B
  3
ACDBHEADERROUNDTRIPXREC
350
44D
  3
AcDbVariableDictionary
350
448
  0
DICTIONARY
  5
41A
102
{ACAD_REACTORS
330
C
102
}
330
C
100
AcDbDictionary
281
     1
  0
DICTIONARY
  5
D
102
{ACAD_REACTORS
330
C
102
}
330
C
100
AcDbDictionary
281
     1
  0
DICTIONARY
  5
19
102
{ACAD_REACTORS
330
C
102
}
330
C
100
AcDbDictionary
281
     1
  3
Layout1
350
1D
  3
Model
350
21
  0
DICTIONARY
  5
419
102
{ACAD_REACTORS
330
C
102
}
330
C
100
AcDbDictionary
281
     1
  0
DICTIONARY
  5
16
102
{ACAD_REACTORS
330
C
102
}
330
C
100
AcDbDictionary
281
     1
  3
Standard
350
17
  0
DICTIONARY
  5
18
102
{ACAD_REACTORS
330
C
102
}
330
C
100
AcDbDictionary
281
     1
  0
ACDBDICTIONARYWDFLT
  5
E
102
{ACAD_REACTORS
330
C
102
}
330
C
100
AcDbDictionary
281
     1
  3
Normal
350
F
100
AcDbDictionaryWithDefault
340
F
  0
DICTIONARY
  5
41B
102
{ACAD_REACTORS
330
C
102
}
330
C
100
AcDbDictionary
281
     1
  3
Standard
350
41C
  0
DICTIONARY
  5
44D
102
{ACAD_REACTORS
330
C
102
}
330
C
100
AcDbDictionary
281
     1
  3
COLORDICT
350
44E
  3
MATERIALDICT
350
44F
  0
DICTIONARY
  5
448
102
{ACAD_REACTORS
330
C
102
}
330
C
100
AcDbDictionary
281
     1
  3
CTABLESTYLE
350
449
  0
LAYOUT
  5
1D
102
{ACAD_REACTORS
330
19
102
}
102
{ACAD_XDICTIONARY
360
450
102
}
330
19
100
AcDbPlotSettings
  1

  2
HP LaserJet 2100 Series PS
  4

  6

 40
0.0
 41
0.0
 42
0.0
 43
0.0
 44
0.0
 45
0.0
 46
0.0
 47
0.0
 48
0.0
 49
0.0
140
0.0
141
0.0
142
1.0
143
1.0
 70
   688
 72
     0
 73
     0
 74
     5
  7
monochrome.ctb
 75
    16
147
1.0
148
0.0
149
0.0
100
AcDbLayout
  1
Layout1
 70
     0
 71
     1
 10
0.0
 20
0.0
 11
12.0
 21
9.0
 12
0.0
 22
0.0
 32
0.0
 14
1.000000000000000E+20
 24
1.000000000000000E+20
 34
1.000000000000000E+20
 15
-1.000000000000000E+20
 25
-1.000000000000000E+20
 35
-1.000000000000000E+20
146
0.0
 13
0.0
 23
0.0
 33
0.0
 16
1.0
 26
0.0
 36
0.0
 17
0.0
 27
1.0
 37
0.0
 76
     0
330
1A
  0
LAYOUT
  5
21
102
{ACAD_REACTORS
330
19
102
}
102
{ACAD_XDICTIONARY
360
452
102
}
330
19
100
AcDbPlotSettings
  1

  2
HP LaserJet 2100 Series PS
  4

  6

 40
0.0
 41
0.0
 42
0.0
 43
0.0
 44
0.0
 45
0.0
 46
0.0
 47
0.0
 48
0.0
 49
0.0
140
0.0
141
0.0
142
1.0
143
1.0
 70
  1712
 72
     0
 73
     0
 74
     0
  7
monochrome.ctb
 75
     0
147
1.0
148
0.0
149
0.0
100
AcDbLayout
  1
Model
 70
     1
 71
     0
 10
0.0
 20
0.0
 11
12.0
 21
9.0
 12
0.0
 22
0.0
 32
0.0
 14
0.0
 24
0.0
 34
0.0
 15
0.0
 25
0.0
 35
0.0
146
0.0
 13
0.0
 23
0.0
 33
0.0
 16
1.0
 26
0.0
 36
0.0
 17
0.0
 27
1.0
 37
0.0
 76
     0
330
1E
  0
MLINESTYLE
  5
17
102
{ACAD_REACTORS
330
16
102
}
330
16
100
AcDbMlineStyle
  2
STANDARD
 70
     0
  3

 62
   256
 51
90.0
 52
90.0
 71
     2
 49
0.5
 62
   256
  6
BYLAYER
 49
-0.5
 62
   256
  6
BYLAYER
  0
ACDBPLACEHOLDER
  5
F
102
{ACAD_REACTORS
330
E
102
}
330
E
  0
ACAD_PROXY_OBJECT
  5
41C
102
{ACAD_REACTORS
330
41B
102
}
330
41B
100
AcDbProxyObject
 90
      499
 91
      503
 95
   983063
 70
     0
 93
     1841
310
4214DD185B99185C9928B81E85EB51B8AE3F2E07A17AD46E2B8FC02B5E8DC0F42B1CFD028000000C1008070000C3001FDFF8000000C1003FBFF000000182007F7FE00000030400FEFFC00000060801FDFF8000000C1003FBFF00000018200000000000000681FA0B0000001820100E000186003FBFF000000182007F7FE000
310
00030400FEFFC00000060801FDFF8000000C1003FBFF000000182007F7FE000000304000AD7A3703D0AC73F4160000003040201C00030C007F7FE00000030400FEFFC00000060801FDFF8000000C1003FBFF000000182007F7FE00000030400FEFFC000000608000
340
11
340
11
340
11
 94
        0
  0
XRECORD
  5
44E
102
{ACAD_REACTORS
330
44D
102
}
330
44D
100
AcDbXrecord
340
41A
  0
XRECORD
  5
44F
102
{ACAD_REACTORS
330
44D
102
}
330
44D
100
AcDbXrecord
340
419
  0
DICTIONARYVAR
  5
449
102
{ACAD_REACTORS
330
448
102
}
330
448
100
DictionaryVariables
280
     0
  1
STANDARD
  0
DICTIONARY
  5
450
330
1D
100
AcDbDictionary
280
     1
281
     1
  3
ACAD_XREC_ROUNDTRIP
360
451
  0
DICTIONARY
  5
452
330
21
100
AcDbDictionary
280
     1
281
     1
  3
ACAD_XREC_ROUNDTRIP
360
453
  0
XRECORD
  5
451
102
{ACAD_REACTORS
330
450
102
}
330
450
100
AcDbXrecord
102
SHADEPLOT
 70
     0
102
SHADEPLOTRESLEVEL
 70
     2
102
SHADEPLOTCUSTOMDPI
 70
   300
  0
XRECORD
  5
453
102
{ACAD_REACTORS
330
452
102
}
330
452
100
AcDbXrecord
102
SHADEPLOT
 70
     0
102
SHADEPLOTRESLEVEL
 70
     2
102
SHADEPLOTCUSTOMDPI
 70
   300
  0
ENDSEC
  0
EOF
