  0
SECTION
  2
HEADER
  9
$ACADVER
  1
AC1015
  9
$ACADMAINTVER
 70
     6
  9
$DWGCODEPAGE
  3
ANSI_1252
  9
$INSBASE
 10
0.0
 20
0.0
 30
0.0
  9
$EXTMIN
 10
-8.031927037510036
 20
-0.0414213562373067
 30
0.0
  9
$EXTMAX
 10
8.04429833701623
 20
13.58573169679744
 30
0.0
  9
$LIMMIN
 10
0.0
 20
0.0
  9
$LIMMAX
 10
31.5
 20
24.0
  9
$ORTHOMODE
 70
     1
  9
$REGENMODE
 70
     1
  9
$FILLMODE
 70
     1
  9
$QTEXTMODE
 70
     0
  9
$MIRRTEXT
 70
     0
  9
$LTSCALE
 40
1.0
  9
$ATTMODE
 70
     1
  9
$TEXTSIZE
 40
0.27
  9
$TRACEWID
 40
0.05
  9
$TEXTSTYLE
  7
STANDARD
  9
$CLAYER
  8
0
  9
$CELTYPE
  6
BYLAYER
  9
$CECOLOR
 62
   256
  9
$CELTSCALE
 40
1.0
  9
$DISPSILH
 70
     0
  9
$DIMSCALE
 40
1.0
  9
$DIMASZ
 40
0.375
  9
$DIMEXO
 40
0.0625
  9
$DIMDLI
 40
0.75
  9
$DIMRND
 40
0.0
  9
$DIMDLE
 40
0.0
  9
$DIMEXE
 40
0.18
  9
$DIMTP
 40
0.0
  9
$DIMTM
 40
0.0
  9
$DIMTXT
 40
0.27
  9
$DIMCEN
 40
-0.06
  9
$DIMTSZ
 40
0.0
  9
$DIMTOL
 70
     0
  9
$DIMLIM
 70
     0
  9
$DIMTIH
 70
     1
  9
$DIMTOH
 70
     1
  9
$DIMSE1
 70
     0
  9
$DIMSE2
 70
     0
  9
$DIMTAD
 70
     0
  9
$DIMZIN
 70
     0
  9
$DIMBLK
  1

  9
$DIMASO
 70
     0
  9
$DIMSHO
 70
     0
  9
$DIMPOST
  1

  9
$DIMAPOST
  1

  9
$DIMALT
 70
     0
  9
$DIMALTD
 70
     2
  9
$DIMALTF
 40
25.4
  9
$DIMLFAC
 40
1.0
  9
$DIMTOFL
 70
     0
  9
$DIMTVP
 40
0.0
  9
$DIMTIX
 70
     0
  9
$DIMSOXD
 70
     0
  9
$DIMSAH
 70
     0
  9
$DIMBLK1
  1

  9
$DIMBLK2
  1

  9
$DIMSTYLE
  2
STANDARD
  9
$DIMCLRD
 70
     0
  9
$DIMCLRE
 70
     0
  9
$DIMCLRT
 70
     0
  9
$DIMTFAC
 40
1.0
  9
$DIMGAP
 40
0.09
  9
$DIMJUST
 70
     0
  9
$DIMSD1
 70
     0
  9
$DIMSD2
 70
     0
  9
$DIMTOLJ
 70
     1
  9
$DIMTZIN
 70
     0
  9
$DIMALTZ
 70
     0
  9
$DIMALTTZ
 70
     0
  9
$DIMUPT
 70
     0
  9
$DIMDEC
 70
     3
  9
$DIMTDEC
 70
     3
  9
$DIMALTU
 70
     2
  9
$DIMALTTD
 70
     2
  9
$DIMTXSTY
  7
STANDARD
  9
$DIMAUNIT
 70
     0
  9
$DIMADEC
 70
     0
  9
$DIMALTRND
 40
0.0
  9
$DIMAZIN
 70
     0
  9
$DIMDSEP
 70
    46
  9
$DIMATFIT
 70
     3
  9
$DIMFRAC
 70
     0
  9
$DIMLDRBLK
  1

  9
$DIMLUNIT
 70
     2
  9
$DIMLWD
 70
    -2
  9
$DIMLWE
 70
    -2
  9
$DIMTMOVE
 70
     2
  9
$LUNITS
 70
     2
  9
$LUPREC
 70
     3
  9
$SKETCHINC
 40
0.1
  9
$FILLETRAD
 40
0.0625
  9
$AUNITS
 70
     0
  9
$AUPREC
 70
     0
  9
$MENU
  1
ACAD
  9
$ELEVATION
 40
0.0
  9
$PELEVATION
 40
0.0
  9
$THICKNESS
 40
0.0
  9
$LIMCHECK
 70
     0
  9
$CHAMFERA
 40
0.0
  9
$CHAMFERB
 40
0.0
  9
$CHAMFERC
 40
0.0
  9
$CHAMFERD
 40
0.0
  9
$SKPOLY
 70
     0
  9
$TDCREATE
 40
2450630.757014583
  9
$TDUCREATE
 40
2450631.090347917
  9
$TDUPDATE
 40
2455126.87841743
  9
$TDUUPDATE
 40
2455127.211750764
  9
$TDINDWG
 40
0.1133984144
  9
$TDUSRTIMER
 40
0.1133984144
  9
$USRTIMER
 70
     1
  9
$ANGBASE
 50
0.0
  9
$ANGDIR
 70
     0
  9
$PDMODE
 70
     0
  9
$PDSIZE
 40
0.0
  9
$PLINEWID
 40
0.0
  9
$SPLFRAME
 70
     0
  9
$SPLINETYPE
 70
     6
  9
$SPLINESEGS
 70
     8
  9
$HANDSEED
  5
98D
  9
$SURFTAB1
 70
     6
  9
$SURFTAB2
 70
     6
  9
$SURFTYPE
 70
     6
  9
$SURFU
 70
     6
  9
$SURFV
 70
     6
  9
$UCSBASE
  2

  9
$UCSNAME
  2

  9
$UCSORG
 10
0.0
 20
0.0
 30
0.0
  9
$UCSXDIR
 10
1.0
 20
0.0
 30
0.0
  9
$UCSYDIR
 10
0.0
 20
1.0
 30
0.0
  9
$UCSORTHOREF
  2

  9
$UCSORTHOVIEW
 70
     0
  9
$UCSORGTOP
 10
0.0
 20
0.0
 30
0.0
  9
$UCSORGBOTTOM
 10
0.0
 20
0.0
 30
0.0
  9
$UCSORGLEFT
 10
0.0
 20
0.0
 30
0.0
  9
$UCSORGRIGHT
 10
0.0
 20
0.0
 30
0.0
  9
$UCSORGFRONT
 10
0.0
 20
0.0
 30
0.0
  9
$UCSORGBACK
 10
0.0
 20
0.0
 30
0.0
  9
$PUCSBASE
  2

  9
$PUCSNAME
  2

  9
$PUCSORG
 10
0.0
 20
0.0
 30
0.0
  9
$PUCSXDIR
 10
1.0
 20
0.0
 30
0.0
  9
$PUCSYDIR
 10
0.0
 20
1.0
 30
0.0
  9
$PUCSORTHOREF
  2

  9
$PUCSORTHOVIEW
 70
     0
  9
$PUCSORGTOP
 10
0.0
 20
0.0
 30
0.0
  9
$PUCSORGBOTTOM
 10
0.0
 20
0.0
 30
0.0
  9
$PUCSORGLEFT
 10
0.0
 20
0.0
 30
0.0
  9
$PUCSORGRIGHT
 10
0.0
 20
0.0
 30
0.0
  9
$PUCSORGFRONT
 10
0.0
 20
0.0
 30
0.0
  9
$PUCSORGBACK
 10
0.0
 20
0.0
 30
0.0
  9
$USERI1
 70
     0
  9
$USERI2
 70
     0
  9
$USERI3
 70
     0
  9
$USERI4
 70
     0
  9
$USERI5
 70
     0
  9
$USERR1
 40
0.0
  9
$USERR2
 40
0.0
  9
$USERR3
 40
0.0
  9
$USERR4
 40
0.0
  9
$USERR5
 40
0.0
  9
$WORLDVIEW
 70
     1
  9
$SHADEDGE
 70
     3
  9
$SHADEDIF
 70
    70
  9
$TILEMODE
 70
     1
  9
$MAXACTVP
 70
    16
  9
$PINSBASE
 10
0.0
 20
0.0
 30
0.0
  9
$PLIMCHECK
 70
     0
  9
$PEXTMIN
 10
1.000000000000000E+20
 20
1.000000000000000E+20
 30
1.000000000000000E+20
  9
$PEXTMAX
 10
-1.000000000000000E+20
 20
-1.000000000000000E+20
 30
-1.000000000000000E+20
  9
$PLIMMIN
 10
0.0
 20
0.0
  9
$PLIMMAX
 10
12.0
 20
9.0
  9
$UNITMODE
 70
     0
  9
$VISRETAIN
 70
     0
  9
$PLINEGEN
 70
     0
  9
$PSLTSCALE
 70
     0
  9
$TREEDEPTH
 70
  3020
  9
$CMLSTYLE
  2
STANDARD
  9
$CMLJUST
 70
     0
  9
$CMLSCALE
 40
1.0
  9
$PROXYGRAPHICS
 70
     1
  9
$MEASUREMENT
 70
     0
  9
$CELWEIGHT
370
    -1
  9
$ENDCAPS
280
     0
  9
$JOINSTYLE
280
     0
  9
$LWDISPLAY
290
     0
  9
$INSUNITS
 70
     0
  9
$HYPERLINKBASE
  1

  9
$STYLESHEET
  1
monochrome.ctb
  9
$XEDIT
290
     1
  9
$CEPSNTYPE
380
     0
  9
$PSTYLEMODE
290
     1
  9
$FINGERPRINTGUID
  2
{9F1ECC24-D9BB-4BD1-8556-3C27212F6A88}
  9
$VERSIONGUID
  2
{1EB516D8-5EB9-44E4-A692-CFE68AF83F77}
  9
$EXTNAMES
290
     1
  9
$PSVPSCALE
 40
0.0
  9
$OLESTARTUP
290
     0
  0
ENDSEC
  0
SECTION
  2
CLASSES
  0
CLASS
  1
DICTIONARYVAR
  2
AcDbDictionaryVar
  3
AutoCAD 2000
 90
        0
280
     0
281
     0
  0
CLASS
  1
LWPOLYLINE
  2
AcDbPolyline
  3
AutoCAD 2000
 90
        0
280
     0
281
     1
  0
CLASS
  1
ACDBDICTIONARYWDFLT
  2
AcDbDictionaryWithDefault
  3
AutoCAD 2000
 90
        0
280
     0
281
     0
  0
CLASS
  1
ACDBPLACEHOLDER
  2
AcDbPlaceHolder
  3
ObjectDBX Classes
 90
        0
280
     0
281
     0
  0
CLASS
  1
LAYOUT
  2
AcDbLayout
  3
ObjectDBX Classes
 90
        0
280
     0
281
     0
  0
CLASS
  1
LONG_TRANSACTION
  2
AcDbLongTransaction
  3
ObjectDBX Classes
 90
        0
280
     1
281
     0
  0
CLASS
  1
LWPOLYLINE
  2
AcDbPolyline
  3
AutoCAD 2000
 90
        0
280
     0
281
     1
  0
CLASS
  1
HATCH
  2
AcDbHatch
  3
AutoCAD 2000
 90
        0
280
     0
281
     1
  0
CLASS
  1
XRECORD
  2
AcDbXrecord
  3
AutoCAD 2000
 90
        0
280
     0
281
     0
  0
CLASS
  1
TABLESTYLE
  2
AcDbTableStyle
  3
ObjectDBX Classes
 90
     2047
280
     1
281
     0
  0
CLASS
  1
SORTENTSTABLE
  2
AcDbSortentsTable
  3
AutoCAD 2000
 90
        0
280
     0
281
     0
  0
CLASS
  1
ACAD_PROXY_OBJECT_WRAPPER
  2
AcDbProxyObjectWrapper
  3
AutoCAD 2000
 90
        0
280
     1
281
     0
  0
ENDSEC
  0
SECTION
  2
TABLES
  0
TABLE
  2
VPORT
  5
6CA
330
0
100
AcDbSymbolTable
 70
     4
  0
VPORT
  5
983
330
6CA
100
AcDbSymbolTableRecord
100
AcDbViewportTableRecord
  2
*Active
 70
     0
 10
0.0
 20
0.0
 11
1.0
 21
1.0
 12
0.67628352189673
 22
6.572189270456811
 13
0.0
 23
0.0
 14
0.0625
 24
0.0625
 15
0.5
 25
0.5
 16
0.0
 26
0.0
 36
1.0
 17
0.0
 27
0.0
 37
0.0
 40
14.77350920972238
 41
1.695402298850575
 42
50.0
 43
0.0
 44
0.0
 50
0.0
 51
0.0
 71
     0
 72
   100
 73
     1
 74
     0
 75
     0
 76
     0
 77
     0
 78
     0
281
     0
 65
     1
110
0.0
120
0.0
130
0.0
111
1.0
121
0.0
131
0.0
112
0.0
122
1.0
132
0.0
 79
     0
146
0.0
  0
ENDTAB
  0
TABLE
  2
LTYPE
  5
6C7
330
0
100
AcDbSymbolTable
 70
     2
  0
LTYPE
  5
6D3
330
6C7
100
AcDbSymbolTableRecord
100
AcDbLinetypeTableRecord
  2
BYBLOCK
 70
     0
  3

 72
    65
 73
     0
 40
0.0
  0
LTYPE
  5
6D4
330
6C7
100
AcDbSymbolTableRecord
100
AcDbLinetypeTableRecord
  2
BYLAYER
 70
     0
  3

 72
    65
 73
     0
 40
0.0
  0
LTYPE
  5
6D5
330
6C7
100
AcDbSymbolTableRecord
100
AcDbLinetypeTableRecord
  2
CONTINUOUS
 70
     0
  3
Solid line
 72
    65
 73
     0
 40
0.0
  0
LTYPE
  5
704
330
6C7
100
AcDbSymbolTableRecord
100
AcDbLinetypeTableRecord
  2
HIDDEN
 70
     0
  3
__ __ __ __ __ __ __ __ __ __ __ __ __ __ __ __
 72
    65
 73
     2
 40
0.375
 49
0.25
 74
     0
 49
-0.125
 74
     0
  0
ENDTAB
  0
TABLE
  2
LAYER
  5
6C4
102
{ACAD_XDICTIONARY
360
881
102
}
330
0
100
AcDbSymbolTable
 70
     2
  0
LAYER
  5
6D0
330
6C4
100
AcDbSymbolTableRecord
100
AcDbLayerTableRecord
  2
0
 70
     0
 62
     7
  6
CONTINUOUS
370
    -3
390
760
  0
LAYER
  5
714
330
6C4
100
AcDbSymbolTableRecord
100
AcDbLayerTableRecord
  2
DIM
 70
     0
 62
     5
  6
CONTINUOUS
370
    -3
390
760
  0
ENDTAB
  0
TABLE
  2
STYLE
  5
6C5
330
0
100
AcDbSymbolTable
 70
     1
  0
STYLE
  5
6D1
330
6C5
100
AcDbSymbolTableRecord
100
AcDbTextStyleTableRecord
  2
STANDARD
 70
     0
 40
0.0
 41
1.0
 50
0.0
 71
     0
 42
0.27
  3
TXT
  4

  0
ENDTAB
  0
TABLE
  2
VIEW
  5
6C8
330
0
100
AcDbSymbolTable
 70
     4
  0
VIEW
  5
708
330
6C8
100
AcDbSymbolTableRecord
100
AcDbViewTableRecord
  2
PLOTTER
 70
     0
 40
23.625
 10
17.01330184198921
 20
11.8125
 41
1.0
 11
0.0
 21
0.0
 31
1.0
 12
0.0
 22
0.0
 32
0.0
 42
50.0
 43
0.0
 44
0.0
 50
0.0
 71
     0
281
     0
 72
     0
  0
VIEW
  5
709
330
6C8
100
AcDbSymbolTableRecord
100
AcDbViewTableRecord
  2
UPPER
 70
     0
 40
10.92682926829268
 10
12.68329970046198
 20
16.68292682926829
 41
1.0
 11
0.0
 21
0.0
 31
1.0
 12
0.0
 22
0.0
 32
0.0
 42
50.0
 43
0.0
 44
0.0
 50
0.0
 71
     0
281
     0
 72
     0
  0
VIEW
  5
70A
330
6C8
100
AcDbSymbolTableRecord
100
AcDbViewTableRecord
  2
LEFT
 70
     0
 40
5.446009389671362
 10
10.90014360505218
 20
8.479102255811291
 41
1.0
 11
0.0
 21
0.0
 31
1.0
 12
0.0
 22
0.0
 32
0.0
 42
50.0
 43
0.0
 44
0.0
 50
0.0
 71
     0
281
     0
 72
     0
  0
VIEW
  5
70B
330
6C8
100
AcDbSymbolTableRecord
100
AcDbViewTableRecord
  2
RIGHT
 70
     0
 40
10.21596244131455
 10
22.88218731978697
 20
10.27871292797435
 41
1.0
 11
0.0
 21
0.0
 31
1.0
 12
0.0
 22
0.0
 32
0.0
 42
50.0
 43
0.0
 44
0.0
 50
0.0
 71
     0
281
     0
 72
     0
  0
ENDTAB
  0
TABLE
  2
UCS
  5
6C9
330
0
100
AcDbSymbolTable
 70
     0
  0
ENDTAB
  0
TABLE
  2
APPID
  5
6CB
330
0
100
AcDbSymbolTable
 70
     2
  0
APPID
  5
6D2
330
6CB
100
AcDbSymbolTableRecord
100
AcDbRegAppTableRecord
  2
ACAD
 70
     0
  0
APPID
  5
8D7
330
6CB
100
AcDbSymbolTableRecord
100
AcDbRegAppTableRecord
  2
ACAD_PSEXT
 70
     0
  0
ENDTAB
  0
TABLE
  2
DIMSTYLE
  5
6CC
330
0
100
AcDbSymbolTable
 70
     1
100
AcDbDimStyleTable
  0
DIMSTYLE
105
729
330
6CC
100
AcDbSymbolTableRecord
100
AcDbDimStyleTableRecord
  2
STANDARD
 70
     0
  3

  4

340
6D1
  0
ENDTAB
  0
TABLE
  2
BLOCK_RECORD
  5
6C3
330
0
100
AcDbSymbolTable
 70
     0
  0
BLOCK_RECORD
  5
6D9
102
{ACAD_XDICTIONARY
360
79A
102
}
330
6C3
100
AcDbSymbolTableRecord
100
AcDbBlockTableRecord
  2
*MODEL_SPACE
340
763
  0
BLOCK_RECORD
  5
6D6
102
{ACAD_XDICTIONARY
360
798
102
}
330
6C3
100
AcDbSymbolTableRecord
100
AcDbBlockTableRecord
  2
*PAPER_SPACE
340
764
  0
ENDTAB
  0
ENDSEC
  0
SECTION
  2
BLOCKS
  0
BLOCK
  5
721
330
6D9
100
AcDbEntity
  8
0
100
AcDbBlockBegin
  2
*MODEL_SPACE
 70
     0
 10
0.0
 20
0.0
 30
0.0
  3
*MODEL_SPACE
  1

  4

  0
ENDBLK
  5
722
330
6D9
100
AcDbEntity
  8
0
100
AcDbBlockEnd
  0
BLOCK
  5
71F
330
6D6
100
AcDbEntity
 67
     1
  8
0
100
AcDbBlockBegin
  2
*PAPER_SPACE
 70
     0
 10
0.0
 20
0.0
 30
0.0
  3
*PAPER_SPACE
  1

  4

  0
ENDBLK
  5
720
330
6D6
100
AcDbEntity
 67
     1
  8
0
100
AcDbBlockEnd
  0
ENDSEC
  0
SECTION
  2
ENTITIES
  0
LINE
  5
9
330
6D9
100
AcDbEntity
  8
0
100
AcDbLine
 10
-1.634927058605251
 20
10.95146709157578
 30
0.0
 11
-0.900064350246903
 21
10.95146709157578
 31
0.0
  0
LINE
  5
A
330
6D9
100
AcDbEntity
  8
0
100
AcDbLine
 10
1.647298358111445
 20
10.95146709157578
 30
0.0
 11
1.647298358111445
 21
13.45294995086691
 31
0.0
  0
LINE
  5
B
330
6D9
100
AcDbEntity
  8
0
100
AcDbLine
 10
1.561160822497379
 20
13.45146709157578
 30
0.0
 11
0.9124356497530952
 21
13.45146709157577
 31
0.0
  0
LINE
  5
C
330
6D9
100
AcDbEntity
  8
0
100
AcDbLine
 10
1.506790601955594
 20
13.48366979105647
 30
0.0
 11
0.4452099219631505
 21
13.48366979105647
 31
0.0
  0
LINE
  5
D
330
6D9
100
AcDbEntity
  8
0
100
AcDbLine
 10
0.4452099219631505
 20
13.48366979105647
 30
0.0
 11
0.4452099219631505
 21
13.56294995086691
 31
0.0
  0
LINE
  5
E
330
6D9
100
AcDbEntity
  8
0
100
AcDbLine
 10
0.4452099219631505
 20
13.56294995086691
 30
0.0
 11
1.537298358111445
 21
13.56294995086691
 31
0.0
  0
LINE
  5
F
330
6D9
100
AcDbEntity
  8
0
100
AcDbLine
 10
1.647298358111445
 20
13.45294995086691
 30
0.0
 11
1.647298358111445
 21
13.45146709157578
 31
0.0
  0
ARC
  5
10
330
6D9
100
AcDbEntity
  8
0
100
AcDbCircle
 10
1.537298358111445
 20
13.45294995086691
 30
0.0
 40
0.11
100
AcDbArc
 50
359.9999999999999
 51
89.99999999999994
  0
ARC
  5
11
330
6D9
100
AcDbEntity
  8
0
100
AcDbCircle
 10
1.506790601955594
 20
13.42166979105647
 30
0.0
 40
0.062
100
AcDbArc
 50
359.9999999999999
 51
89.99999999999994
  0
ARC
  5
12
330
6D9
100
AcDbEntity
  8
0
100
AcDbCircle
 10
-1.494452609260758
 20
13.41748020141923
 30
0.0
 40
0.062
100
AcDbArc
 50
89.99999999999982
 51
179.9999999999998
  0
ARC
  5
13
330
6D9
100
AcDbEntity
  8
0
100
AcDbCircle
 10
-1.5249603654166
 20
13.44876036122968
 30
0.0
 40
0.11
100
AcDbArc
 50
89.99999999999982
 51
178.5900010943916
  0
LINE
  5
14
330
6D9
100
AcDbEntity
  8
0
100
AcDbLine
 10
-0.3830400117875534
 20
13.55876036122967
 30
0.0
 11
-1.5249603654166
 21
13.55876036122968
 31
0.0
  0
LINE
  5
15
330
6D9
100
AcDbEntity
  8
0
100
AcDbLine
 10
-0.3830400117875534
 20
13.47948020141923
 30
0.0
 11
-0.3830400117875534
 21
13.55876036122967
 31
0.0
  0
LINE
  5
16
330
6D9
100
AcDbEntity
  8
0
100
AcDbLine
 10
-1.494452609260758
 20
13.47948020141923
 30
0.0
 11
-0.3830400117875534
 21
13.47948020141923
 31
0.0
  0
LINE
  5
17
330
6D9
100
AcDbEntity
  8
0
100
AcDbLine
 10
-1.634927058605244
 20
13.45146709157827
 30
0.0
 11
-1.634927058605251
 21
10.95146709157578
 31
0.0
  0
LINE
  5
21
330
6D9
100
AcDbEntity
  8
0
100
AcDbLine
 10
-1.55645260926076
 20
13.41748020141923
 30
0.0
 11
-1.55645260926076
 21
10.95146709157578
 31
0.0
  0
LINE
  5
22
330
6D9
100
AcDbEntity
  8
0
100
AcDbLine
 10
1.568790601955601
 20
13.42166979105647
 30
0.0
 11
1.568790601955601
 21
10.95146709157578
 31
0.0
  0
LINE
  5
33
330
6D9
100
AcDbEntity
  8
0
100
AcDbLine
 10
-1.54337122399324
 20
0.216810201936303
 30
0.0
 11
-0.4052707952640313
 21
1.694663729471865
 31
0.0
  0
LINE
  5
34
330
6D9
100
AcDbEntity
  8
0
100
AcDbLine
 10
-0.4052739370002572
 20
5.454628939012521
 30
0.0
 11
-0.4052707952640384
 21
1.694663729471863
 31
0.0
  0
CIRCLE
  5
35
330
6D9
100
AcDbEntity
  8
0
100
AcDbCircle
 10
-1.104531223993235
 20
2.970264669982445
 30
0.0
 40
0.109
  0
CIRCLE
  5
36
330
6D9
100
AcDbEntity
  8
0
100
AcDbCircle
 10
-1.167781223993237
 20
1.419756488330735
 30
0.0
 40
0.109
  0
CIRCLE
  5
37
330
6D9
100
AcDbEntity
  8
0
100
AcDbCircle
 10
-0.7257716830369398
 20
1.846395382306191
 30
0.0
 40
0.109
  0
CIRCLE
  5
38
330
6D9
100
AcDbEntity
  8
0
100
AcDbCircle
 10
-0.7257716830369398
 20
3.897267475329462
 30
0.0
 40
0.109
  0
CIRCLE
  5
39
330
6D9
100
AcDbEntity
  8
0
100
AcDbCircle
 10
0.7421613270536875
 20
3.897247029927538
 30
0.0
 40
0.109
  0
LINE
  5
3A
330
6D9
100
AcDbEntity
  8
0
100
AcDbLine
 10
1.559760868009989
 20
0.2167897565343786
 30
0.0
 11
0.421660439280779
 21
1.69464328406994
 31
0.0
  0
CIRCLE
  5
3B
330
6D9
100
AcDbEntity
  8
0
100
AcDbCircle
 10
0.7421613270536875
 20
1.846374936904267
 30
0.0
 40
0.109
  0
LINE
  5
3C
330
6D9
100
AcDbEntity
  8
0
100
AcDbLine
 10
-1.560080868009993
 20
1.139220000000002
 30
0.0
 11
-1.560080868009993
 21
0.201509999999999
 31
0.0
  0
LINE
  5
3D
330
6D9
100
AcDbEntity
  8
0
100
AcDbLine
 10
-1.638690868009991
 20
1.139220000000002
 30
0.0
 11
-1.638690868009991
 21
0.1971900000000026
 31
0.0
  0
LINE
  5
3E
330
6D9
100
AcDbEntity
  8
0
100
AcDbLine
 10
1.559760868009991
 20
5.264220000000002
 30
0.0
 11
1.559760868009991
 21
5.454053775014931
 31
0.0
  0
LINE
  5
3F
330
6D9
100
AcDbEntity
  8
0
100
AcDbLine
 10
1.638690868009991
 20
5.270110000000003
 30
0.0
 11
1.638690868009991
 21
0.2000000000000028
 31
0.0
  0
LINE
  5
40
330
6D9
100
AcDbEntity
  8
0
100
AcDbLine
 10
1.638690868009991
 20
5.45404353154931
 30
0.0
 11
1.638690868009991
 21
5.264220000000002
 31
0.0
  0
ARC
  5
46
330
6D9
100
AcDbEntity
  8
0
100
AcDbCircle
 10
-1.435080868009993
 20
0.2043700000000008
 30
0.0
 40
0.125
100
AcDbArc
 50
180.0
 51
269.9927
  0
ARC
  5
48
330
6D9
100
AcDbEntity
  8
0
100
AcDbCircle
 10
-1.438690868009995
 20
0.2000000000000028
 30
0.0
 40
0.2
100
AcDbArc
 50
180.0
 51
270.0
  0
LINE
  5
49
330
6D9
100
AcDbEntity
  8
0
100
AcDbLine
 10
-1.438690868009995
 20
0.0
 30
0.0
 11
1.438690868009995
 21
0.0
 31
0.0
  0
LINE
  5
4A
330
6D9
100
AcDbEntity
  8
0
100
AcDbLine
 10
-1.638690868009985
 20
5.454628939012521
 30
0.0
 11
-1.638690868009991
 21
1.1294
 31
0.0
  0
LINE
  5
4B
330
6D9
100
AcDbEntity
  8
0
100
AcDbLine
 10
-1.439352165784089
 20
0.0794429972530697
 30
0.0
 11
1.434740868009992
 21
0.0790700000000015
 31
0.0
  0
LINE
  5
4C
330
6D9
100
AcDbEntity
  8
0
100
AcDbLine
 10
-1.560080868009988
 20
5.45445866531732
 30
0.0
 11
-1.560080868009993
 21
1.1294
 31
0.0
  0
LINE
  5
4E
330
6D9
100
AcDbEntity
  8
0
100
AcDbLine
 10
1.559760868009991
 20
0.2040700000000015
 30
0.0
 11
1.559760868009989
 21
5.454053775014931
 31
0.0
  0
CIRCLE
  5
50
330
6D9
100
AcDbEntity
  8
0
100
AcDbCircle
 10
1.184170868009987
 20
1.419736042928811
 30
0.0
 40
0.109
  0
CIRCLE
  5
51
330
6D9
100
AcDbEntity
  8
0
100
AcDbCircle
 10
1.120920868009983
 20
2.970244224580521
 30
0.0
 40
0.109
  0
LINE
  5
52
330
6D9
100
AcDbEntity
  8
0
100
AcDbLine
 10
0.4216635803921927
 20
5.453885586823844
 30
0.0
 11
0.4216604392807861
 21
1.694643284069938
 31
0.0
  0
LINE
  5
53
330
6D9
100
AcDbEntity
  8
0
100
AcDbLine
 10
5.396604337016224
 20
0.0205100000000016
 30
0.0
 11
7.888298337016233
 21
0.0205100000000016
 31
0.0
  0
LINE
  5
54
330
6D9
100
AcDbEntity
  8
0
100
AcDbLine
 10
7.888298337016233
 20
0.0205100000000016
 30
0.0
 11
7.888298337016233
 21
0.2167999999999992
 31
0.0
  0
LINE
  5
55
330
6D9
100
AcDbEntity
  8
0
100
AcDbLine
 10
5.396604337016224
 20
0.0205100000000016
 30
0.0
 11
5.396604337016224
 21
0.2167999999999992
 31
0.0
  0
LINE
  5
56
330
6D9
100
AcDbEntity
  8
0
100
AcDbLine
 10
7.994254337016225
 20
0.2167999999999992
 30
0.0
 11
7.994254337016232
 21
5.451672841090156
 31
0.0
  0
LINE
  5
59
330
6D9
100
AcDbEntity
  8
0
  6
HIDDEN
100
AcDbLine
 10
5.396604337016224
 20
0.0830100000000016
 30
0.0
 11
7.888298337016233
 21
0.0830100000000016
 31
0.0
  0
LINE
  5
67
330
6D9
100
AcDbEntity
  8
0
100
AcDbLine
 10
-0.4052739370002572
 20
5.454628939012521
 30
0.0
 11
-1.638690868009985
 21
5.454468867253624
 31
0.0
  0
LINE
  5
68
330
6D9
100
AcDbEntity
  8
0
100
AcDbLine
 10
6.534704765745434
 20
5.451831579229369
 30
0.0
 11
7.994254337016232
 21
5.451672841090156
 31
0.0
  0
LINE
  5
69
330
6D9
100
AcDbEntity
  8
0
100
AcDbLine
 10
1.638690868009991
 20
5.45404353154931
 30
0.0
 11
0.4216635803921927
 21
5.453885586823844
 31
0.0
  0
CIRCLE
  5
94
330
6D9
100
AcDbEntity
  8
0
100
AcDbCircle
 10
6.909704765745434
 20
1.028562641119505
 30
0.0
 40
0.078
  0
LINE
  5
99
330
6D9
100
AcDbEntity
  8
0
100
AcDbLine
 10
5.396604337016224
 20
0.2167999999999992
 30
0.0
 11
6.534704765745434
 21
1.694653527535561
 31
0.0
  0
LINE
  5
9A
330
6D9
100
AcDbEntity
  8
0
100
AcDbLine
 10
6.534704765745437
 20
5.451831579229371
 30
0.0
 11
6.534704765745434
 21
1.694653527535561
 31
0.0
  0
LINE
  5
9B
330
6D9
100
AcDbEntity
  8
0
100
AcDbLine
 10
7.888298337016237
 20
0.2167999999999992
 30
0.0
 11
7.994254337016225
 21
0.2167999999999992
 31
0.0
  0
CIRCLE
  5
B0
330
6D9
100
AcDbEntity
  8
0
100
AcDbCircle
 10
6.90970476574543
 20
5.076831579229369
 30
0.0
 40
0.078
  0
TEXT
  5
C0
330
6D9
100
AcDbEntity
  8
DIM
100
AcDbText
 10
9.860040913637929
 20
20.93053558724526
 30
0.0
 40
0.27
  1
   
 11
9.860040913637929
 21
21.06553558724526
 31
0.0
100
AcDbText
 73
     2
  0
TEXT
  5
CB
330
6D9
100
AcDbEntity
  8
DIM
100
AcDbText
 10
27.65664361048207
 20
10.23427123281628
 30
0.0
 40
0.27
  1
   
 11
27.65664361048207
 21
10.36927123281628
 31
0.0
100
AcDbText
 73
     2
  0
LINE
  5
DB
330
6D9
100
AcDbEntity
  8
0
  6
HIDDEN
100
AcDbLine
 10
7.888298337016233
 20
0.2167999999999992
 30
0.0
 11
7.888298337016223
 21
5.451684364685251
 31
0.0
  0
ARC
  5
667
330
6D9
100
AcDbEntity
  8
0
100
AcDbCircle
 10
-1.560080868009991
 20
2.798158688212327
 30
0.0
 40
0.156
100
AcDbArc
 50
270.0
 51
90.0
  0
ARC
  5
668
330
6D9
100
AcDbEntity
  8
0
100
AcDbCircle
 10
1.559760868009991
 20
2.797753797909941
 30
0.0
 40
0.156
100
AcDbArc
 50
90.0
 51
270.0
  0
LINE
  5
670
330
6D9
100
AcDbEntity
  8
0
100
AcDbLine
 10
-0.900064350246903
 20
10.95146709157578
 30
0.0
 11
-0.9000643502469039
 21
10.98271709157578
 31
0.0
  0
LINE
  5
671
330
6D9
100
AcDbEntity
  8
0
100
AcDbLine
 10
-0.650064350246903
 20
10.95146709157578
 30
0.0
 11
-0.6500643502469039
 21
10.98271709157578
 31
0.0
  0
LINE
  5
672
330
6D9
100
AcDbEntity
  8
0
100
AcDbLine
 10
0.662435649753097
 20
10.95146709157578
 30
0.0
 11
0.6624356497530961
 21
10.98271709157578
 31
0.0
  0
LINE
  5
673
330
6D9
100
AcDbEntity
  8
0
100
AcDbLine
 10
0.912435649753097
 20
10.95146709157578
 30
0.0
 11
0.912435649753097
 21
10.98271709157578
 31
0.0
  0
LINE
  5
674
330
6D9
100
AcDbEntity
  8
0
100
AcDbLine
 10
0.849935649753097
 20
13.35771709157577
 30
0.0
 11
0.7249356497530979
 21
13.35771709157578
 31
0.0
  0
LINE
  5
675
330
6D9
100
AcDbEntity
  8
0
100
AcDbLine
 10
-0.8375643502469039
 20
11.04521709157578
 30
0.0
 11
-0.7125643502469039
 21
11.04521709157578
 31
0.0
  0
LINE
  5
676
330
6D9
100
AcDbEntity
  8
0
100
AcDbLine
 10
0.7249356497530961
 20
11.04521709157578
 30
0.0
 11
0.849935649753097
 21
11.04521709157578
 31
0.0
  0
LINE
  5
677
330
6D9
100
AcDbEntity
  8
0
100
AcDbLine
 10
-0.9000643502469039
 20
13.42021709157578
 30
0.0
 11
-0.900064350246903
 21
13.45146709157578
 31
0.0
  0
LINE
  5
678
330
6D9
100
AcDbEntity
  8
0
100
AcDbLine
 10
-0.6500643502469039
 20
13.42021709157577
 30
0.0
 11
-0.650064350246903
 21
13.45146709157578
 31
0.0
  0
LINE
  5
679
330
6D9
100
AcDbEntity
  8
0
100
AcDbLine
 10
0.6624356497530979
 20
13.42021709157578
 30
0.0
 11
0.6624356497530979
 21
13.45146709157578
 31
0.0
  0
LINE
  5
67A
330
6D9
100
AcDbEntity
  8
0
100
AcDbLine
 10
0.912435649753097
 20
13.42021709157577
 30
0.0
 11
0.912435649753097
 21
13.45146709157578
 31
0.0
  0
LINE
  5
67B
330
6D9
100
AcDbEntity
  8
0
100
AcDbLine
 10
-0.7125643502469039
 20
13.35771709157577
 30
0.0
 11
-0.8375643502469039
 21
13.35771709157578
 31
0.0
  0
ARC
  5
67C
330
6D9
100
AcDbEntity
  8
0
100
AcDbCircle
 10
-0.8375643502469039
 20
13.42021709157578
 30
0.0
 40
0.0625
100
AcDbArc
 50
180.0
 51
270.0
  0
ARC
  5
67D
330
6D9
100
AcDbEntity
  8
0
100
AcDbCircle
 10
-0.7125643502469039
 20
13.42021709157577
 30
0.0
 40
0.0625
100
AcDbArc
 50
270.0
 51
0.0
  0
ARC
  5
67E
330
6D9
100
AcDbEntity
  8
0
100
AcDbCircle
 10
0.7249356497530979
 20
13.42021709157578
 30
0.0
 40
0.0625
100
AcDbArc
 50
179.9999999999994
 51
270.0
  0
ARC
  5
67F
330
6D9
100
AcDbEntity
  8
0
100
AcDbCircle
 10
0.849935649753097
 20
13.42021709157577
 30
0.0
 40
0.0625
100
AcDbArc
 50
270.0
 51
0.0
  0
ARC
  5
680
330
6D9
100
AcDbEntity
  8
0
100
AcDbCircle
 10
0.849935649753097
 20
10.98271709157578
 30
0.0
 40
0.0625
100
AcDbArc
 50
359.9999999999989
 51
90.0
  0
ARC
  5
681
330
6D9
100
AcDbEntity
  8
0
100
AcDbCircle
 10
0.7249356497530961
 20
10.98271709157578
 30
0.0
 40
0.0625
100
AcDbArc
 50
90.0
 51
180.0
  0
ARC
  5
682
330
6D9
100
AcDbEntity
  8
0
100
AcDbCircle
 10
-0.7125643502469039
 20
10.98271709157578
 30
0.0
 40
0.0625
100
AcDbArc
 50
0.0
 51
90.0
  0
ARC
  5
683
330
6D9
100
AcDbEntity
  8
0
100
AcDbCircle
 10
-0.8375643502469039
 20
10.98271709157578
 30
0.0
 40
0.0625
100
AcDbArc
 50
90.0
 51
180.0
  0
LINE
  5
684
330
6D9
100
AcDbEntity
  8
0
100
AcDbLine
 10
0.6624356497530979
 20
13.45146709157578
 30
0.0
 11
-0.6500643502469021
 21
13.45146709157578
 31
0.0
  0
LINE
  5
685
330
6D9
100
AcDbEntity
  8
0
100
AcDbLine
 10
-0.900064350246903
 20
13.45146709157578
 30
0.0
 11
-1.546307129772348
 21
13.45146709157578
 31
0.0
  0
LINE
  5
686
330
6D9
100
AcDbEntity
  8
0
100
AcDbLine
 10
-0.650064350246903
 20
10.95146709157578
 30
0.0
 11
0.662435649753097
 21
10.95146709157578
 31
0.0
  0
LINE
  5
687
330
6D9
100
AcDbEntity
  8
0
100
AcDbLine
 10
0.912435649753097
 20
10.95146709157578
 30
0.0
 11
1.647298358111445
 21
10.95146709157578
 31
0.0
  0
ARC
  5
68C
330
6D9
100
AcDbEntity
  8
0
100
AcDbCircle
 10
7.88829833701623
 20
2.795711253807044
 30
0.0
 40
0.156
100
AcDbArc
 50
47.21843985917762
 51
312.7815601408224
  0
LINE
  5
6BF
330
6D9
100
AcDbEntity
  8
0
100
AcDbLine
 10
-0.900064350246903
 20
0.0793730089571305
 30
0.0
 11
-0.900064350246903
 21
0.0
 31
0.0
  0
LINE
  5
6C0
330
6D9
100
AcDbEntity
  8
0
100
AcDbLine
 10
-0.6500643502469039
 20
0.0793405641781444
 30
0.0
 11
-0.6500643502469039
 21
0.0
 31
0.0
  0
LINE
  5
6C1
330
6D9
100
AcDbEntity
  8
0
100
AcDbLine
 10
0.6624356497530979
 20
0.0791702290884668
 30
0.0
 11
0.662435649753097
 21
0.0
 31
0.0
  0
LINE
  5
6C2
330
6D9
100
AcDbEntity
  8
0
100
AcDbLine
 10
0.912435649753097
 20
0.0791377843094807
 30
0.0
 11
0.912435649753097
 21
0.0
 31
0.0
  0
LINE
  5
733
330
6D9
100
AcDbEntity
  8
0
100
AcDbLine
 10
-1.634927058605248
 20
12.07646709157577
 30
0.0
 11
-1.55645260926076
 21
12.07646709157578
 31
0.0
  0
LINE
  5
734
330
6D9
100
AcDbEntity
  8
0
100
AcDbLine
 10
1.568790601955601
 20
12.07646709157577
 30
0.0
 11
1.647298358111445
 21
12.07646709157578
 31
0.0
  0
ARC
  5
86C
330
6D9
100
AcDbEntity
  8
0
100
AcDbCircle
 10
1.434079570235897
 20
0.2000000000000028
 30
0.0
 40
0.2
100
AcDbArc
 50
270.0
 51
0.000000000000007
  0
ARC
  5
86D
330
6D9
100
AcDbEntity
  8
0
100
AcDbCircle
 10
1.430469570235895
 20
0.2043700000000008
 30
0.0
 40
0.125
100
AcDbArc
 50
270.0073
 51
0.000000000000007
  0
LINE
  5
91D
330
6D9
100
AcDbEntity
  8
0
100
AcDbLine
 10
-5.38423303751003
 20
0.0205100000000016
 30
0.0
 11
-7.875927037510039
 21
0.0205100000000016
 31
0.0
  0
LINE
  5
91E
330
6D9
100
AcDbEntity
  8
0
100
AcDbLine
 10
-7.875927037510039
 20
0.0205100000000016
 30
0.0
 11
-7.875927037510039
 21
0.2167999999999992
 31
0.0
  0
LINE
  5
91F
330
6D9
100
AcDbEntity
  8
0
100
AcDbLine
 10
-5.38423303751003
 20
0.0205100000000016
 30
0.0
 11
-5.38423303751003
 21
0.2167999999999992
 31
0.0
  0
LINE
  5
920
330
6D9
100
AcDbEntity
  8
0
100
AcDbLine
 10
-7.981883037510031
 20
0.2167999999999992
 30
0.0
 11
-7.981883037510039
 21
5.451672841090156
 31
0.0
  0
LINE
  5
921
330
6D9
100
AcDbEntity
  8
0
  6
HIDDEN
100
AcDbLine
 10
-5.38423303751003
 20
0.0830100000000016
 30
0.0
 11
-7.875927037510039
 21
0.0830100000000016
 31
0.0
  0
LINE
  5
922
330
6D9
100
AcDbEntity
  8
0
100
AcDbLine
 10
-6.52233346623924
 20
5.451831579229369
 30
0.0
 11
-7.981883037510039
 21
5.451672841090156
 31
0.0
  0
CIRCLE
  5
928
330
6D9
100
AcDbEntity
  8
0
100
AcDbCircle
 10
-6.89733346623924
 20
1.540980238629116
 30
0.0
 40
0.078
  0
LINE
  5
929
330
6D9
100
AcDbEntity
  8
0
100
AcDbLine
 10
-5.38423303751003
 20
0.2167999999999992
 30
0.0
 11
-6.52233346623924
 21
1.694653527535561
 31
0.0
  0
LINE
  5
92A
330
6D9
100
AcDbEntity
  8
0
100
AcDbLine
 10
-6.522333466239243
 20
5.451831579229371
 30
0.0
 11
-6.52233346623924
 21
1.694653527535561
 31
0.0
  0
LINE
  5
92B
330
6D9
100
AcDbEntity
  8
0
100
AcDbLine
 10
-7.875927037510043
 20
0.2167999999999992
 30
0.0
 11
-7.981883037510031
 21
0.2167999999999992
 31
0.0
  0
CIRCLE
  5
92C
330
6D9
100
AcDbEntity
  8
0
100
AcDbCircle
 10
-6.897333466239236
 20
4.424203855369258
 30
0.0
 40
0.078
  0
LINE
  5
92F
330
6D9
100
AcDbEntity
  8
0
  6
HIDDEN
100
AcDbLine
 10
-7.875927037510039
 20
0.2167999999999992
 30
0.0
 11
-7.875927037510029
 21
5.451684364685251
 31
0.0
  0
ARC
  5
930
330
6D9
100
AcDbEntity
  8
0
100
AcDbCircle
 10
-7.875927037510036
 20
2.795711253807044
 30
0.0
 40
0.156
100
AcDbArc
 50
227.2184398591776
 51
132.7815601408224
  0
LINE
  5
94F
330
6D9
100
AcDbEntity
  8
0
100
AcDbLine
 10
-6.966585174926311
 20
2.411371158791026
 30
0.0
 11
-6.783597233700106
 21
2.362339687373854
 31
0.0
  0
ARC
  5
950
330
6D9
100
AcDbEntity
  8
0
100
AcDbCircle
 10
-6.791685328912038
 20
2.332154505316384
 30
0.0
 40
0.0312499999999991
100
AcDbArc
 50
314.9999999999992
 51
74.99999990038717
  0
LINE
  5
951
330
6D9
100
AcDbEntity
  8
0
100
AcDbLine
 10
-6.769588241999959
 20
2.310057418404304
 30
0.0
 11
-6.903544712308414
 21
2.176100948095849
 31
0.0
  0
ARC
  5
952
330
6D9
100
AcDbEntity
  8
0
100
AcDbCircle
 10
-6.925641799220493
 20
2.198198035007929
 30
0.0
 40
0.0312499999999999
100
AcDbArc
 50
194.9999999003889
 51
314.9999999999993
  0
LINE
  5
953
330
6D9
100
AcDbEntity
  8
0
100
AcDbLine
 10
-6.955826981306088
 20
2.190109939900953
 30
0.0
 11
-7.004858452157298
 21
2.373097881560039
 31
0.0
  0
ARC
  5
954
330
6D9
100
AcDbEntity
  8
0
100
AcDbCircle
 10
-6.974673270085765
 20
2.381185976719491
 30
0.0
 40
0.0312499999999994
100
AcDbArc
 50
75.00000000000048
 51
194.9999999999981
  0
LINE
  5
955
330
6D9
100
AcDbEntity
  8
0
100
AcDbLine
 10
-1.10874870352904
 20
2.433270376538014
 30
0.0
 11
-1.291736644755244
 21
2.384238905120842
 31
0.0
  0
ARC
  5
956
330
6D9
100
AcDbEntity
  8
0
100
AcDbCircle
 10
-1.283648549543312
 20
2.354053723063371
 30
0.0
 40
0.031249999999999
100
AcDbArc
 50
105.0000000996125
 51
225.0000000000012
  0
LINE
  5
957
330
6D9
100
AcDbEntity
  8
0
100
AcDbLine
 10
-1.305745636455391
 20
2.331956636151292
 30
0.0
 11
-1.171789166146936
 21
2.198000165842837
 31
0.0
  0
ARC
  5
958
330
6D9
100
AcDbEntity
  8
0
100
AcDbCircle
 10
-1.149692079234856
 20
2.220097252754917
 30
0.0
 40
0.0312500000000003
100
AcDbArc
 50
225.0
 51
345.0000000996113
  0
LINE
  5
959
330
6D9
100
AcDbEntity
  8
0
100
AcDbLine
 10
-1.119506897149261
 20
2.212009157647941
 30
0.0
 11
-1.070475426298052
 21
2.394997099307027
 31
0.0
  0
ARC
  5
95A
330
6D9
100
AcDbEntity
  8
0
100
AcDbCircle
 10
-1.100660608369586
 20
2.403085194466479
 30
0.0
 40
0.0312500000000005
100
AcDbArc
 50
345.0000000000024
 51
104.9999999999992
  0
LINE
  5
95B
330
6D9
100
AcDbEntity
  8
0
100
AcDbLine
 10
-1.10874870352904
 20
3.561268911604872
 30
0.0
 11
-1.291736644755244
 21
3.512237440187699
 31
0.0
  0
ARC
  5
95C
330
6D9
100
AcDbEntity
  8
0
100
AcDbCircle
 10
-1.283648549543312
 20
3.482052258130228
 30
0.0
 40
0.031249999999999
100
AcDbArc
 50
105.0000000996125
 51
225.0000000000012
  0
LINE
  5
95D
330
6D9
100
AcDbEntity
  8
0
100
AcDbLine
 10
-1.305745636455391
 20
3.459955171218148
 30
0.0
 11
-1.171789166146936
 21
3.325998700909693
 31
0.0
  0
ARC
  5
95E
330
6D9
100
AcDbEntity
  8
0
100
AcDbCircle
 10
-1.149692079234856
 20
3.348095787821773
 30
0.0
 40
0.0312500000000003
100
AcDbArc
 50
225.0
 51
345.0000000996113
  0
LINE
  5
95F
330
6D9
100
AcDbEntity
  8
0
100
AcDbLine
 10
-1.119506897149261
 20
3.340007692714798
 30
0.0
 11
-1.070475426298052
 21
3.522995634373883
 31
0.0
  0
ARC
  5
960
330
6D9
100
AcDbEntity
  8
0
100
AcDbCircle
 10
-1.100660608369586
 20
3.531083729533338
 30
0.0
 40
0.031250000000001
100
AcDbArc
 50
344.9999999999993
 51
104.9999999999992
  0
LINE
  5
961
330
6D9
100
AcDbEntity
  8
0
100
AcDbLine
 10
1.125138347545787
 20
2.433249931136091
 30
0.0
 11
1.308126288771992
 21
2.384218459718918
 31
0.0
  0
ARC
  5
962
330
6D9
100
AcDbEntity
  8
0
100
AcDbCircle
 10
1.30003819356006
 20
2.354033277661447
 30
0.0
 40
0.0312499999999988
100
AcDbArc
 50
314.9999999999977
 51
74.99999990038913
  0
LINE
  5
963
330
6D9
100
AcDbEntity
  8
0
100
AcDbLine
 10
1.322135280472138
 20
2.331936190749367
 30
0.0
 11
1.188178810163683
 21
2.197979720440912
 31
0.0
  0
ARC
  5
964
330
6D9
100
AcDbEntity
  8
0
100
AcDbCircle
 10
1.166081723251605
 20
2.22007680735299
 30
0.0
 40
0.0312499999999977
100
AcDbArc
 50
194.9999999003852
 51
315.0
  0
LINE
  5
965
330
6D9
100
AcDbEntity
  8
0
100
AcDbLine
 10
1.13589654116601
 20
2.211988712246017
 30
0.0
 11
1.0868650703148
 21
2.394976653905102
 31
0.0
  0
ARC
  5
966
330
6D9
100
AcDbEntity
  8
0
100
AcDbCircle
 10
1.117050252386332
 20
2.403064749064557
 30
0.0
 40
0.0312499999999992
100
AcDbArc
 50
74.99999999999926
 51
195.0000000000016
  0
LINE
  5
967
330
6D9
100
AcDbEntity
  8
0
100
AcDbLine
 10
1.125138347545787
 20
3.561248466202947
 30
0.0
 11
1.308126288771992
 21
3.512216994785774
 31
0.0
  0
ARC
  5
968
330
6D9
100
AcDbEntity
  8
0
100
AcDbCircle
 10
1.30003819356006
 20
3.482031812728303
 30
0.0
 40
0.0312499999999988
100
AcDbArc
 50
314.9999999999977
 51
74.99999990038913
  0
LINE
  5
969
330
6D9
100
AcDbEntity
  8
0
100
AcDbLine
 10
1.322135280472138
 20
3.459934725816224
 30
0.0
 11
1.188178810163683
 21
3.325978255507769
 31
0.0
  0
ARC
  5
96A
330
6D9
100
AcDbEntity
  8
0
100
AcDbCircle
 10
1.166081723251605
 20
3.348075342419849
 30
0.0
 40
0.031249999999999
100
AcDbArc
 50
194.9999999003883
 51
314.9999999999977
  0
LINE
  5
96B
330
6D9
100
AcDbEntity
  8
0
100
AcDbLine
 10
1.13589654116601
 20
3.339987247312873
 30
0.0
 11
1.0868650703148
 21
3.522975188971959
 31
0.0
  0
ARC
  5
96C
330
6D9
100
AcDbEntity
  8
0
100
AcDbCircle
 10
1.117050252386332
 20
3.531063284131413
 30
0.0
 40
0.0312499999999992
100
AcDbArc
 50
74.99999999999926
 51
195.0000000000016
  0
LINE
  5
96D
330
6D9
100
AcDbEntity
  8
0
100
AcDbLine
 10
6.978956474432505
 20
3.059235860653464
 30
0.0
 11
6.7959685332063
 21
3.010204389236293
 31
0.0
  0
ARC
  5
96E
330
6D9
100
AcDbEntity
  8
0
100
AcDbCircle
 10
6.804056628418231
 20
2.980019207178822
 30
0.0
 40
0.0312499999999988
100
AcDbArc
 50
105.0000000996109
 51
225.0000000000023
  0
LINE
  5
96F
330
6D9
100
AcDbEntity
  8
0
100
AcDbLine
 10
6.781959541506153
 20
2.957922120266742
 30
0.0
 11
6.915916011814608
 21
2.823965649958288
 31
0.0
  0
ARC
  5
970
330
6D9
100
AcDbEntity
  8
0
100
AcDbCircle
 10
6.938013098726686
 20
2.846062736870367
 30
0.0
 40
0.031249999999999
100
AcDbArc
 50
225.0000000000023
 51
345.0000000996117
  0
LINE
  5
971
330
6D9
100
AcDbEntity
  8
0
100
AcDbLine
 10
6.968198280812282
 20
2.837974641763392
 30
0.0
 11
7.017229751663492
 21
3.020962583422477
 31
0.0
  0
ARC
  5
972
330
6D9
100
AcDbEntity
  8
0
100
AcDbCircle
 10
6.987044569591959
 20
3.02905067858193
 30
0.0
 40
0.0312499999999988
100
AcDbArc
 50
345.0000000000015
 51
105.0000000000007
  0
LINE
  5
973
330
6D9
100
AcDbEntity
  8
0
100
AcDbLine
 10
7.888298337016226
 20
2.951711253807044
 30
0.0
 11
7.888298337016228
 21
2.639711253807043
 31
0.0
  0
LINE
  5
974
330
6D9
100
AcDbEntity
  8
0
100
AcDbLine
 10
-7.875927037510034
 20
2.951711253807044
 30
0.0
 11
-7.875927037510035
 21
2.639711253807043
 31
0.0
  0
ENDSEC
  0
SECTION
  2
OBJECTS
  0
DICTIONARY
  5
6CE
330
0
100
AcDbDictionary
281
     1
  3
ACAD_COLOR
350
872
  3
ACAD_GROUP
350
6CF
  3
ACAD_LAYOUT
350
761
  3
ACAD_MATERIAL
350
871
  3
ACAD_MLINESTYLE
350
6DC
  3
ACAD_PLOTSETTINGS
350
762
  3
ACAD_PLOTSTYLENAME
350
75F
  3
ACAD_TABLESTYLE
350
873
  3
ACDBHEADERROUNDTRIPXREC
350
986
  3
ACDBVARIABLEDICTIONARY
350
723
  0
DICTIONARY
  5
881
330
6C4
100
AcDbDictionary
280
     1
281
     1
  3
ACAD_LAYERFILTERS
360
94E
  3
ACAD_LAYERSTATES
360
882
  3
ACLYDICTIONARY
360
94D
  0
DICTIONARY
  5
79A
330
6D9
100
AcDbDictionary
280
     1
281
     1
  3
ACAD_LAYOUTSELFREF
360
79B
  3
ACAD_SORTENTS
360
91C
  0
DICTIONARY
  5
798
330
6D6
100
AcDbDictionary
280
     1
281
     1
  3
ACAD_LAYOUTSELFREF
360
799
  0
DICTIONARY
  5
872
102
{ACAD_REACTORS
330
6CE
102
}
330
6CE
100
AcDbDictionary
281
     1
  0
DICTIONARY
  5
6CF
102
{ACAD_REACTORS
330
6CE
102
}
330
6CE
100
AcDbDictionary
281
     1
  0
DICTIONARY
  5
761
102
{ACAD_REACTORS
330
6CE
102
}
330
6CE
100
AcDbDictionary
281
     1
  3
Layout1
350
764
  3
Model
350
763
  0
DICTIONARY
  5
871
102
{ACAD_REACTORS
330
6CE
102
}
330
6CE
100
AcDbDictionary
281
     1
  0
DICTIONARY
  5
6DC
102
{ACAD_REACTORS
330
6CE
102
}
330
6CE
100
AcDbDictionary
281
     1
  3
STANDARD
350
6DD
  0
DICTIONARY
  5
762
102
{ACAD_REACTORS
330
6CE
102
}
330
6CE
100
AcDbDictionary
281
     1
  0
ACDBDICTIONARYWDFLT
  5
75F
102
{ACAD_REACTORS
330
6CE
102
}
330
6CE
100
AcDbDictionary
281
     1
  3
Normal
350
760
100
AcDbDictionaryWithDefault
340
760
  0
DICTIONARY
  5
873
102
{ACAD_REACTORS
330
6CE
102
}
330
6CE
100
AcDbDictionary
281
     1
  3
Standard
350
874
  0
DICTIONARY
  5
986
102
{ACAD_REACTORS
330
6CE
102
}
330
6CE
100
AcDbDictionary
281
     1
  3
COLORDICT
350
987
  3
MATERIALDICT
350
988
  0
DICTIONARY
  5
723
102
{ACAD_REACTORS
330
6CE
102
}
330
6CE
100
AcDbDictionary
281
     1
  3
CTABLESTYLE
350
8C4
  3
DIMADEC
350
724
  3
HIDETEXT
350
985
  3
PROJECTNAME
350
984
  0
DICTIONARY
  5
94E
102
{ACAD_REACTORS
330
881
102
}
330
881
100
AcDbDictionary
281
     1
  0
DICTIONARY
  5
882
102
{ACAD_REACTORS
330
881
102
}
330
881
100
AcDbDictionary
281
     1
  0
DICTIONARY
  5
94D
102
{ACAD_REACTORS
330
881
102
}
330
881
100
AcDbDictionary
281
     1
1001
ACAD
1000
<All
  0
XRECORD
  5
79B
102
{ACAD_REACTORS
330
79A
102
}
330
79A
100
AcDbXrecord
280
     1
340
6D9
  0
SORTENTSTABLE
  5
91C
102
{ACAD_REACTORS
330
79A
102
}
330
79A
100
AcDbSortentsTable
330
6D9
331
734
  5
95D
331
678
  5
944
331
16
  5
16
331
17
  5
17
331
972
  5
6A4
331
674
  5
940
331
670
  5
93C
331
667
  5
93A
331
CB
  5
938
331
B0
  5
936
331
9A
  5
934
331
99
  5
933
331
94
  5
6A8
331
69
  5
69
331
51
  5
51
331
50
  5
50
331
15
  5
15
331
6C1
  5
95A
331
6C2
  5
95B
331
67E
  5
94B
331
91D
  5
960
331
91E
  5
961
331
961
  5
91A
331
962
  5
91B
331
963
  5
91D
331
964
  5
91E
331
965
  5
91F
331
966
  5
920
331
967
  5
86D
331
968
  5
915
331
91F
  5
962
331
920
  5
963
331
921
  5
964
331
922
  5
965
331
928
  5
96C
331
929
  5
96D
331
92A
  5
96E
331
92B
  5
96F
331
68C
  5
957
331
685
  5
954
331
6C0
  5
959
331
683
  5
952
331
4E
  5
4E
331
4C
  5
4C
331
4B
  5
4B
331
4A
  5
4A
331
49
  5
49
331
48
  5
48
331
3D
  5
3D
331
38
  5
38
331
37
  5
37
331
36
  5
36
331
35
  5
35
331
34
  5
34
331
D
  5
D
331
C
  5
C
331
9
  5
9
331
86C
  5
95E
331
86D
  5
95F
331
668
  5
93B
331
680
  5
94F
331
C0
  5
937
331
9B
  5
935
331
92C
  5
970
331
92F
  5
971
331
930
  5
972
331
52
  5
52
331
677
  5
943
331
53
  5
53
331
687
  5
956
331
33
  5
33
331
67D
  5
94A
331
67C
  5
949
331
12
  5
12
331
21
  5
21
331
22
  5
22
331
686
  5
955
331
A
  5
A
331
94F
  5
966
331
950
  5
967
331
951
  5
968
331
952
  5
969
331
953
  5
96A
331
54
  5
54
331
59
  5
59
331
67
  5
67
331
68
  5
68
331
39
  5
39
331
40
  5
40
331
3A
  5
3A
331
671
  5
93D
331
676
  5
942
331
969
  5
916
331
96A
  5
917
331
96B
  5
918
331
96C
  5
919
331
96D
  5
9B
331
96E
  5
68A
331
96F
  5
68C
331
970
  5
69E
331
971
  5
6A3
331
13
  5
13
331
DB
  5
939
331
46
  5
46
331
67B
  5
948
331
684
  5
953
331
733
  5
95C
331
3B
  5
3B
331
681
  5
950
331
682
  5
951
331
56
  5
56
331
95A
  5
932
331
95B
  5
921
331
95C
  5
922
331
95D
  5
927
331
95E
  5
928
331
95F
  5
929
331
960
  5
92A
331
B
  5
B
331
55
  5
55
331
954
  5
96B
331
955
  5
92B
331
956
  5
92C
331
957
  5
92F
331
958
  5
930
331
959
  5
931
331
675
  5
941
331
11
  5
11
331
10
  5
10
331
F
  5
F
331
E
  5
E
331
3F
  5
3F
331
67A
  5
947
331
3C
  5
3C
331
3E
  5
3E
331
673
  5
93F
331
14
  5
14
331
672
  5
93E
331
67F
  5
94C
331
679
  5
946
331
6BF
  5
958
  0
XRECORD
  5
799
102
{ACAD_REACTORS
330
798
102
}
330
798
100
AcDbXrecord
280
     1
340
6D6
  0
LAYOUT
  5
764
102
{ACAD_REACTORS
330
761
102
}
102
{ACAD_XDICTIONARY
360
989
102
}
330
761
100
AcDbPlotSettings
  1

  2
C:\ACAD2000\plotters\HP LaserJet 2100 Series PS.pc3
  4

  6

 40
0.0
 41
0.0
 42
0.0
 43
0.0
 44
0.0
 45
0.0
 46
0.0
 47
0.0
 48
0.0
 49
0.0
140
0.0
141
0.0
142
1.0
143
1.0
 70
   688
 72
     0
 73
     0
 74
     5
  7
monochrome.ctb
 75
    16
147
1.0
148
0.0
149
0.0
100
AcDbLayout
  1
Layout1
 70
     0
 71
     1
 10
0.0
 20
0.0
 11
12.0
 21
9.0
 12
0.0
 22
0.0
 32
0.0
 14
1.000000000000000E+20
 24
1.000000000000000E+20
 34
1.000000000000000E+20
 15
-1.000000000000000E+20
 25
-1.000000000000000E+20
 35
-1.000000000000000E+20
146
0.0
 13
0.0
 23
0.0
 33
0.0
 16
1.0
 26
0.0
 36
0.0
 17
0.0
 27
1.0
 37
0.0
 76
     0
330
6D6
  0
LAYOUT
  5
763
102
{ACAD_REACTORS
330
761
102
}
102
{ACAD_XDICTIONARY
360
98B
102
}
330
761
100
AcDbPlotSettings
  1

  2
HP LaserJet 2100 Series PS
  4
Letter
  6
LEFT
 40
5.365749835968018
 41
5.408073902130127
 42
5.132904052734375
 43
5.090576171875
 44
215.8999938964844
 45
279.3999938964844
 46
0.0
 47
0.0
 48
0.0
 49
0.0
140
0.0
141
0.0
142
1.0
143
2.975440689981091
 70
 28336
 72
     0
 73
     1
 74
     2
  7
monochrome.ctb
 75
     0
147
0.3360846691944497
148
0.0
149
0.0
100
AcDbLayout
  1
Model
 70
     1
 71
     0
 10
0.0
 20
0.0
 11
12.0
 21
9.0
 12
0.0
 22
0.0
 32
0.0
 14
0.0
 24
0.0
 34
0.0
 15
0.0
 25
0.0
 35
0.0
146
0.0
 13
0.0
 23
0.0
 33
0.0
 16
1.0
 26
0.0
 36
0.0
 17
0.0
 27
1.0
 37
0.0
 76
     0
330
6D9
1001
ACAD_PSEXT
1000
HP LaserJet 2100 Series PS
1000
HP LaserJet 2100 Series PS
1000
LPT1:
1000

1070
     0
  0
MLINESTYLE
  5
6DD
102
{ACAD_REACTORS
330
6DC
102
}
330
6DC
100
AcDbMlineStyle
  2
STANDARD
 70
     0
  3

 62
   256
 51
90.0
 52
90.0
 71
     2
 49
0.5
 62
   256
  6
BYLAYER
 49
-0.5
 62
   256
  6
BYLAYER
  0
ACDBPLACEHOLDER
  5
760
102
{ACAD_REACTORS
330
75F
102
}
330
75F
  0
ACAD_PROXY_OBJECT
  5
874
102
{ACAD_REACTORS
330
873
102
}
330
873
100
AcDbProxyObject
 90
      499
 91
      511
 95
   589847
 70
     0
 93
     1841
310
4214DD185B99185C9928B81E85EB51B8AE3F2E07A17AD46E2B8FC02B5E8DC0F42B1CFD028000000C1008070000C3001FDFF8000000C1003FBFF000000182007F7FE00000030400FEFFC00000060801FDFF8000000C1003FBFF00000018200000000000000681FA0B0000001820100E000186003FBFF000000182007F7FE000
310
00030400FEFFC00000060801FDFF8000000C1003FBFF000000182007F7FE000000304000AD7A3703D0AC73F4160000003040201C00030C007F7FE00000030400FEFFC00000060801FDFF8000000C1003FBFF000000182007F7FE00000030400FEFFC000000608000
340
6D1
340
6D1
340
6D1
 94
        0
1001
ACAD
1000
AcadProxyRoundTripData
1071
      509
1071
   393241
1070
     0
  0
XRECORD
  5
987
102
{ACAD_REACTORS
330
986
102
}
330
986
100
AcDbXrecord
340
872
  0
XRECORD
  5
988
102
{ACAD_REACTORS
330
986
102
}
330
986
100
AcDbXrecord
340
871
  0
DICTIONARYVAR
  5
8C4
102
{ACAD_REACTORS
330
723
102
}
330
723
100
DictionaryVariables
280
     0
  1
STANDARD
  0
DICTIONARYVAR
  5
724
102
{ACAD_REACTORS
330
723
102
}
330
723
100
DictionaryVariables
280
     0
  1
0
  0
DICTIONARYVAR
  5
985
102
{ACAD_REACTORS
330
723
102
}
330
723
100
DictionaryVariables
280
     0
  1
0
  0
DICTIONARYVAR
  5
984
102
{ACAD_REACTORS
330
723
102
}
330
723
100
DictionaryVariables
280
     0
  1
0
  0
DICTIONARY
  5
989
330
764
100
AcDbDictionary
280
     1
281
     1
  3
ACAD_XREC_ROUNDTRIP
360
98A
  0
DICTIONARY
  5
98B
330
763
100
AcDbDictionary
280
     1
281
     1
  3
ACAD_XREC_ROUNDTRIP
360
98C
  0
XRECORD
  5
98A
102
{ACAD_REACTORS
330
989
102
}
330
989
100
AcDbXrecord
102
SHADEPLOT
 70
     0
102
SHADEPLOTRESLEVEL
 70
     2
102
SHADEPLOTCUSTOMDPI
 70
   300
  0
XRECORD
  5
98C
102
{ACAD_REACTORS
330
98B
102
}
330
98B
100
AcDbXrecord
102
SHADEPLOT
 70
     0
102
SHADEPLOTRESLEVEL
 70
     2
102
SHADEPLOTCUSTOMDPI
 70
   300
  0
ENDSEC
  0
EOF
