  0
SECTION
  2
HEADER
  9
$ACADVER
  1
AC1015
  9
$ACADMAINTVER
 70
     6
  9
$DWGCODEPAGE
  3
ANSI_1252
  9
$INSBASE
 10
0.0
 20
0.0
 30
0.0
  9
$EXTMIN
 10
-0.0475221877682799
 20
0.0773493723081486
 30
-0.0000000000000053
  9
$EXTMAX
 10
12.78700988893213
 20
11.67920642849641
 30
0.0000000000000099
  9
$LIMMIN
 10
0.0
 20
0.0
  9
$LIMMAX
 10
31.660835
 20
23.350013
  9
$ORTHOMODE
 70
     0
  9
$REGENMODE
 70
     1
  9
$FILLMODE
 70
     1
  9
$QTEXTMODE
 70
     0
  9
$MIRRTEXT
 70
     0
  9
$LTSCALE
 40
1.0
  9
$ATTMODE
 70
     1
  9
$TEXTSIZE
 40
0.27
  9
$TRACEWID
 40
0.05
  9
$TEXTSTYLE
  7
STANDARD
  9
$CLAYER
  8
0
  9
$CELTYPE
  6
BYLAYER
  9
$CECOLOR
 62
   256
  9
$CELTSCALE
 40
1.0
  9
$DISPSILH
 70
     0
  9
$DIMSCALE
 40
1.0
  9
$DIMASZ
 40
0.375
  9
$DIMEXO
 40
0.0625
  9
$DIMDLI
 40
0.75
  9
$DIMRND
 40
0.0
  9
$DIMDLE
 40
0.0
  9
$DIMEXE
 40
0.18
  9
$DIMTP
 40
0.0
  9
$DIMTM
 40
0.0
  9
$DIMTXT
 40
0.27
  9
$DIMCEN
 40
-0.06
  9
$DIMTSZ
 40
0.0
  9
$DIMTOL
 70
     0
  9
$DIMLIM
 70
     0
  9
$DIMTIH
 70
     1
  9
$DIMTOH
 70
     1
  9
$DIMSE1
 70
     0
  9
$DIMSE2
 70
     0
  9
$DIMTAD
 70
     0
  9
$DIMZIN
 70
     0
  9
$DIMBLK
  1

  9
$DIMASO
 70
     0
  9
$DIMSHO
 70
     0
  9
$DIMPOST
  1

  9
$DIMAPOST
  1

  9
$DIMALT
 70
     0
  9
$DIMALTD
 70
     2
  9
$DIMALTF
 40
25.4
  9
$DIMLFAC
 40
1.0
  9
$DIMTOFL
 70
     0
  9
$DIMTVP
 40
0.0
  9
$DIMTIX
 70
     0
  9
$DIMSOXD
 70
     0
  9
$DIMSAH
 70
     0
  9
$DIMBLK1
  1

  9
$DIMBLK2
  1

  9
$DIMSTYLE
  2
STANDARD
  9
$DIMCLRD
 70
     0
  9
$DIMCLRE
 70
     0
  9
$DIMCLRT
 70
     0
  9
$DIMTFAC
 40
1.0
  9
$DIMGAP
 40
0.09
  9
$DIMJUST
 70
     0
  9
$DIMSD1
 70
     0
  9
$DIMSD2
 70
     0
  9
$DIMTOLJ
 70
     1
  9
$DIMTZIN
 70
     0
  9
$DIMALTZ
 70
     0
  9
$DIMALTTZ
 70
     0
  9
$DIMUPT
 70
     0
  9
$DIMDEC
 70
     4
  9
$DIMTDEC
 70
     4
  9
$DIMALTU
 70
     2
  9
$DIMALTTD
 70
     2
  9
$DIMTXSTY
  7
STANDARD
  9
$DIMAUNIT
 70
     0
  9
$DIMADEC
 70
     0
  9
$DIMALTRND
 40
0.0
  9
$DIMAZIN
 70
     0
  9
$DIMDSEP
 70
    46
  9
$DIMATFIT
 70
     3
  9
$DIMFRAC
 70
     0
  9
$DIMLDRBLK
  1

  9
$DIMLUNIT
 70
     2
  9
$DIMLWD
 70
    -2
  9
$DIMLWE
 70
    -2
  9
$DIMTMOVE
 70
     2
  9
$LUNITS
 70
     2
  9
$LUPREC
 70
     4
  9
$SKETCHINC
 40
0.1
  9
$FILLETRAD
 40
0.03125
  9
$AUNITS
 70
     0
  9
$AUPREC
 70
     0
  9
$MENU
  1
ACAD
  9
$ELEVATION
 40
0.0
  9
$PELEVATION
 40
0.0
  9
$THICKNESS
 40
0.0
  9
$LIMCHECK
 70
     0
  9
$CHAMFERA
 40
0.0
  9
$CHAMFERB
 40
0.0
  9
$CHAMFERC
 40
0.0
  9
$CHAMFERD
 40
0.0
  9
$SKPOLY
 70
     0
  9
$TDCREATE
 40
2450646.944463889
  9
$TDUCREATE
 40
2450647.277797222
  9
$TDUPDATE
 40
2454165.806132732
  9
$TDUUPDATE
 40
2454166.139466065
  9
$TDINDWG
 40
0.0524968171
  9
$TDUSRTIMER
 40
0.0524968171
  9
$USRTIMER
 70
     1
  9
$ANGBASE
 50
0.0
  9
$ANGDIR
 70
     0
  9
$PDMODE
 70
     0
  9
$PDSIZE
 40
0.0
  9
$PLINEWID
 40
0.0
  9
$SPLFRAME
 70
     0
  9
$SPLINETYPE
 70
     6
  9
$SPLINESEGS
 70
     8
  9
$HANDSEED
  5
303
  9
$SURFTAB1
 70
     6
  9
$SURFTAB2
 70
     6
  9
$SURFTYPE
 70
     6
  9
$SURFU
 70
     6
  9
$SURFV
 70
     6
  9
$UCSBASE
  2

  9
$UCSNAME
  2

  9
$UCSORG
 10
0.0
 20
0.0
 30
0.0
  9
$UCSXDIR
 10
1.0
 20
0.0
 30
0.0
  9
$UCSYDIR
 10
0.0
 20
1.0
 30
0.0
  9
$UCSORTHOREF
  2

  9
$UCSORTHOVIEW
 70
     0
  9
$UCSORGTOP
 10
0.0
 20
0.0
 30
0.0
  9
$UCSORGBOTTOM
 10
0.0
 20
0.0
 30
0.0
  9
$UCSORGLEFT
 10
0.0
 20
0.0
 30
0.0
  9
$UCSORGRIGHT
 10
0.0
 20
0.0
 30
0.0
  9
$UCSORGFRONT
 10
0.0
 20
0.0
 30
0.0
  9
$UCSORGBACK
 10
0.0
 20
0.0
 30
0.0
  9
$PUCSBASE
  2

  9
$PUCSNAME
  2

  9
$PUCSORG
 10
0.0
 20
0.0
 30
0.0
  9
$PUCSXDIR
 10
1.0
 20
0.0
 30
0.0
  9
$PUCSYDIR
 10
0.0
 20
1.0
 30
0.0
  9
$PUCSORTHOREF
  2

  9
$PUCSORTHOVIEW
 70
     0
  9
$PUCSORGTOP
 10
0.0
 20
0.0
 30
0.0
  9
$PUCSORGBOTTOM
 10
0.0
 20
0.0
 30
0.0
  9
$PUCSORGLEFT
 10
0.0
 20
0.0
 30
0.0
  9
$PUCSORGRIGHT
 10
0.0
 20
0.0
 30
0.0
  9
$PUCSORGFRONT
 10
0.0
 20
0.0
 30
0.0
  9
$PUCSORGBACK
 10
0.0
 20
0.0
 30
0.0
  9
$USERI1
 70
     0
  9
$USERI2
 70
     0
  9
$USERI3
 70
     0
  9
$USERI4
 70
     0
  9
$USERI5
 70
     0
  9
$USERR1
 40
0.0
  9
$USERR2
 40
0.0
  9
$USERR3
 40
0.0
  9
$USERR4
 40
0.0
  9
$USERR5
 40
0.0
  9
$WORLDVIEW
 70
     1
  9
$SHADEDGE
 70
     3
  9
$SHADEDIF
 70
    70
  9
$TILEMODE
 70
     1
  9
$MAXACTVP
 70
    16
  9
$PINSBASE
 10
0.0
 20
0.0
 30
0.0
  9
$PLIMCHECK
 70
     0
  9
$PEXTMIN
 10
1.000000000000000E+20
 20
1.000000000000000E+20
 30
1.000000000000000E+20
  9
$PEXTMAX
 10
-1.000000000000000E+20
 20
-1.000000000000000E+20
 30
-1.000000000000000E+20
  9
$PLIMMIN
 10
0.0
 20
0.0
  9
$PLIMMAX
 10
12.0
 20
9.0
  9
$UNITMODE
 70
     0
  9
$VISRETAIN
 70
     0
  9
$PLINEGEN
 70
     0
  9
$PSLTSCALE
 70
     0
  9
$TREEDEPTH
 70
  3020
  9
$CMLSTYLE
  2
STANDARD
  9
$CMLJUST
 70
     0
  9
$CMLSCALE
 40
1.0
  9
$PROXYGRAPHICS
 70
     1
  9
$MEASUREMENT
 70
     0
  9
$CELWEIGHT
370
    -1
  9
$ENDCAPS
280
     0
  9
$JOINSTYLE
280
     0
  9
$LWDISPLAY
290
     0
  9
$INSUNITS
 70
     0
  9
$HYPERLINKBASE
  1

  9
$STYLESHEET
  1

  9
$XEDIT
290
     1
  9
$CEPSNTYPE
380
     0
  9
$PSTYLEMODE
290
     1
  9
$FINGERPRINTGUID
  2
{2AAC8CE3-C73E-4B97-A15C-ADD2038070F6}
  9
$VERSIONGUID
  2
{4EA1FB5D-7403-41D8-BF8D-364B679B7A0B}
  9
$EXTNAMES
290
     1
  9
$PSVPSCALE
 40
0.0
  9
$OLESTARTUP
290
     0
  0
ENDSEC
  0
SECTION
  2
CLASSES
  0
CLASS
  1
DICTIONARYVAR
  2
AcDbDictionaryVar
  3
AutoCAD 2000
 90
        0
280
     0
281
     0
  0
CLASS
  1
ACDBDICTIONARYWDFLT
  2
AcDbDictionaryWithDefault
  3
AutoCAD 2000
 90
        0
280
     0
281
     0
  0
CLASS
  1
ACDBPLACEHOLDER
  2
AcDbPlaceHolder
  3
ObjectDBX Classes
 90
        0
280
     0
281
     0
  0
CLASS
  1
LAYOUT
  2
AcDbLayout
  3
ObjectDBX Classes
 90
        0
280
     0
281
     0
  0
CLASS
  1
TABLESTYLE
  2
AcDbTableStyle
  3
ObjectDBX Classes
 90
     2047
280
     1
281
     0
  0
ENDSEC
  0
SECTION
  2
TABLES
  0
TABLE
  2
VPORT
  5
19
330
0
100
AcDbSymbolTable
 70
     3
  0
VPORT
  5
2F3
330
19
100
AcDbSymbolTableRecord
100
AcDbViewportTableRecord
  2
*Active
 70
     0
 10
0.0
 20
0.0
 11
1.0
 21
1.0
 12
16.53067075672183
 22
11.60472956687061
 13
0.0
 23
0.0
 14
0.0625
 24
0.0625
 15
0.5
 25
0.5
 16
0.0
 26
0.0
 36
1.0
 17
0.0
 27
0.0
 37
0.0
 40
26.53469193273773
 41
1.814583333333333
 42
50.0
 43
0.0
 44
0.0
 50
0.0
 51
0.0
 71
     0
 72
   100
 73
     1
 74
     3
 75
     0
 76
     0
 77
     0
 78
     0
281
     0
 65
     1
110
0.0
120
0.0
130
0.0
111
1.0
121
0.0
131
0.0
112
0.0
122
1.0
132
0.0
 79
     0
146
0.0
  0
ENDTAB
  0
TABLE
  2
LTYPE
  5
14
330
0
100
AcDbSymbolTable
 70
     3
  0
LTYPE
  5
15
330
14
100
AcDbSymbolTableRecord
100
AcDbLinetypeTableRecord
  2
BYBLOCK
 70
     0
  3

 72
    65
 73
     0
 40
0.0
  0
LTYPE
  5
16
330
14
100
AcDbSymbolTableRecord
100
AcDbLinetypeTableRecord
  2
BYLAYER
 70
     0
  3

 72
    65
 73
     0
 40
0.0
  0
LTYPE
  5
8
330
14
100
AcDbSymbolTableRecord
100
AcDbLinetypeTableRecord
  2
CONTINUOUS
 70
     0
  3
Solid line
 72
    65
 73
     0
 40
0.0
  0
LTYPE
  5
1F7
330
14
100
AcDbSymbolTableRecord
100
AcDbLinetypeTableRecord
  2
HIDDEN
 70
     0
  3
__ __ __ __ __ __ __ __ __ __ __ __ __ __ __ __
 72
    65
 73
     2
 40
0.375
 49
0.25
 74
     0
 49
-0.125
 74
     0
  0
ENDTAB
  0
TABLE
  2
LAYER
  5
10
330
0
100
AcDbSymbolTable
 70
     4
  0
LAYER
  5
4
330
10
100
AcDbSymbolTableRecord
100
AcDbLayerTableRecord
  2
0
 70
     0
 62
     7
  6
CONTINUOUS
370
    -3
390
5
  0
ENDTAB
  0
TABLE
  2
STYLE
  5
11
330
0
100
AcDbSymbolTable
 70
     1
  0
STYLE
  5
12
330
11
100
AcDbSymbolTableRecord
100
AcDbTextStyleTableRecord
  2
STANDARD
 70
     0
 40
0.0
 41
1.0
 50
0.0
 71
     0
 42
0.27
  3
TXT
  4

  0
ENDTAB
  0
TABLE
  2
VIEW
  5
17
330
0
100
AcDbSymbolTable
 70
     0
  0
ENDTAB
  0
TABLE
  2
UCS
  5
18
330
0
100
AcDbSymbolTable
 70
     0
  0
ENDTAB
  0
TABLE
  2
APPID
  5
1B
330
0
100
AcDbSymbolTable
 70
     1
  0
APPID
  5
1C
330
1B
100
AcDbSymbolTableRecord
100
AcDbRegAppTableRecord
  2
ACAD
 70
     0
  0
ENDTAB
  0
TABLE
  2
DIMSTYLE
  5
1D
330
0
100
AcDbSymbolTable
 70
     1
100
AcDbDimStyleTable
  0
DIMSTYLE
105
24
330
1D
100
AcDbSymbolTableRecord
100
AcDbDimStyleTableRecord
  2
STANDARD
 70
     0
  3

  4

340
12
  0
ENDTAB
  0
TABLE
  2
BLOCK_RECORD
  5
1
330
0
100
AcDbSymbolTable
 70
     0
  0
BLOCK_RECORD
  5
2
330
1
100
AcDbSymbolTableRecord
100
AcDbBlockTableRecord
  2
*MODEL_SPACE
340
A
  0
BLOCK_RECORD
  5
C
330
1
100
AcDbSymbolTableRecord
100
AcDbBlockTableRecord
  2
*PAPER_SPACE
340
F
  0
ENDTAB
  0
ENDSEC
  0
SECTION
  2
BLOCKS
  0
BLOCK
  5
3
330
2
100
AcDbEntity
  8
0
100
AcDbBlockBegin
  2
*MODEL_SPACE
 70
     0
 10
0.0
 20
0.0
 30
0.0
  3
*MODEL_SPACE
  1

  4

  0
ENDBLK
  5
9
330
2
100
AcDbEntity
  8
0
100
AcDbBlockEnd
  0
BLOCK
  5
D
330
C
100
AcDbEntity
 67
     1
  8
0
100
AcDbBlockBegin
  2
*PAPER_SPACE
 70
     0
 10
0.0
 20
0.0
 30
0.0
  3
*PAPER_SPACE
  1

  4

  0
ENDBLK
  5
E
330
C
100
AcDbEntity
 67
     1
  8
0
100
AcDbBlockEnd
  0
ENDSEC
  0
SECTION
  2
ENTITIES
  0
LWPOLYLINE
  5
26C
330
2
100
AcDbEntity
  8
0
100
AcDbPolyline
 90
        6
 70
     1
 43
0.0
 10
7.494087303222013
 20
3.681392703013334
 10
7.677075244448215
 20
3.63236123159616
 42
-0.5773502686101053
 10
7.691084236148363
 20
3.58007896262661
 10
7.557127765839908
 20
3.446122492318155
 42
-0.5773502697691459
 10
7.504845496842233
 20
3.460131484123259
 10
7.455814025991025
 20
3.643119425782345
 42
-0.5773502691896258
  0
LWPOLYLINE
  5
26D
330
2
100
AcDbEntity
  8
0
100
AcDbPolyline
 90
        6
 70
     1
 43
0.0
 10
5.260200252147183
 20
3.681392703013334
 10
5.077212310920981
 20
3.63236123159616
 42
0.5773502686101053
 10
5.063203319220833
 20
3.58007896262661
 10
5.197159789529287
 20
3.446122492318155
 42
0.5773502697691459
 10
5.249442058526963
 20
3.460131484123259
 10
5.298473529378171
 20
3.643119425782345
 42
0.5773502691896258
  0
LINE
  5
26E
330
2
100
AcDbEntity
  8
0
  6
HIDDEN
100
AcDbLine
 10
0.109288121946939
 20
0.3369339933447648
 30
0.0
 11
0.1092881219469533
 21
7.196820585310928
 31
0.0
  0
LINE
  5
26F
330
2
100
AcDbEntity
  8
0
100
AcDbLine
 10
1.462881693217739
 20
7.196965572574129
 30
0.0
 11
1.462881693217739
 21
1.814787520880326
 31
0.0
  0
LINE
  5
270
330
2
100
AcDbEntity
  8
0
100
AcDbLine
 10
0.0033321219469471
 20
0.3369339933447648
 30
0.0
 11
0.00333212194694
 21
7.196806834434918
 31
0.0
  0
LINE
  5
271
330
2
100
AcDbEntity
  8
0
100
AcDbLine
 10
12.73635084573077
 20
0.3369339933447648
 30
0.0
 11
12.73635084573077
 21
7.196806834434918
 31
0.0
  0
LINE
  5
272
330
2
100
AcDbEntity
  8
0
100
AcDbLine
 10
11.27680127445997
 20
7.196965572574129
 30
0.0
 11
11.27680127445997
 21
1.814787520880326
 31
0.0
  0
LINE
  5
273
330
2
100
AcDbEntity
  8
0
  6
HIDDEN
100
AcDbLine
 10
12.63039484573077
 20
0.3369339933447648
 30
0.0
 11
12.63039484573076
 21
7.196820585310928
 31
0.0
  0
LINE
  5
274
330
2
100
AcDbEntity
  8
0
100
AcDbLine
 10
6.790614048610653
 20
7.199029823830522
 30
0.0
 11
6.790609394957013
 21
1.814787520880325
 31
0.0
  0
LINE
  5
275
330
2
100
AcDbEntity
  8
0
100
AcDbLine
 10
7.928709823686212
 20
0.3242039933447671
 30
0.0
 11
7.928709823686212
 21
5.265243993344768
 31
0.0
  0
LINE
  5
276
330
2
100
AcDbEntity
  8
0
100
AcDbLine
 10
4.808868087666237
 20
7.19959265866208
 30
0.0
 11
4.80886808766623
 21
1.249533993344766
 31
0.0
  0
LINE
  5
277
330
2
100
AcDbEntity
  8
0
100
AcDbLine
 10
4.73025808766624
 20
7.199602860598384
 30
0.0
 11
4.730258087666233
 21
1.249533993344766
 31
0.0
  0
LINE
  5
278
330
2
100
AcDbEntity
  8
0
100
AcDbLine
 10
8.007639823686212
 20
5.265243993344768
 30
0.0
 11
8.007639823686212
 21
0.3201339933447684
 31
0.0
  0
LINE
  5
279
330
2
100
AcDbEntity
  8
0
100
AcDbLine
 10
5.963673506133734
 20
7.199752730224681
 30
0.0
 11
5.963678160412183
 21
1.814787520880325
 31
0.0
  0
LWPOLYLINE
  5
27A
330
2
100
AcDbEntity
  8
0
100
AcDbPolyline
 90
        6
 70
     1
 43
0.0
 10
7.494087303222013
 20
2.553394167946477
 10
7.677075244448215
 20
2.504362696529304
 42
-0.5773502686101053
 10
7.691084236148363
 20
2.452080427559753
 10
7.557127765839908
 20
2.318123957251299
 42
-0.5773502697691459
 10
7.504845496842233
 20
2.332132949056403
 10
7.455814025991025
 20
2.515120890715489
 42
-0.5773502691896258
  0
LINE
  5
27B
330
2
100
AcDbEntity
  8
0
100
AcDbLine
 10
7.812364880011483
 20
0.1995039933447664
 30
0.0
 11
4.927318087666233
 21
0.1995039933447664
 31
0.0
  0
CIRCLE
  5
27C
330
2
100
AcDbEntity
  8
0
100
AcDbCircle
 10
7.48986982368621
 20
3.090388461390907
 30
0.0
 40
0.109
  0
CIRCLE
  5
27D
330
2
100
AcDbEntity
  8
0
100
AcDbCircle
 10
7.553119823686213
 20
1.539880279739197
 30
0.0
 40
0.109
  0
LINE
  5
27E
330
2
100
AcDbEntity
  8
0
100
AcDbLine
 10
4.930258087666228
 20
0.1201339933447656
 30
0.0
 11
7.807639823686216
 21
0.1201339933447656
 31
0.0
  0
LINE
  5
27F
330
2
100
AcDbEntity
  8
0
100
AcDbLine
 10
7.928709823686216
 20
0.3369339933447648
 30
0.0
 11
6.790609394957006
 21
1.814787520880326
 31
0.0
  0
LINE
  5
280
330
2
100
AcDbEntity
  8
0
  6
HIDDEN
100
AcDbLine
 10
2.600982121946949
 20
0.2031439933447672
 30
0.0
 11
0.109288121946939
 21
0.2031439933447672
 31
0.0
  0
LINE
  5
281
330
2
100
AcDbEntity
  8
0
100
AcDbLine
 10
2.600982121946949
 20
0.1406439933447672
 30
0.0
 11
0.109288121946939
 21
0.1406439933447672
 31
0.0
  0
LINE
  5
282
330
2
100
AcDbEntity
  8
0
100
AcDbLine
 10
0.109288121946939
 20
0.1406439933447672
 30
0.0
 11
0.109288121946939
 21
0.3369339933447648
 31
0.0
  0
LINE
  5
283
330
2
100
AcDbEntity
  8
0
100
AcDbLine
 10
0.1092881219469355
 20
0.3369339933447648
 30
0.0
 11
0.0033321219469471
 21
0.3369339933447648
 31
0.0
  0
ARC
  5
284
330
2
100
AcDbEntity
  8
0
100
AcDbCircle
 10
0.1092881219469462
 20
2.918203993344767
 30
0.0
 40
0.156
100
AcDbArc
 50
227.2184398591758
 51
132.7815601408243
  0
CIRCLE
  5
285
330
2
100
AcDbEntity
  8
0
100
AcDbCircle
 10
1.119031693217742
 20
1.661114231973881
 30
0.0
 40
0.078
  0
LINE
  5
286
330
2
100
AcDbEntity
  8
0
100
AcDbLine
 10
2.600982121946949
 20
0.3369339933447648
 30
0.0
 11
1.462881693217739
 21
1.814787520880326
 31
0.0
  0
LINE
  5
287
330
2
100
AcDbEntity
  8
0
100
AcDbLine
 10
2.600982121946949
 20
0.1406439933447672
 30
0.0
 11
2.600982121946949
 21
0.3369339933447648
 31
0.0
  0
CIRCLE
  5
288
330
2
100
AcDbEntity
  8
0
100
AcDbCircle
 10
1.119031693217739
 20
2.419217143528554
 30
0.0
 40
0.078
  0
LINE
  5
289
330
2
100
AcDbEntity
  8
0
100
AcDbLine
 10
4.82557773168298
 20
0.3369339933447648
 30
0.0
 11
5.96367816041219
 21
1.814787520880326
 31
0.0
  0
LINE
  5
28A
330
2
100
AcDbEntity
  8
0
100
AcDbLine
 10
4.730258087666233
 20
1.259353993344767
 30
0.0
 11
4.730258087666233
 21
0.3173239933447682
 31
0.0
  0
LINE
  5
28B
330
2
100
AcDbEntity
  8
0
100
AcDbLine
 10
4.80886808766623
 20
1.259353993344767
 30
0.0
 11
4.80886808766623
 21
0.3216439933447646
 31
0.0
  0
ARC
  5
28C
330
2
100
AcDbEntity
  8
0
100
AcDbCircle
 10
4.930258087666228
 20
0.3201339933447684
 30
0.0
 40
0.2
100
AcDbArc
 50
180.0
 51
270.0
  0
ARC
  5
28D
330
2
100
AcDbEntity
  8
0
100
AcDbCircle
 10
4.93386808766623
 20
0.3245039933447664
 30
0.0
 40
0.125
100
AcDbArc
 50
180.0
 51
269.9927
  0
LINE
  5
28E
330
2
100
AcDbEntity
  8
0
100
AcDbLine
 10
5.718884605429317
 20
0.1995039933447647
 30
0.0
 11
5.718884605429317
 21
0.1201339933447656
 31
0.0
  0
LINE
  5
28F
330
2
100
AcDbEntity
  8
0
100
AcDbLine
 10
5.468884605429317
 20
0.1995039933447664
 30
0.0
 11
5.46888460542932
 21
0.1201339933447674
 31
0.0
  0
CIRCLE
  5
290
330
2
100
AcDbEntity
  8
0
100
AcDbCircle
 10
5.201167731682983
 20
1.539880279739197
 30
0.0
 40
0.109
  0
LINE
  5
291
330
2
100
AcDbEntity
  8
0
100
AcDbLine
 10
7.031384605429313
 20
0.1995039933447647
 30
0.0
 11
7.031384605429317
 21
0.1201339933447656
 31
0.0
  0
LINE
  5
292
330
2
100
AcDbEntity
  8
0
100
AcDbLine
 10
7.281384605429317
 20
0.1995039933447647
 30
0.0
 11
7.281384605429317
 21
0.1201339933447656
 31
0.0
  0
CIRCLE
  5
293
330
2
100
AcDbEntity
  8
0
100
AcDbCircle
 10
5.643177272639282
 20
1.966519173714653
 30
0.0
 40
0.109
  0
LWPOLYLINE
  5
294
330
2
100
AcDbEntity
  8
0
100
AcDbPolyline
 90
        6
 70
     1
 43
0.0
 10
5.260200252147183
 20
2.553394167946475
 10
5.077212310920981
 20
2.504362696529304
 42
0.5773502686101053
 10
5.063203319220833
 20
2.452080427559753
 10
5.197159789529287
 20
2.318123957251299
 42
0.5773502697691459
 10
5.249442058526963
 20
2.332132949056403
 10
5.298473529378171
 20
2.515120890715489
 42
0.5773502691896258
  0
ARC
  5
295
330
2
100
AcDbEntity
  8
0
100
AcDbCircle
 10
4.80886808766623
 20
2.918203993344767
 30
0.0
 40
0.156
100
AcDbArc
 50
270.0
 51
90.0
  0
CIRCLE
  5
296
330
2
100
AcDbEntity
  8
0
100
AcDbCircle
 10
5.264417731682986
 20
3.090388461390907
 30
0.0
 40
0.109
  0
CIRCLE
  5
297
330
2
100
AcDbEntity
  8
0
100
AcDbCircle
 10
7.111110282729914
 20
1.966519173714653
 30
0.0
 40
0.109
  0
LINE
  5
298
330
2
100
AcDbEntity
  8
0
100
AcDbLine
 10
10.13870084573076
 20
0.3369339933447648
 30
0.0
 11
11.27680127445997
 21
1.814787520880326
 31
0.0
  0
LINE
  5
299
330
2
100
AcDbEntity
  8
0
100
AcDbLine
 10
10.13870084573076
 20
0.1406439933447672
 30
0.0
 11
12.63039484573077
 21
0.1406439933447672
 31
0.0
  0
LINE
  5
29A
330
2
100
AcDbEntity
  8
0
  6
HIDDEN
100
AcDbLine
 10
10.13870084573076
 20
0.2031439933447672
 30
0.0
 11
12.63039484573077
 21
0.2031439933447672
 31
0.0
  0
ARC
  5
29B
330
2
100
AcDbEntity
  8
0
100
AcDbCircle
 10
7.807639823686216
 20
0.3201339933447684
 30
0.0
 40
0.2
100
AcDbArc
 50
270.0
 51
0.0
  0
ARC
  5
29C
330
2
100
AcDbEntity
  8
0
100
AcDbCircle
 10
7.803709823686212
 20
0.3242039933447671
 30
0.0
 40
0.125
100
AcDbArc
 50
269.9927
 51
0.0
  0
LINE
  5
29D
330
2
100
AcDbEntity
  8
0
100
AcDbLine
 10
10.13870084573076
 20
0.1406439933447672
 30
0.0
 11
10.13870084573076
 21
0.3369339933447648
 31
0.0
  0
ARC
  5
29E
330
2
100
AcDbEntity
  8
0
100
AcDbCircle
 10
7.928709823686212
 20
2.918203993344767
 30
0.0
 40
0.156
100
AcDbArc
 50
90.0
 51
270.0
  0
CIRCLE
  5
29F
330
2
100
AcDbEntity
  8
0
100
AcDbCircle
 10
11.62065127445997
 20
1.148696634464271
 30
0.0
 40
0.078
  0
LINE
  5
2A0
330
2
100
AcDbEntity
  8
0
100
AcDbLine
 10
12.63039484573077
 20
0.1406439933447672
 30
0.0
 11
12.63039484573077
 21
0.3369339933447648
 31
0.0
  0
LINE
  5
2A1
330
2
100
AcDbEntity
  8
0
100
AcDbLine
 10
12.63039484573078
 20
0.3369339933447648
 30
0.0
 11
12.73635084573077
 21
0.3369339933447648
 31
0.0
  0
ARC
  5
2A2
330
2
100
AcDbEntity
  8
0
100
AcDbCircle
 10
12.63039484573077
 20
2.918203993344767
 30
0.0
 40
0.156
100
AcDbArc
 50
47.21843985917572
 51
312.7815601408241
  0
CIRCLE
  5
2A3
330
2
100
AcDbEntity
  8
0
100
AcDbCircle
 10
11.62065127445997
 20
3.071844867388665
 30
0.0
 40
0.078
  0
LINE
  5
2A4
330
2
100
AcDbEntity
  8
0
100
AcDbLine
 10
7.930109778173598
 20
11.54456283090729
 30
0.0
 11
7.281384605429317
 21
11.54456283090729
 31
0.0
  0
LINE
  5
2A5
330
2
100
AcDbEntity
  8
0
100
AcDbLine
 10
7.875739557631814
 20
11.57676553038798
 30
0.0
 11
6.814158877639368
 21
11.57676553038798
 31
0.0
  0
LINE
  5
2A6
330
2
100
AcDbEntity
  8
0
100
AcDbLine
 10
6.814158877639368
 20
11.65604569019843
 30
0.0
 11
7.906247313787663
 21
11.65604569019843
 31
0.0
  0
LINE
  5
2A7
330
2
100
AcDbEntity
  8
0
100
AcDbLine
 10
7.281384605429317
 20
9.044562830907292
 30
0.0
 11
8.016247313787666
 21
9.044562830907292
 31
0.0
  0
LINE
  5
2A8
330
2
100
AcDbEntity
  8
0
100
AcDbLine
 10
8.007639823686215
 20
7.199187768359693
 30
0.0
 11
6.790614048610653
 21
7.199029823830522
 31
0.0
  0
LINE
  5
2A9
330
2
100
AcDbEntity
  8
0
100
AcDbLine
 10
4.734021897070978
 20
11.54456283090503
 30
0.0
 11
4.734021897070971
 21
9.044562830907292
 31
0.0
  0
LINE
  5
2AA
330
2
100
AcDbEntity
  8
0
100
AcDbLine
 10
4.812496346415461
 20
11.51057594075075
 30
0.0
 11
4.812496346415461
 21
9.044562830907292
 31
0.0
  0
LINE
  5
2AB
330
2
100
AcDbEntity
  8
0
100
AcDbLine
 10
1.462881693217739
 20
7.196965572574129
 30
0.0
 11
0.00333212194694
 21
7.196806834434918
 31
0.0
  0
LWPOLYLINE
  5
2AC
330
2
100
AcDbEntity
  8
0
100
AcDbPolyline
 90
        6
 70
     1
 43
0.0
 10
1.049779984530673
 20
3.967503895382606
 10
1.232767925756875
 20
3.918472423965435
 42
-0.5773502686101053
 10
1.246776917457023
 20
3.866190154995884
 10
1.112820447148568
 20
3.732233684687429
 42
-0.5773502697691459
 10
1.060538178150893
 20
3.746242676492534
 10
1.011506707299684
 20
3.929230618151619
 42
-0.5773502691896258
  0
CIRCLE
  5
2AD
330
2
100
AcDbEntity
  8
0
100
AcDbCircle
 10
5.643177272639282
 20
4.017391266737924
 30
0.0
 40
0.109
  0
CIRCLE
  5
2AE
330
2
100
AcDbEntity
  8
0
100
AcDbCircle
 10
7.111110282729914
 20
4.017391266737924
 30
0.0
 40
0.109
  0
LINE
  5
2AF
330
2
100
AcDbEntity
  8
0
100
AcDbLine
 10
5.963673506133734
 20
7.199752730224681
 30
0.0
 11
4.730258087666233
 21
7.19959265866208
 31
0.0
  0
CIRCLE
  5
2B0
330
2
100
AcDbEntity
  8
0
100
AcDbCircle
 10
5.643177272639282
 20
5.594677935846145
 30
0.0
 40
0.109
  0
CIRCLE
  5
2B1
330
2
100
AcDbEntity
  8
0
100
AcDbCircle
 10
7.111110282729914
 20
5.594677935846145
 30
0.0
 40
0.109
  0
LINE
  5
2B2
330
2
100
AcDbEntity
  8
0
100
AcDbLine
 10
5.718884605429317
 20
9.044562830907292
 30
0.0
 11
7.031384605429317
 21
9.044562830907292
 31
0.0
  0
LINE
  5
2B3
330
2
100
AcDbEntity
  8
0
100
AcDbLine
 10
4.734021897070971
 20
9.044562830907292
 30
0.0
 11
5.468884605429317
 21
9.044562830907292
 31
0.0
  0
LINE
  5
2B4
330
2
100
AcDbEntity
  8
0
100
AcDbLine
 10
5.468884605429317
 20
9.044562830907292
 30
0.0
 11
5.468884605429317
 21
9.075812830907289
 31
0.0
  0
LINE
  5
2B5
330
2
100
AcDbEntity
  8
0
100
AcDbLine
 10
5.718884605429317
 20
9.044562830907292
 30
0.0
 11
5.718884605429317
 21
9.075812830907289
 31
0.0
  0
LINE
  5
2B6
330
2
100
AcDbEntity
  8
0
100
AcDbLine
 10
5.531384605429317
 20
9.138312830907289
 30
0.0
 11
5.656384605429317
 21
9.138312830907289
 31
0.0
  0
ARC
  5
2B7
330
2
100
AcDbEntity
  8
0
100
AcDbCircle
 10
5.656384605429317
 20
9.075812830907289
 30
0.0
 40
0.0625
100
AcDbArc
 50
0.0
 51
90.0
  0
ARC
  5
2B8
330
2
100
AcDbEntity
  8
0
100
AcDbCircle
 10
5.531384605429317
 20
9.075812830907289
 30
0.0
 40
0.0625
100
AcDbArc
 50
90.0
 51
180.0
  0
ARC
  5
2B9
330
2
100
AcDbEntity
  8
0
100
AcDbCircle
 10
7.093884605429317
 20
9.075812830907289
 30
0.0
 40
0.0625
100
AcDbArc
 50
90.0
 51
180.0
  0
LINE
  5
2BA
330
2
100
AcDbEntity
  8
0
100
AcDbLine
 10
7.031384605429317
 20
9.044562830907292
 30
0.0
 11
7.031384605429317
 21
9.075812830907289
 31
0.0
  0
LINE
  5
2BB
330
2
100
AcDbEntity
  8
0
100
AcDbLine
 10
7.281384605429317
 20
9.044562830907292
 30
0.0
 11
7.281384605429317
 21
9.075812830907289
 31
0.0
  0
LINE
  5
2BC
330
2
100
AcDbEntity
  8
0
100
AcDbLine
 10
7.093884605429317
 20
9.138312830907289
 30
0.0
 11
7.218884605429317
 21
9.138312830907289
 31
0.0
  0
ARC
  5
2BD
330
2
100
AcDbEntity
  8
0
100
AcDbCircle
 10
7.218884605429317
 20
9.075812830907289
 30
0.0
 40
0.0625
100
AcDbArc
 50
0.0000000000006107
 51
90.0
  0
LINE
  5
2BE
330
2
100
AcDbEntity
  8
0
100
AcDbLine
 10
4.734021897070971
 20
10.1695628309073
 30
0.0
 11
4.812496346415461
 21
10.1695628309073
 31
0.0
  0
LINE
  5
2BF
330
2
100
AcDbEntity
  8
0
100
AcDbLine
 10
5.985908943888656
 20
11.65185610056119
 30
0.0
 11
4.84398859025961
 21
11.65185610056119
 31
0.0
  0
LINE
  5
2C0
330
2
100
AcDbEntity
  8
0
100
AcDbLine
 10
4.874496346415452
 20
11.57257594075075
 30
0.0
 11
5.985908943888656
 21
11.57257594075075
 31
0.0
  0
LINE
  5
2C1
330
2
100
AcDbEntity
  8
0
100
AcDbLine
 10
7.031384605429317
 20
11.54456283090729
 30
0.0
 11
5.71888460542932
 21
11.5445628309073
 31
0.0
  0
LINE
  5
2C2
330
2
100
AcDbEntity
  8
0
100
AcDbLine
 10
5.46888460542932
 20
11.5445628309073
 30
0.0
 11
4.822641825903862
 21
11.54456283090729
 31
0.0
  0
ARC
  5
2C3
330
2
100
AcDbEntity
  8
0
100
AcDbCircle
 10
4.874496346415452
 20
11.51057594075075
 30
0.0
 40
0.062
100
AcDbArc
 50
90.0
 51
180.0
  0
ARC
  5
2C4
330
2
100
AcDbEntity
  8
0
100
AcDbCircle
 10
4.84398859025961
 20
11.54185610056119
 30
0.0
 40
0.11
100
AcDbArc
 50
90.0
 51
178.5900010943919
  0
LINE
  5
2C5
330
2
100
AcDbEntity
  8
0
100
AcDbLine
 10
5.468884605429317
 20
11.51331283090729
 30
0.0
 11
5.46888460542932
 21
11.54456283090729
 31
0.0
  0
LINE
  5
2C6
330
2
100
AcDbEntity
  8
0
100
AcDbLine
 10
5.718884605429317
 20
11.51331283090729
 30
0.0
 11
5.71888460542932
 21
11.54456283090729
 31
0.0
  0
LINE
  5
2C7
330
2
100
AcDbEntity
  8
0
100
AcDbLine
 10
5.656384605429317
 20
11.45081283090729
 30
0.0
 11
5.531384605429317
 21
11.45081283090729
 31
0.0
  0
ARC
  5
2C8
330
2
100
AcDbEntity
  8
0
100
AcDbCircle
 10
5.531384605429317
 20
11.51331283090729
 30
0.0
 40
0.0625
100
AcDbArc
 50
180.0
 51
270.0
  0
ARC
  5
2C9
330
2
100
AcDbEntity
  8
0
100
AcDbCircle
 10
5.656384605429317
 20
11.51331283090729
 30
0.0
 40
0.0625
100
AcDbArc
 50
270.0
 51
0.0
  0
LINE
  5
2CA
330
2
100
AcDbEntity
  8
0
100
AcDbLine
 10
5.985908943888656
 20
11.57257594075075
 30
0.0
 11
5.985908943888656
 21
11.65185610056119
 31
0.0
  0
ARC
  5
2CB
330
2
100
AcDbEntity
  8
0
100
AcDbCircle
 10
7.093884605429317
 20
11.51331283090729
 30
0.0
 40
0.0625
100
AcDbArc
 50
180.0000000000005
 51
270.0000000000008
  0
LINE
  5
2CC
330
2
100
AcDbEntity
  8
0
100
AcDbLine
 10
7.031384605429317
 20
11.51331283090729
 30
0.0
 11
7.031384605429317
 21
11.54456283090729
 31
0.0
  0
LINE
  5
2CD
330
2
100
AcDbEntity
  8
0
100
AcDbLine
 10
7.218884605429317
 20
11.45081283090729
 30
0.0
 11
7.09388460542932
 21
11.45081283090729
 31
0.0
  0
LINE
  5
2CE
330
2
100
AcDbEntity
  8
0
100
AcDbLine
 10
7.281384605429317
 20
11.51331283090729
 30
0.0
 11
7.281384605429317
 21
11.54456283090729
 31
0.0
  0
ARC
  5
2CF
330
2
100
AcDbEntity
  8
0
100
AcDbCircle
 10
7.218884605429317
 20
11.51331283090729
 30
0.0
 40
0.0625
100
AcDbArc
 50
270.000000000001
 51
0.0000000000005089
  0
LINE
  5
2D0
330
2
100
AcDbEntity
  8
0
100
AcDbLine
 10
6.814158877639368
 20
11.57676553038798
 30
0.0
 11
6.814158877639368
 21
11.65604569019843
 31
0.0
  0
LINE
  5
2D1
330
2
100
AcDbEntity
  8
0
100
AcDbLine
 10
8.016247313787666
 20
9.044562830907292
 30
0.0
 11
8.016247313787666
 21
11.54604569019843
 31
0.0
  0
LINE
  5
2D2
330
2
100
AcDbEntity
  8
0
100
AcDbLine
 10
7.937739557631822
 20
11.51476553038798
 30
0.0
 11
7.937739557631822
 21
9.044562830907292
 31
0.0
  0
LINE
  5
2D3
330
2
100
AcDbEntity
  8
0
100
AcDbLine
 10
8.007639823686212
 20
7.19917752489407
 30
0.0
 11
8.007639823686212
 21
5.259353993344767
 31
0.0
  0
LINE
  5
2D4
330
2
100
AcDbEntity
  8
0
100
AcDbLine
 10
7.928709823686212
 20
5.259353993344767
 30
0.0
 11
7.928709823686212
 21
7.199187768359693
 31
0.0
  0
LWPOLYLINE
  5
2D5
330
2
100
AcDbEntity
  8
0
100
AcDbPolyline
 90
        6
 70
     1
 43
0.0
 10
11.68990298314704
 20
4.620131619242716
 10
11.50691504192084
 20
4.571100147825545
 42
0.5773502686101053
 10
11.49290605022069
 20
4.518817878855995
 10
11.62686252052914
 20
4.38486140854754
 42
0.5773502697691459
 10
11.67914478952682
 20
4.398870400352644
 10
11.72817626037803
 20
4.58185834201173
 42
0.5773502691896258
  0
LINE
  5
2D6
330
2
100
AcDbEntity
  8
0
100
AcDbLine
 10
11.27680127445997
 20
7.196965572574129
 30
0.0
 11
12.73635084573077
 21
7.196806834434918
 31
0.0
  0
LINE
  5
2D7
330
2
100
AcDbEntity
  8
0
100
AcDbLine
 10
7.937739557631822
 20
10.16956283090729
 30
0.0
 11
8.016247313787666
 21
10.16956283090729
 31
0.0
  0
ARC
  5
2D8
330
2
100
AcDbEntity
  8
0
100
AcDbCircle
 10
7.906247313787663
 20
11.54604569019843
 30
0.0
 40
0.11
100
AcDbArc
 50
359.9999999999999
 51
90.0
  0
ARC
  5
2D9
330
2
100
AcDbEntity
  8
0
100
AcDbCircle
 10
7.875739557631814
 20
11.51476553038798
 30
0.0
 40
0.062
100
AcDbArc
 50
359.9999999999999
 51
90.0
  0
LINE
  5
2DA
330
2
100
AcDbEntity
  8
0
100
AcDbLine
 10
8.016247313787662
 20
11.54604569019843
 30
0.0
 11
8.016247313787662
 21
11.54456283090729
 31
0.0
  0
ENDSEC
  0
SECTION
  2
OBJECTS
  0
DICTIONARY
  5
7
330
0
100
AcDbDictionary
281
     1
  3
ACAD_COLOR
350
2E5
  3
ACAD_GROUP
350
1F
  3
ACAD_LAYOUT
350
B
  3
ACAD_MATERIAL
350
2E4
  3
ACAD_MLINESTYLE
350
20
  3
ACAD_PLOTSETTINGS
350
21
  3
ACAD_PLOTSTYLENAME
350
6
  3
ACAD_TABLESTYLE
350
2E6
  3
ACDBHEADERROUNDTRIPXREC
350
2FC
  3
AcDbVariableDictionary
350
96
  0
DICTIONARY
  5
2E5
102
{ACAD_REACTORS
330
7
102
}
330
7
100
AcDbDictionary
281
     1
  0
DICTIONARY
  5
1F
102
{ACAD_REACTORS
330
7
102
}
330
7
100
AcDbDictionary
281
     1
  0
DICTIONARY
  5
B
102
{ACAD_REACTORS
330
7
102
}
330
7
100
AcDbDictionary
281
     1
  3
Layout1
350
F
  3
Model
350
A
  0
DICTIONARY
  5
2E4
102
{ACAD_REACTORS
330
7
102
}
330
7
100
AcDbDictionary
281
     1
  0
DICTIONARY
  5
20
102
{ACAD_REACTORS
330
7
102
}
330
7
100
AcDbDictionary
281
     1
  3
STANDARD
350
23
  0
DICTIONARY
  5
21
102
{ACAD_REACTORS
330
7
102
}
330
7
100
AcDbDictionary
281
     1
  0
ACDBDICTIONARYWDFLT
  5
6
102
{ACAD_REACTORS
330
7
102
}
330
7
100
AcDbDictionary
281
     1
  3
Normal
350
5
100
AcDbDictionaryWithDefault
340
5
  0
DICTIONARY
  5
2E6
102
{ACAD_REACTORS
330
7
102
}
330
7
100
AcDbDictionary
281
     1
  3
Standard
350
2E7
  0
DICTIONARY
  5
2FC
102
{ACAD_REACTORS
330
7
102
}
330
7
100
AcDbDictionary
281
     1
  3
COLORDICT
350
2FD
  3
MATERIALDICT
350
2FE
  0
DICTIONARY
  5
96
102
{ACAD_REACTORS
330
7
102
}
330
7
100
AcDbDictionary
281
     1
  3
CTABLESTYLE
350
2F9
  3
HIDETEXT
350
2FB
  0
LAYOUT
  5
F
102
{ACAD_REACTORS
330
B
102
}
102
{ACAD_XDICTIONARY
360
2FF
102
}
330
B
100
AcDbPlotSettings
  1

  2
Client\ssd-helder#\hp psc 2100 series [UPD:PCL4]
  4

  6

 40
0.0
 41
0.0
 42
0.0
 43
0.0
 44
0.0
 45
0.0
 46
0.0
 47
0.0
 48
0.0
 49
0.0
140
0.0
141
0.0
142
1.0
143
1.0
 70
   688
 72
     0
 73
     0
 74
     5
  7

 75
    16
147
1.0
148
0.0
149
0.0
100
AcDbLayout
  1
Layout1
 70
     0
 71
     1
 10
0.0
 20
0.0
 11
12.0
 21
9.0
 12
0.0
 22
0.0
 32
0.0
 14
1.000000000000000E+20
 24
1.000000000000000E+20
 34
1.000000000000000E+20
 15
-1.000000000000000E+20
 25
-1.000000000000000E+20
 35
-1.000000000000000E+20
146
0.0
 13
0.0
 23
0.0
 33
0.0
 16
1.0
 26
0.0
 36
0.0
 17
0.0
 27
1.0
 37
0.0
 76
     0
330
C
  0
LAYOUT
  5
A
102
{ACAD_REACTORS
330
B
102
}
102
{ACAD_XDICTIONARY
360
301
102
}
330
B
100
AcDbPlotSettings
  1

  2
Client\ssd-helder#\hp psc 2100 series [UPD:PCL4]
  4

  6

 40
0.0
 41
0.0
 42
0.0
 43
0.0
 44
0.0
 45
0.0
 46
0.0
 47
0.0
 48
0.0
 49
0.0
140
0.0
141
0.0
142
1.0
143
1.0
 70
  1712
 72
     0
 73
     0
 74
     0
  7

 75
     0
147
1.0
148
0.0
149
0.0
100
AcDbLayout
  1
Model
 70
     1
 71
     0
 10
0.0
 20
0.0
 11
12.0
 21
9.0
 12
0.0
 22
0.0
 32
0.0
 14
0.0
 24
0.0
 34
0.0
 15
0.0
 25
0.0
 35
0.0
146
0.0
 13
0.0
 23
0.0
 33
0.0
 16
1.0
 26
0.0
 36
0.0
 17
0.0
 27
1.0
 37
0.0
 76
     0
330
2
  0
MLINESTYLE
  5
23
102
{ACAD_REACTORS
330
20
102
}
330
20
100
AcDbMlineStyle
  2
STANDARD
 70
     0
  3

 62
   256
 51
90.0
 52
90.0
 71
     2
 49
0.5
 62
   256
  6
BYLAYER
 49
-0.5
 62
   256
  6
BYLAYER
  0
ACDBPLACEHOLDER
  5
5
102
{ACAD_REACTORS
330
6
102
}
330
6
  0
ACAD_PROXY_OBJECT
  5
2E7
102
{ACAD_REACTORS
330
2E6
102
}
330
2E6
100
AcDbProxyObject
 90
      499
 91
      504
 95
   983063
 70
     0
 93
     1841
310
4214DD185B99185C9928B81E85EB51B8AE3F2E07A17AD46E2B8FC02B5E8DC0F42B1CFD028000000C1008070000C3001FDFF8000000C1003FBFF000000182007F7FE00000030400FEFFC00000060801FDFF8000000C1003FBFF00000018200000000000000681FA0B0000001820100E000186003FBFF000000182007F7FE000
310
00030400FEFFC00000060801FDFF8000000C1003FBFF000000182007F7FE000000304000AD7A3703D0AC73F4160000003040201C00030C007F7FE00000030400FEFFC00000060801FDFF8000000C1003FBFF000000182007F7FE00000030400FEFFC000000608000
340
12
340
12
340
12
 94
        0
  0
XRECORD
  5
2FD
102
{ACAD_REACTORS
330
2FC
102
}
330
2FC
100
AcDbXrecord
340
2E5
  0
XRECORD
  5
2FE
102
{ACAD_REACTORS
330
2FC
102
}
330
2FC
100
AcDbXrecord
340
2E4
  0
DICTIONARYVAR
  5
2F9
102
{ACAD_REACTORS
330
96
102
}
330
96
100
DictionaryVariables
280
     0
  1
STANDARD
  0
DICTIONARYVAR
  5
2FB
102
{ACAD_REACTORS
330
96
102
}
330
96
100
DictionaryVariables
280
     0
  1
0
  0
DICTIONARY
  5
2FF
330
F
100
AcDbDictionary
280
     1
281
     1
  3
ACAD_XREC_ROUNDTRIP
360
300
  0
DICTIONARY
  5
301
330
A
100
AcDbDictionary
280
     1
281
     1
  3
ACAD_XREC_ROUNDTRIP
360
302
  0
XRECORD
  5
300
102
{ACAD_REACTORS
330
2FF
102
}
330
2FF
100
AcDbXrecord
102
SHADEPLOT
 70
     0
102
SHADEPLOTRESLEVEL
 70
     2
102
SHADEPLOTCUSTOMDPI
 70
   300
  0
XRECORD
  5
302
102
{ACAD_REACTORS
330
301
102
}
330
301
100
AcDbXrecord
102
SHADEPLOT
 70
     0
102
SHADEPLOTRESLEVEL
 70
     2
102
SHADEPLOTCUSTOMDPI
 70
   300
  0
ENDSEC
  0
EOF
