  0
SECTION
  2
HEADER
  9
$ACADVER
  1
AC1015
  9
$ACADMAINTVER
 70
     6
  9
$DWGCODEPAGE
  3
ANSI_1252
  9
$INSBASE
 10
0.0
 20
0.0
 30
0.0
  9
$EXTMIN
 10
-7.76970336310626
 20
-0.0424796135876662
 30
-0.0000000000112498
  9
$EXTMAX
 10
7.77147066041185
 20
15.65861180239926
 30
0.0000000000002956
  9
$LIMMIN
 10
0.0
 20
0.0
  9
$LIMMAX
 10
31.5
 20
24.0
  9
$ORTHOMODE
 70
     1
  9
$REGENMODE
 70
     1
  9
$FILLMODE
 70
     1
  9
$QTEXTMODE
 70
     0
  9
$MIRRTEXT
 70
     1
  9
$LTSCALE
 40
1.0
  9
$ATTMODE
 70
     1
  9
$TEXTSIZE
 40
0.27
  9
$TRACEWID
 40
0.05
  9
$TEXTSTYLE
  7
STANDARD
  9
$CLAYER
  8
0
  9
$CELTYPE
  6
BYLAYER
  9
$CECOLOR
 62
   256
  9
$CELTSCALE
 40
1.0
  9
$DISPSILH
 70
     0
  9
$DIMSCALE
 40
1.0
  9
$DIMASZ
 40
0.375
  9
$DIMEXO
 40
0.0625
  9
$DIMDLI
 40
0.75
  9
$DIMRND
 40
0.0
  9
$DIMDLE
 40
0.0
  9
$DIMEXE
 40
0.18
  9
$DIMTP
 40
0.0
  9
$DIMTM
 40
0.0
  9
$DIMTXT
 40
0.27
  9
$DIMCEN
 40
0.062
  9
$DIMTSZ
 40
0.0
  9
$DIMTOL
 70
     0
  9
$DIMLIM
 70
     0
  9
$DIMTIH
 70
     1
  9
$DIMTOH
 70
     1
  9
$DIMSE1
 70
     0
  9
$DIMSE2
 70
     0
  9
$DIMTAD
 70
     0
  9
$DIMZIN
 70
     0
  9
$DIMBLK
  1

  9
$DIMASO
 70
     0
  9
$DIMSHO
 70
     0
  9
$DIMPOST
  1

  9
$DIMAPOST
  1

  9
$DIMALT
 70
     0
  9
$DIMALTD
 70
     2
  9
$DIMALTF
 40
25.4
  9
$DIMLFAC
 40
1.0
  9
$DIMTOFL
 70
     0
  9
$DIMTVP
 40
0.0
  9
$DIMTIX
 70
     0
  9
$DIMSOXD
 70
     0
  9
$DIMSAH
 70
     0
  9
$DIMBLK1
  1

  9
$DIMBLK2
  1

  9
$DIMSTYLE
  2
STANDARD
  9
$DIMCLRD
 70
     0
  9
$DIMCLRE
 70
     0
  9
$DIMCLRT
 70
     0
  9
$DIMTFAC
 40
1.0
  9
$DIMGAP
 40
0.09
  9
$DIMJUST
 70
     0
  9
$DIMSD1
 70
     0
  9
$DIMSD2
 70
     0
  9
$DIMTOLJ
 70
     1
  9
$DIMTZIN
 70
     0
  9
$DIMALTZ
 70
     0
  9
$DIMALTTZ
 70
     0
  9
$DIMUPT
 70
     0
  9
$DIMDEC
 70
     3
  9
$DIMTDEC
 70
     3
  9
$DIMALTU
 70
     2
  9
$DIMALTTD
 70
     2
  9
$DIMTXSTY
  7
STANDARD
  9
$DIMAUNIT
 70
     0
  9
$DIMADEC
 70
     0
  9
$DIMALTRND
 40
0.0
  9
$DIMAZIN
 70
     0
  9
$DIMDSEP
 70
    46
  9
$DIMATFIT
 70
     3
  9
$DIMFRAC
 70
     0
  9
$DIMLDRBLK
  1

  9
$DIMLUNIT
 70
     2
  9
$DIMLWD
 70
    -2
  9
$DIMLWE
 70
    -2
  9
$DIMTMOVE
 70
     2
  9
$LUNITS
 70
     2
  9
$LUPREC
 70
     3
  9
$SKETCHINC
 40
0.1
  9
$FILLETRAD
 40
0.0
  9
$AUNITS
 70
     0
  9
$AUPREC
 70
     0
  9
$MENU
  1
ACAD
  9
$ELEVATION
 40
0.0
  9
$PELEVATION
 40
0.0
  9
$THICKNESS
 40
0.0
  9
$LIMCHECK
 70
     0
  9
$CHAMFERA
 40
0.0
  9
$CHAMFERB
 40
0.0
  9
$CHAMFERC
 40
0.0
  9
$CHAMFERD
 40
0.0
  9
$SKPOLY
 70
     0
  9
$TDCREATE
 40
2450304.968618634
  9
$TDUCREATE
 40
2450305.301951968
  9
$TDUPDATE
 40
2454165.868358565
  9
$TDUUPDATE
 40
2454166.201691898
  9
$TDINDWG
 40
0.0665310532
  9
$TDUSRTIMER
 40
0.0665310532
  9
$USRTIMER
 70
     1
  9
$ANGBASE
 50
0.0
  9
$ANGDIR
 70
     0
  9
$PDMODE
 70
     0
  9
$PDSIZE
 40
0.0
  9
$PLINEWID
 40
0.1
  9
$SPLFRAME
 70
     0
  9
$SPLINETYPE
 70
     6
  9
$SPLINESEGS
 70
     8
  9
$HANDSEED
  5
1ED
  9
$SURFTAB1
 70
     6
  9
$SURFTAB2
 70
     6
  9
$SURFTYPE
 70
     6
  9
$SURFU
 70
     6
  9
$SURFV
 70
     6
  9
$UCSBASE
  2

  9
$UCSNAME
  2

  9
$UCSORG
 10
0.0
 20
0.0
 30
0.0
  9
$UCSXDIR
 10
1.0
 20
0.0
 30
0.0
  9
$UCSYDIR
 10
0.0
 20
1.0
 30
0.0
  9
$UCSORTHOREF
  2

  9
$UCSORTHOVIEW
 70
     0
  9
$UCSORGTOP
 10
0.0
 20
0.0
 30
0.0
  9
$UCSORGBOTTOM
 10
0.0
 20
0.0
 30
0.0
  9
$UCSORGLEFT
 10
0.0
 20
0.0
 30
0.0
  9
$UCSORGRIGHT
 10
0.0
 20
0.0
 30
0.0
  9
$UCSORGFRONT
 10
0.0
 20
0.0
 30
0.0
  9
$UCSORGBACK
 10
0.0
 20
0.0
 30
0.0
  9
$PUCSBASE
  2

  9
$PUCSNAME
  2

  9
$PUCSORG
 10
0.0
 20
0.0
 30
0.0
  9
$PUCSXDIR
 10
1.0
 20
0.0
 30
0.0
  9
$PUCSYDIR
 10
0.0
 20
1.0
 30
0.0
  9
$PUCSORTHOREF
  2

  9
$PUCSORTHOVIEW
 70
     0
  9
$PUCSORGTOP
 10
0.0
 20
0.0
 30
0.0
  9
$PUCSORGBOTTOM
 10
0.0
 20
0.0
 30
0.0
  9
$PUCSORGLEFT
 10
0.0
 20
0.0
 30
0.0
  9
$PUCSORGRIGHT
 10
0.0
 20
0.0
 30
0.0
  9
$PUCSORGFRONT
 10
0.0
 20
0.0
 30
0.0
  9
$PUCSORGBACK
 10
0.0
 20
0.0
 30
0.0
  9
$USERI1
 70
     0
  9
$USERI2
 70
     0
  9
$USERI3
 70
     0
  9
$USERI4
 70
     0
  9
$USERI5
 70
     0
  9
$USERR1
 40
0.0
  9
$USERR2
 40
0.0
  9
$USERR3
 40
0.0
  9
$USERR4
 40
0.0
  9
$USERR5
 40
0.0
  9
$WORLDVIEW
 70
     1
  9
$SHADEDGE
 70
     3
  9
$SHADEDIF
 70
    70
  9
$TILEMODE
 70
     1
  9
$MAXACTVP
 70
    16
  9
$PINSBASE
 10
0.0
 20
0.0
 30
0.0
  9
$PLIMCHECK
 70
     0
  9
$PEXTMIN
 10
1.000000000000000E+20
 20
1.000000000000000E+20
 30
1.000000000000000E+20
  9
$PEXTMAX
 10
-1.000000000000000E+20
 20
-1.000000000000000E+20
 30
-1.000000000000000E+20
  9
$PLIMMIN
 10
0.0
 20
0.0
  9
$PLIMMAX
 10
12.0
 20
9.0
  9
$UNITMODE
 70
     0
  9
$VISRETAIN
 70
     0
  9
$PLINEGEN
 70
     0
  9
$PSLTSCALE
 70
     0
  9
$TREEDEPTH
 70
  3020
  9
$CMLSTYLE
  2
STANDARD
  9
$CMLJUST
 70
     0
  9
$CMLSCALE
 40
1.0
  9
$PROXYGRAPHICS
 70
     1
  9
$MEASUREMENT
 70
     0
  9
$CELWEIGHT
370
    -1
  9
$ENDCAPS
280
     0
  9
$JOINSTYLE
280
     0
  9
$LWDISPLAY
290
     0
  9
$INSUNITS
 70
     0
  9
$HYPERLINKBASE
  1

  9
$STYLESHEET
  1

  9
$XEDIT
290
     1
  9
$CEPSNTYPE
380
     0
  9
$PSTYLEMODE
290
     1
  9
$FINGERPRINTGUID
  2
{73FC3860-9D2F-4134-AE23-9E5E07FAD26C}
  9
$VERSIONGUID
  2
{7CAFF386-7866-472C-9CBF-066893150684}
  9
$EXTNAMES
290
     1
  9
$PSVPSCALE
 40
0.0
  9
$OLESTARTUP
290
     0
  0
ENDSEC
  0
SECTION
  2
CLASSES
  0
CLASS
  1
DICTIONARYVAR
  2
AcDbDictionaryVar
  3
AutoCAD 2000
 90
        0
280
     0
281
     0
  0
CLASS
  1
LWPOLYLINE
  2
AcDbPolyline
  3
AutoCAD 2000
 90
        0
280
     0
281
     1
  0
CLASS
  1
ACDBDICTIONARYWDFLT
  2
AcDbDictionaryWithDefault
  3
AutoCAD 2000
 90
        0
280
     0
281
     0
  0
CLASS
  1
ACDBPLACEHOLDER
  2
AcDbPlaceHolder
  3
ObjectDBX Classes
 90
        0
280
     0
281
     0
  0
CLASS
  1
LAYOUT
  2
AcDbLayout
  3
ObjectDBX Classes
 90
        0
280
     0
281
     0
  0
CLASS
  1
LONG_TRANSACTION
  2
AcDbLongTransaction
  3
ObjectDBX Classes
 90
   -65536
280
     1
281
     0
  0
CLASS
  1
LWPOLYLINE
  2
AcDbPolyline
  3
AutoCAD 2000
 90
        0
280
     0
281
     1
  0
CLASS
  1
HATCH
  2
AcDbHatch
  3
AutoCAD 2000
 90
        0
280
     0
281
     1
  0
CLASS
  1
XRECORD
  2
AcDbXrecord
  3
AutoCAD 2000
 90
        0
280
     0
281
     0
  0
CLASS
  1
LONG_TRANSACTION
  2
AcDbLongTransaction
  3
ObjectDBX Classes
 90
   -65536
280
     1
281
     0
  0
CLASS
  1
LWPOLYLINE
  2
AcDbPolyline
  3
AutoCAD 2000
 90
        0
280
     0
281
     1
  0
CLASS
  1
HATCH
  2
AcDbHatch
  3
AutoCAD 2000
 90
        0
280
     0
281
     1
  0
CLASS
  1
XRECORD
  2
AcDbXrecord
  3
AutoCAD 2000
 90
        0
280
     0
281
     0
  0
CLASS
  1
LONG_TRANSACTION
  2
AcDbLongTransaction
  3
ObjectDBX Classes
 90
   -65536
280
     1
281
     0
  0
CLASS
  1
LWPOLYLINE
  2
AcDbPolyline
  3
AutoCAD 2000
 90
        0
280
     0
281
     1
  0
CLASS
  1
HATCH
  2
AcDbHatch
  3
AutoCAD 2000
 90
        0
280
     0
281
     1
  0
CLASS
  1
XRECORD
  2
AcDbXrecord
  3
AutoCAD 2000
 90
        0
280
     0
281
     0
  0
CLASS
  1
TABLESTYLE
  2
AcDbTableStyle
  3
ObjectDBX Classes
 90
     2047
280
     1
281
     0
  0
ENDSEC
  0
SECTION
  2
TABLES
  0
TABLE
  2
VPORT
  5
1D
330
0
100
AcDbSymbolTable
 70
     4
  0
VPORT
  5
1DE
330
1D
100
AcDbSymbolTableRecord
100
AcDbViewportTableRecord
  2
*Active
 70
     0
 10
0.0
 20
0.0
 11
1.0
 21
1.0
 12
11.86514831844687
 22
11.97876019320617
 13
0.0
 23
0.0
 14
0.0625
 24
0.0625
 15
0.5
 25
0.5
 16
0.0
 26
0.0
 36
1.0
 17
0.0
 27
0.0
 37
0.0
 40
24.34238580419375
 41
1.814583333333333
 42
50.0
 43
0.0
 44
0.0
 50
0.0
 51
0.0
 71
     0
 72
  1000
 73
     1
 74
     0
 75
     0
 76
     0
 77
     0
 78
     0
281
     0
 65
     1
110
0.0
120
0.0
130
0.0
111
1.0
121
0.0
131
0.0
112
0.0
122
1.0
132
0.0
 79
     0
146
0.0
  0
ENDTAB
  0
TABLE
  2
LTYPE
  5
18
330
0
100
AcDbSymbolTable
 70
     2
  0
LTYPE
  5
19
330
18
100
AcDbSymbolTableRecord
100
AcDbLinetypeTableRecord
  2
BYBLOCK
 70
     0
  3

 72
    65
 73
     0
 40
0.0
  0
LTYPE
  5
1A
330
18
100
AcDbSymbolTableRecord
100
AcDbLinetypeTableRecord
  2
BYLAYER
 70
     0
  3

 72
    65
 73
     0
 40
0.0
  0
LTYPE
  5
A
330
18
100
AcDbSymbolTableRecord
100
AcDbLinetypeTableRecord
  2
CONTINUOUS
 70
     0
  3
Solid line
 72
    65
 73
     0
 40
0.0
  0
LTYPE
  5
1DD
330
18
100
AcDbSymbolTableRecord
100
AcDbLinetypeTableRecord
  2
HIDDEN
 70
     0
  3
Hidden __ __ __ __ __ __ __ __ __ __ __ __ __ _
 72
    65
 73
     2
 40
0.375
 49
0.25
 74
     0
 49
-0.125
 74
     0
  0
ENDTAB
  0
TABLE
  2
LAYER
  5
14
330
0
100
AcDbSymbolTable
 70
     2
  0
LAYER
  5
6
330
14
100
AcDbSymbolTableRecord
100
AcDbLayerTableRecord
  2
0
 70
     0
 62
     7
  6
CONTINUOUS
370
    -3
390
7
  0
ENDTAB
  0
TABLE
  2
STYLE
  5
15
330
0
100
AcDbSymbolTable
 70
     2
  0
STYLE
  5
16
330
15
100
AcDbSymbolTableRecord
100
AcDbTextStyleTableRecord
  2
STANDARD
 70
     0
 40
0.0
 41
1.0
 50
0.0
 71
     0
 42
0.27
  3
TXT
  4

  0
STYLE
  5
1DC
330
15
100
AcDbSymbolTableRecord
100
AcDbTextStyleTableRecord
  2

 70
     1
 40
0.0
 41
1.0
 50
0.0
 71
     0
 42
0.27
  3
ltypeshp.shx
  4

  0
ENDTAB
  0
TABLE
  2
VIEW
  5
1B
330
0
100
AcDbSymbolTable
 70
     0
  0
ENDTAB
  0
TABLE
  2
UCS
  5
1C
330
0
100
AcDbSymbolTable
 70
     0
  0
ENDTAB
  0
TABLE
  2
APPID
  5
1F
330
0
100
AcDbSymbolTable
 70
     1
  0
APPID
  5
20
330
1F
100
AcDbSymbolTableRecord
100
AcDbRegAppTableRecord
  2
ACAD
 70
     0
  0
ENDTAB
  0
TABLE
  2
DIMSTYLE
  5
21
330
0
100
AcDbSymbolTable
 70
     1
100
AcDbDimStyleTable
  0
DIMSTYLE
105
28
330
21
100
AcDbSymbolTableRecord
100
AcDbDimStyleTableRecord
  2
STANDARD
 70
     0
  3

  4

340
16
  0
ENDTAB
  0
TABLE
  2
BLOCK_RECORD
  5
1
330
0
100
AcDbSymbolTable
 70
     0
  0
BLOCK_RECORD
  5
2
330
1
100
AcDbSymbolTableRecord
100
AcDbBlockTableRecord
  2
*MODEL_SPACE
340
C
  0
BLOCK_RECORD
  5
E
330
1
100
AcDbSymbolTableRecord
100
AcDbBlockTableRecord
  2
*PAPER_SPACE
340
13
  0
ENDTAB
  0
ENDSEC
  0
SECTION
  2
BLOCKS
  0
BLOCK
  5
5
330
2
100
AcDbEntity
  8
0
100
AcDbBlockBegin
  2
*MODEL_SPACE
 70
     0
 10
0.0
 20
0.0
 30
0.0
  3
*MODEL_SPACE
  1

  4

  0
ENDBLK
  5
B
330
2
100
AcDbEntity
  8
0
100
AcDbBlockEnd
  0
BLOCK
  5
11
330
E
100
AcDbEntity
 67
     1
  8
0
100
AcDbBlockBegin
  2
*PAPER_SPACE
 70
     0
 10
0.0
 20
0.0
 30
0.0
  3
*PAPER_SPACE
  1

  4

  0
ENDBLK
  5
12
330
E
100
AcDbEntity
 67
     1
  8
0
100
AcDbBlockEnd
  0
ENDSEC
  0
SECTION
  2
ENTITIES
  0
LINE
  5
E0
330
2
100
AcDbEntity
  8
0
100
AcDbLine
 10
5.609387683573413
 20
0.0205099999999994
 30
0.0
 11
7.601081683573415
 21
0.0205099999999994
 31
0.0
  0
LINE
  5
E1
330
2
100
AcDbEntity
  8
0
100
AcDbLine
 10
6.663577683573418
 20
2.137840000000002
 30
0.0
 11
5.609387683573413
 21
0.3893199999999992
 31
0.0
  0
LINE
  5
E2
330
2
100
AcDbEntity
  8
0
  6
HIDDEN
100
AcDbLine
 10
5.609387683573413
 20
0.0830099999999994
 30
0.0
 11
7.601081683573415
 21
0.0830099999999994
 31
0.0
  0
LINE
  5
E3
330
2
100
AcDbEntity
  8
0
100
AcDbLine
 10
5.609387683573413
 20
0.0205099999999994
 30
0.0
 11
5.609387683573413
 21
0.3893199999999992
 31
0.0
  0
LINE
  5
E4
330
2
100
AcDbEntity
  8
0
  6
HIDDEN
100
AcDbLine
 10
7.601081683573415
 20
0.4332599999999975
 30
0.0
 11
7.601081683573408
 21
10.38991377174712
 31
0.0
  0
LINE
  5
E5
330
2
100
AcDbEntity
  8
0
100
AcDbLine
 10
6.663577683573418
 20
10.39003544018743
 30
0.0
 11
6.663577683573418
 21
2.137840000000002
 31
0.0
  0
LINE
  5
E6
330
2
100
AcDbEntity
  8
0
100
AcDbLine
 10
7.707037683573415
 20
0.4332599999999984
 30
0.0
 11
7.707037683573415
 21
10.38990002087111
 31
0.0
  0
CIRCLE
  5
E8
330
2
100
AcDbEntity
  8
0
100
AcDbCircle
 10
7.007427683573415
 20
1.028571767075606
 30
0.0
 40
0.109
  0
LINE
  5
EA
330
2
100
AcDbEntity
  8
0
100
AcDbLine
 10
7.601081683573415
 20
0.4332599999999984
 30
0.0
 11
7.601081683573415
 21
0.0203499999999983
 31
0.0
  0
LINE
  5
EB
330
2
100
AcDbEntity
  8
0
100
AcDbLine
 10
7.601081683573415
 20
0.4332599999999984
 30
0.0
 11
7.707037683573415
 21
0.4332599999999984
 31
0.0
  0
CIRCLE
  5
EF
330
2
100
AcDbEntity
  8
0
100
AcDbCircle
 10
7.007427683573415
 20
2.95172
 30
0.0
 40
0.109
  0
ARC
  5
F0
330
2
100
AcDbEntity
  8
0
100
AcDbCircle
 10
7.615590919497102
 20
2.57633065207553
 30
0.0
 40
0.1535427933200886
100
AcDbArc
 50
53.51107369463321
 51
306.4889263053668
  0
LINE
  5
F1
330
2
100
AcDbEntity
  8
0
100
AcDbLine
 10
7.601148115956626
 20
2.730754519318473
 30
0.0
 11
7.601148115956626
 21
2.423668932678296
 31
0.0
  0
CIRCLE
  5
F8
330
2
100
AcDbEntity
  8
0
100
AcDbCircle
 10
7.007427683573415
 20
6.398021043764892
 30
0.0
 40
0.109
  0
LINE
  5
FB
330
2
100
AcDbEntity
  8
0
100
AcDbLine
 10
6.663577683573418
 20
10.39003544018743
 30
0.0
 11
7.707037683573415
 21
10.38990002087111
 31
0.0
  0
LINE
  5
FC
330
2
100
AcDbEntity
  8
0
100
AcDbLine
 10
-0.6466114641370231
 20
10.39218127683902
 30
0.0
 11
-0.6466039467781561
 21
1.694653527535557
 31
0.0
  0
LINE
  5
FD
330
2
100
AcDbEntity
  8
0
100
AcDbLine
 10
1.800709999999998
 20
5.13922
 30
0.0
 11
1.800709999999998
 21
10.39155377501493
 31
0.0
  0
LINE
  5
FE
330
2
100
AcDbEntity
  8
0
100
AcDbLine
 10
1.879639999999998
 20
9.014220000000002
 30
0.0
 11
1.879639999999998
 21
5.13922
 31
0.0
  0
LINE
  5
FF
330
2
100
AcDbEntity
  8
0
100
AcDbLine
 10
-1.879639999999998
 20
10.39203140758429
 30
0.0
 11
-1.879639999999998
 21
1.129399999999998
 31
0.0
  0
LINE
  5
100
330
2
100
AcDbEntity
  8
0
100
AcDbLine
 10
-1.80103
 20
10.39202120564799
 30
0.0
 11
-1.80103
 21
1.129399999999998
 31
0.0
  0
LINE
  5
101
330
2
100
AcDbEntity
  8
0
100
AcDbLine
 10
0.6584967246631015
 20
10.39139583085731
 30
0.0
 11
0.6584892079831013
 21
1.694653527535557
 31
0.0
  0
LINE
  5
102
330
2
100
AcDbEntity
  8
0
100
AcDbLine
 10
1.796589636712304
 20
0.216799999999997
 30
0.0
 11
0.6584892079830942
 21
1.694653527535559
 31
0.0
  0
LINE
  5
103
330
2
100
AcDbEntity
  8
0
100
AcDbLine
 10
-1.679640000000002
 20
0.0000000000000004
 30
0.0
 11
1.679640000000002
 21
-0.0000000000000022
 31
0.0
  0
LINE
  5
104
330
2
100
AcDbEntity
  8
0
100
AcDbLine
 10
-1.676045926129381
 20
0.0793700010145648
 30
0.0
 11
1.675689999999999
 21
0.0790699999999993
 31
0.0
  0
LINE
  5
105
330
2
100
AcDbEntity
  8
0
100
AcDbLine
 10
-1.784704375507359
 20
0.216799999999997
 30
0.0
 11
-0.646603946778149
 21
1.694653527535559
 31
0.0
  0
LINE
  5
106
330
2
100
AcDbEntity
  8
0
100
AcDbLine
 10
-1.80103
 20
1.13922
 30
0.0
 11
-1.80103
 21
0.2015099999999968
 31
0.0
  0
LINE
  5
107
330
2
100
AcDbEntity
  8
0
100
AcDbLine
 10
-1.879639999999998
 20
1.13922
 30
0.0
 11
-1.879639999999998
 21
0.1971900000000004
 31
0.0
  0
ARC
  5
108
330
2
100
AcDbEntity
  8
0
100
AcDbCircle
 10
-1.67603
 20
0.2043699999999986
 30
0.0
 40
0.125
100
AcDbArc
 50
180.0
 51
269.9927
  0
ARC
  5
109
330
2
100
AcDbEntity
  8
0
100
AcDbCircle
 10
-1.679640000000002
 20
0.2000000000000006
 30
0.0
 40
0.2
100
AcDbArc
 50
180.0
 51
270.0
  0
LINE
  5
10A
330
2
100
AcDbEntity
  8
0
100
AcDbLine
 10
-0.8786208077351159
 20
0.0791099999999978
 30
0.0
 11
-0.8784116451133386
 21
-0.0007699999999979
 31
0.0
  0
CIRCLE
  5
10B
330
2
100
AcDbEntity
  8
0
100
AcDbCircle
 10
-1.409114375507357
 20
1.41974628639443
 30
0.0
 40
0.109
  0
LINE
  5
10C
330
2
100
AcDbEntity
  8
0
100
AcDbLine
 10
-0.5524291343244938
 20
0.0793672745262159
 30
0.0
 11
-0.2602745329158323
 21
0.0793672745262159
 31
0.0
  0
LINE
  5
10D
330
2
100
AcDbEntity
  8
0
100
AcDbLine
 10
-0.6642632753011784
 20
0.0791099999999978
 30
0.0
 11
-0.6642632753011792
 21
-0.0007699999999979
 31
0.0
  0
LINE
  5
10E
330
2
100
AcDbEntity
  8
0
100
AcDbLine
 10
0.6482367246988208
 20
0.0792033419777423
 30
0.0
 11
0.6482367246988208
 21
-0.0000000000000031
 31
0.0
  0
ARC
  5
110
330
2
100
AcDbEntity
  8
0
100
AcDbCircle
 10
-1.799893670328181
 20
2.579019418839436
 30
0.0
 40
0.156
100
AcDbArc
 50
270.0
 51
90.0
  0
CIRCLE
  5
112
330
2
100
AcDbEntity
  8
0
100
AcDbCircle
 10
-0.9671048345510576
 20
1.846385180369885
 30
0.0
 40
0.109
  0
CIRCLE
  5
113
330
2
100
AcDbEntity
  8
0
100
AcDbCircle
 10
-1.345864375507353
 20
2.970254468046139
 30
0.0
 40
0.109
  0
CIRCLE
  5
114
330
2
100
AcDbEntity
  8
0
100
AcDbCircle
 10
-0.9671048345510576
 20
3.897257273393156
 30
0.0
 40
0.109
  0
LINE
  5
115
330
2
100
AcDbEntity
  8
0
100
AcDbLine
 10
1.879639999999998
 20
5.145110000000001
 30
0.0
 11
1.879639999999998
 21
0.1857699999999993
 31
0.0
  0
LINE
  5
116
330
2
100
AcDbEntity
  8
0
100
AcDbLine
 10
1.800709999999998
 20
0.1821800000000002
 30
0.0
 11
1.800709999999998
 21
5.145110000000001
 31
0.0
  0
ARC
  5
117
330
2
100
AcDbEntity
  8
0
100
AcDbCircle
 10
1.675709999999998
 20
0.2040699999999993
 30
0.0
 40
0.125
100
AcDbArc
 50
269.9927
 51
0.0
  0
ARC
  5
118
330
2
100
AcDbEntity
  8
0
100
AcDbCircle
 10
1.679640000000002
 20
0.2000000000000006
 30
0.0
 40
0.2
100
AcDbArc
 50
270.0
 51
0.0
  0
LINE
  5
119
330
2
100
AcDbEntity
  8
0
100
AcDbLine
 10
0.8982367246988252
 20
0.079170897198757
 30
0.0
 11
0.8982367246988234
 21
-0.0000000000000013
 31
0.0
  0
CIRCLE
  5
11A
330
2
100
AcDbEntity
  8
0
100
AcDbCircle
 10
1.420999636712302
 20
1.41974628639443
 30
0.0
 40
0.109
  0
ARC
  5
11C
330
2
100
AcDbEntity
  8
0
100
AcDbCircle
 10
1.800709999999996
 20
2.579019418839436
 30
0.0
 40
0.156
100
AcDbArc
 50
90.0
 51
270.0
  0
CIRCLE
  5
11E
330
2
100
AcDbEntity
  8
0
100
AcDbCircle
 10
0.9789900957560027
 20
1.846385180369885
 30
0.0
 40
0.109
  0
CIRCLE
  5
11F
330
2
100
AcDbEntity
  8
0
100
AcDbCircle
 10
1.357749636712298
 20
2.970254468046139
 30
0.0
 40
0.109
  0
CIRCLE
  5
120
330
2
100
AcDbEntity
  8
0
100
AcDbCircle
 10
0.9789900957560027
 20
3.897257273393156
 30
0.0
 40
0.109
  0
LINE
  5
121
330
2
100
AcDbEntity
  8
0
100
AcDbLine
 10
1.875519636712311
 20
10.39155377501492
 30
0.0
 11
0.6584967246631015
 21
10.39139583085731
 31
0.0
  0
CIRCLE
  5
122
330
2
100
AcDbEntity
  8
0
100
AcDbCircle
 10
-0.9671048345510576
 20
5.474543942501377
 30
0.0
 40
0.109
  0
CIRCLE
  5
123
330
2
100
AcDbEntity
  8
0
100
AcDbCircle
 10
-1.346454375507356
 20
6.696925650979672
 30
0.0
 40
0.109
  0
CIRCLE
  5
124
330
2
100
AcDbEntity
  8
0
100
AcDbCircle
 10
-0.9671048345510576
 20
7.283438833546974
 30
0.0
 40
0.109
  0
LINE
  5
126
330
2
100
AcDbEntity
  8
0
100
AcDbLine
 10
-0.6466114641370231
 20
10.39218127683902
 30
0.0
 11
-1.880024019524103
 21
10.39202120564799
 31
0.0
  0
CIRCLE
  5
127
330
2
100
AcDbEntity
  8
0
100
AcDbCircle
 10
-0.9671048345510576
 20
9.263570677531583
 30
0.0
 40
0.109
  0
LINE
  5
128
330
2
100
AcDbEntity
  8
0
100
AcDbLine
 10
1.879639999999998
 20
10.3915435315493
 30
0.0
 11
1.879639999999998
 21
9.001720000000002
 31
0.0
  0
CIRCLE
  5
129
330
2
100
AcDbEntity
  8
0
100
AcDbCircle
 10
0.9789900957560027
 20
5.474543942501377
 30
0.0
 40
0.109
  0
CIRCLE
  5
12A
330
2
100
AcDbEntity
  8
0
100
AcDbCircle
 10
1.358339636712301
 20
6.696925650979672
 30
0.0
 40
0.109
  0
CIRCLE
  5
12B
330
2
100
AcDbEntity
  8
0
100
AcDbCircle
 10
0.9789900957560027
 20
7.283438833546974
 30
0.0
 40
0.109
  0
CIRCLE
  5
12D
330
2
100
AcDbEntity
  8
0
100
AcDbCircle
 10
0.9789900957560027
 20
9.263570677531583
 30
0.0
 40
0.109
  0
ARC
  5
12E
330
2
100
AcDbEntity
  8
0
100
AcDbCircle
 10
0.8357367246988217
 20
13.72235379210881
 30
0.0
 40
0.0625
100
AcDbArc
 50
359.9999999999989
 51
90.0
  0
ARC
  5
12F
330
2
100
AcDbEntity
  8
0
100
AcDbCircle
 10
0.8468933111737682
 20
15.52297674740416
 30
0.0
 40
0.0625
100
AcDbArc
 50
270.0
 51
0.0
  0
LINE
  5
130
330
2
100
AcDbEntity
  8
0
100
AcDbLine
 10
1.738168331206087
 20
15.55422674740218
 30
0.0
 11
0.6578632097123913
 21
15.55422674740218
 31
0.0
  0
LINE
  5
131
330
2
100
AcDbEntity
  8
0
100
AcDbLine
 10
1.73816848426067
 20
15.63812534917777
 30
0.0
 11
0.6578632097123878
 21
15.63812534917777
 31
0.0
  0
LINE
  5
132
330
2
100
AcDbEntity
  8
0
100
AcDbLine
 10
-1.797745080212132
 20
14.87436461769948
 30
0.0
 11
-1.797745080212128
 21
13.69110379210881
 31
0.0
  0
LINE
  5
133
330
2
100
AcDbEntity
  8
0
100
AcDbLine
 10
-1.867875983659528
 20
13.69110379210881
 30
0.0
 11
-1.867875983659528
 21
14.86415203081618
 31
0.0
  0
LINE
  5
134
330
2
100
AcDbEntity
  8
0
100
AcDbLine
 10
-0.8517632753011784
 20
13.78485379210881
 30
0.0
 11
-0.7267632753011784
 21
13.78485379210881
 31
0.0
  0
ARC
  5
135
330
2
100
AcDbEntity
  8
0
100
AcDbCircle
 10
-0.8517632753011784
 20
13.72235379210881
 30
0.0
 40
0.0625
100
AcDbArc
 50
90.0
 51
179.9999999999994
  0
LINE
  5
136
330
2
100
AcDbEntity
  8
0
100
AcDbLine
 10
-1.867875983659528
 20
13.69110379210881
 30
0.0
 11
-0.9142632753011784
 21
13.69110379210882
 31
0.0
  0
LINE
  5
137
330
2
100
AcDbEntity
  8
0
100
AcDbLine
 10
-0.9142632753011784
 20
13.72235379210881
 30
0.0
 11
-0.9142632753011784
 21
13.69110379210881
 31
0.0
  0
ARC
  5
138
330
2
100
AcDbEntity
  8
0
100
AcDbCircle
 10
0.7107367246988217
 20
13.72235379210881
 30
0.0
 40
0.0625
100
AcDbArc
 50
90.0
 51
179.9999999999989
  0
ARC
  5
139
330
2
100
AcDbEntity
  8
0
100
AcDbCircle
 10
-0.7267632753011784
 20
13.72235379210881
 30
0.0
 40
0.0625
100
AcDbArc
 50
359.9999999999989
 51
90.0
  0
LINE
  5
13A
330
2
100
AcDbEntity
  8
0
100
AcDbLine
 10
-0.6642632753011784
 20
13.69110379210882
 30
0.0
 11
0.6482367246988217
 21
13.69110379210882
 31
0.0
  0
LINE
  5
13B
330
2
100
AcDbEntity
  8
0
100
AcDbLine
 10
-0.6642632753011784
 20
13.72235379210881
 30
0.0
 11
-0.6642632753011784
 21
13.69110379210881
 31
0.0
  0
LINE
  5
13C
330
2
100
AcDbEntity
  8
0
100
AcDbLine
 10
0.6482367246988217
 20
13.72235379210881
 30
0.0
 11
0.6482367246988217
 21
13.69110379210882
 31
0.0
  0
LINE
  5
13D
330
2
100
AcDbEntity
  8
0
100
AcDbLine
 10
0.7107367246988217
 20
13.78485379210881
 30
0.0
 11
0.8357367246988217
 21
13.78485379210881
 31
0.0
  0
ARC
  5
13E
330
2
100
AcDbEntity
  8
0
100
AcDbCircle
 10
-0.8406066888262318
 20
15.52297674740416
 30
0.0
 40
0.0625
100
AcDbArc
 50
180.0
 51
270.0
  0
LINE
  5
13F
330
2
100
AcDbEntity
  8
0
100
AcDbLine
 10
-1.762961644517859
 20
15.63812534917776
 30
0.0
 11
-0.6490091532786408
 21
15.63812534917777
 31
0.0
  0
LINE
  5
140
330
2
100
AcDbEntity
  8
0
100
AcDbLine
 10
-1.762961491463277
 20
15.55422674740218
 30
0.0
 11
-0.6490091532786391
 21
15.55422674740219
 31
0.0
  0
ARC
  5
141
330
2
100
AcDbEntity
  8
0
100
AcDbCircle
 10
-1.750309123345677
 20
15.52124130256728
 30
0.0
 40
0.1175668603138504
100
AcDbArc
 50
96.17812516338259
 51
179.9999999999996
  0
LINE
  5
142
330
2
100
AcDbEntity
  8
0
100
AcDbLine
 10
-0.8878398858551195
 20
15.55422674740416
 30
0.0
 11
-1.762961491463277
 21
15.55422674740218
 31
0.0
  0
LINE
  5
143
330
2
100
AcDbEntity
  8
0
100
AcDbLine
 10
-1.797745080212132
 20
15.52196393777773
 30
0.0
 11
-1.797745080212132
 21
15.02917107569157
 31
0.0
  0
LINE
  5
144
330
2
100
AcDbEntity
  8
0
100
AcDbLine
 10
-1.867875983659531
 20
15.01576700101801
 30
0.0
 11
-1.867875983659531
 21
15.52409639160083
 31
0.0
  0
LINE
  5
145
330
2
100
AcDbEntity
  8
0
100
AcDbLine
 10
-1.889578870193309
 20
15.03435917072566
 30
0.0
 11
-1.860075835359482
 21
15.00908486310453
 31
0.0
  0
LINE
  5
146
330
2
100
AcDbEntity
  8
0
100
AcDbLine
 10
-1.799594613950142
 20
15.03036849057495
 30
0.0
 11
-1.770829154987163
 21
15.01174531653833
 31
0.0
  0
LINE
  5
147
330
2
100
AcDbEntity
  8
0
100
AcDbLine
 10
-1.891175368306116
 20
14.88936445858341
 30
0.0
 11
-1.861672333472293
 21
14.85743901737778
 31
0.0
  0
LINE
  5
148
330
2
100
AcDbEntity
  8
0
100
AcDbLine
 10
-1.861672333472293
 20
14.85743901737778
 30
0.0
 11
-1.801191112062953
 21
14.8773924181313
 31
0.0
  0
LINE
  5
149
330
2
100
AcDbEntity
  8
0
100
AcDbLine
 10
-1.801191112062953
 20
14.8773924181313
 30
0.0
 11
-1.772425653099973
 21
14.85211811051018
 31
0.0
  0
LINE
  5
14A
330
2
100
AcDbEntity
  8
0
100
AcDbLine
 10
-1.860075835359482
 20
15.00908486310453
 30
0.0
 11
-1.799594613950142
 21
15.03036849057495
 31
0.0
  0
ARC
  5
14B
330
2
100
AcDbEntity
  8
0
100
AcDbCircle
 10
-1.763261244706173
 20
15.51966646232413
 30
0.0
 40
0.0345602850780438
100
AcDbArc
 50
89.99999999999925
 51
177.3882462178248
  0
LINE
  5
14C
330
2
100
AcDbEntity
  8
0
100
AcDbLine
 10
-0.9031066888262318
 20
15.55422674740416
 30
0.0
 11
-0.9031066888262318
 21
15.52297674740416
 31
0.0
  0
LINE
  5
14D
330
2
100
AcDbEntity
  8
0
100
AcDbLine
 10
-0.6490091532786391
 20
15.55422674740219
 30
0.0
 11
-0.6490091532786391
 21
15.63812534917778
 31
0.0
  0
LINE
  5
14E
330
2
100
AcDbEntity
  8
0
100
AcDbLine
 10
0.6578632097123913
 20
15.63812534917777
 30
0.0
 11
0.6578632097123913
 21
15.55422674740218
 31
0.0
  0
LINE
  5
14F
330
2
100
AcDbEntity
  8
0
100
AcDbLine
 10
-0.6531066888262318
 20
15.55422674740416
 30
0.0
 11
0.6578632097123913
 21
15.55422674740218
 31
0.0
  0
ARC
  5
150
330
2
100
AcDbEntity
  8
0
100
AcDbCircle
 10
-0.7156066888262318
 20
15.52297674740416
 30
0.0
 40
0.0625
100
AcDbArc
 50
270.0
 51
0.0
  0
LINE
  5
151
330
2
100
AcDbEntity
  8
0
100
AcDbLine
 10
-0.6531066888262318
 20
15.55422674740416
 30
0.0
 11
-0.6531066888262318
 21
15.52297674740416
 31
0.0
  0
LINE
  5
152
330
2
100
AcDbEntity
  8
0
100
AcDbLine
 10
-0.7156066888262318
 20
15.46047674740416
 30
0.0
 11
-0.8406066888262318
 21
15.46047674740416
 31
0.0
  0
ARC
  5
153
330
2
100
AcDbEntity
  8
0
100
AcDbCircle
 10
0.7218933111737682
 20
15.52297674740416
 30
0.0
 40
0.0625
100
AcDbArc
 50
180.0
 51
270.0
  0
LINE
  5
154
330
2
100
AcDbEntity
  8
0
100
AcDbLine
 10
0.6593933111737682
 20
15.55422674740416
 30
0.0
 11
0.6593933111737682
 21
15.52297674740416
 31
0.0
  0
LINE
  5
155
330
2
100
AcDbEntity
  8
0
100
AcDbLine
 10
0.8468933111737682
 20
15.46047674740416
 30
0.0
 11
0.7218933111737682
 21
15.46047674740416
 31
0.0
  0
LINE
  5
156
330
2
100
AcDbEntity
  8
0
100
AcDbLine
 10
1.843082823402338
 20
13.69110379210881
 30
0.0
 11
1.843082823402338
 21
14.88121970580189
 31
0.0
  0
LINE
  5
157
330
2
100
AcDbEntity
  8
0
100
AcDbLine
 10
1.772692716542896
 20
13.69110379210881
 30
0.0
 11
1.772692716542896
 21
14.87012963799786
 31
0.0
  0
LINE
  5
158
330
2
100
AcDbEntity
  8
0
100
AcDbLine
 10
0.8982367246988217
 20
13.69110379210882
 30
0.0
 11
1.851849433057168
 21
13.69110379210882
 31
0.0
  0
LINE
  5
159
330
2
100
AcDbEntity
  8
0
100
AcDbLine
 10
1.278951204847158
 20
13.69110379210881
 30
0.0
 11
1.843082823402338
 21
13.69110379210881
 31
0.0
  0
LINE
  5
15A
330
2
100
AcDbEntity
  8
0
100
AcDbLine
 10
0.8982367246988217
 20
13.72235379210881
 30
0.0
 11
0.8982367246988217
 21
13.69110379210882
 31
0.0
  0
ARC
  5
15B
330
2
100
AcDbEntity
  8
0
100
AcDbCircle
 10
1.725515963088488
 20
15.52124130256728
 30
0.0
 40
0.1175668603138504
100
AcDbArc
 50
0.0000000000004212
 51
83.8218748366174
  0
LINE
  5
15C
330
2
100
AcDbEntity
  8
0
100
AcDbLine
 10
1.799781719753084
 20
15.5557096066953
 30
0.0
 11
0.9246601141448805
 21
15.55422674740416
 31
0.0
  0
LINE
  5
15D
330
2
100
AcDbEntity
  8
0
100
AcDbLine
 10
0.9093933111737682
 20
15.55422674740416
 30
0.0
 11
0.9093933111737682
 21
15.52297674740416
 31
0.0
  0
LINE
  5
15E
330
2
100
AcDbEntity
  8
0
100
AcDbLine
 10
1.843082823402338
 20
15.03858296314616
 30
0.0
 11
1.843082823402338
 21
15.52159051909777
 31
0.0
  0
LINE
  5
15F
330
2
100
AcDbEntity
  8
0
100
AcDbLine
 10
1.772692716542896
 20
15.01659003007961
 30
0.0
 11
1.772692716542896
 21
15.52131724245433
 31
0.0
  0
LINE
  5
160
330
2
100
AcDbEntity
  8
0
100
AcDbLine
 10
1.744848615877637
 20
15.04923118504426
 30
0.0
 11
1.776459010342451
 21
15.01217486935915
 31
0.0
  0
LINE
  5
161
330
2
100
AcDbEntity
  8
0
100
AcDbLine
 10
1.776459010342451
 20
15.01217486935915
 30
0.0
 11
1.848372657749899
 21
15.04067972757846
 31
0.0
  0
LINE
  5
162
330
2
100
AcDbEntity
  8
0
100
AcDbLine
 10
1.848372657749899
 20
15.04067972757846
 30
0.0
 11
1.876822012768231
 21
15.01787584100301
 31
0.0
  0
LINE
  5
163
330
2
100
AcDbEntity
  8
0
100
AcDbLine
 10
1.744848615877637
 20
14.90528165103672
 30
0.0
 11
1.776459010342451
 21
14.86537484952968
 31
0.0
  0
LINE
  5
164
330
2
100
AcDbEntity
  8
0
100
AcDbLine
 10
1.776459010342451
 20
14.86537484952968
 30
0.0
 11
1.848372657749899
 21
14.88247776446127
 31
0.0
  0
LINE
  5
165
330
2
100
AcDbEntity
  8
0
100
AcDbLine
 10
1.848372657749899
 20
14.88247776446127
 30
0.0
 11
1.876822012768231
 21
14.85824863497486
 31
0.0
  0
ARC
  5
166
330
2
100
AcDbEntity
  8
0
100
AcDbCircle
 10
1.738168331206087
 20
15.51966646232414
 30
0.0
 40
0.0345602850780438
100
AcDbArc
 50
2.611753782175228
 51
90.00000000000073
  0
LINE
  5
16F
330
2
100
AcDbEntity
  8
0
100
AcDbLine
 10
7.127649801826802
 20
3.685108637540517
 30
0.0
 11
7.05789623009213
 21
3.424784763817315
 31
0.0
  0
ARC
  5
170
330
2
100
AcDbEntity
  8
0
100
AcDbCircle
 10
7.027759344311907
 20
3.432859918024512
 30
0.0
 40
0.0312000000000034
100
AcDbArc
 50
225.0000000000069
 51
345.0000000000064
  0
LINE
  5
171
330
2
100
AcDbEntity
  8
0
100
AcDbLine
 10
7.005697612738889
 20
3.410798186451488
 30
0.0
 11
6.815127310750363
 21
3.601368488440018
 31
0.0
  0
ARC
  5
172
330
2
100
AcDbEntity
  8
0
100
AcDbCircle
 10
6.837189042323384
 20
3.623430220013039
 30
0.0
 40
0.0312000000000019
100
AcDbArc
 50
105.0000000000048
 51
225.0
  0
LINE
  5
173
330
2
100
AcDbEntity
  8
0
100
AcDbLine
 10
6.829113888116183
 20
3.653567105793259
 30
0.0
 11
7.089437761839388
 21
3.723320677527931
 31
0.0
  0
ARC
  5
174
330
2
100
AcDbEntity
  8
0
100
AcDbCircle
 10
7.097512916046586
 20
3.693183791747715
 30
0.0
 40
0.031199999999997
100
AcDbArc
 50
344.9999999999998
 51
105.0000000000002
  0
LINE
  5
175
330
2
100
AcDbEntity
  8
0
100
AcDbLine
 10
7.127649801826802
 20
7.181171629666562
 30
0.0
 11
7.05789623009213
 21
6.92084775594336
 31
0.0
  0
ARC
  5
176
330
2
100
AcDbEntity
  8
0
100
AcDbCircle
 10
7.027759344311907
 20
6.928922910150556
 30
0.0
 40
0.0312000000000034
100
AcDbArc
 50
225.0000000000069
 51
345.0000000000064
  0
LINE
  5
177
330
2
100
AcDbEntity
  8
0
100
AcDbLine
 10
7.005697612738889
 20
6.906861178577533
 30
0.0
 11
6.815127310750363
 21
7.097431480566062
 31
0.0
  0
ARC
  5
178
330
2
100
AcDbEntity
  8
0
100
AcDbCircle
 10
6.837189042323384
 20
7.119493212139084
 30
0.0
 40
0.0312000000000019
100
AcDbArc
 50
105.0000000000048
 51
225.0
  0
LINE
  5
179
330
2
100
AcDbEntity
  8
0
100
AcDbLine
 10
6.829113888116183
 20
7.149630097919303
 30
0.0
 11
7.089437761839388
 21
7.219383669653976
 31
0.0
  0
ARC
  5
17A
330
2
100
AcDbEntity
  8
0
100
AcDbCircle
 10
7.097512916046586
 20
7.18924678387376
 30
0.0
 40
0.031199999999997
100
AcDbArc
 50
344.9999999999998
 51
105.0000000000002
  0
LINE
  5
17B
330
2
100
AcDbEntity
  8
0
100
AcDbLine
 10
-1.478802197995227
 20
8.322698633584089
 30
0.0
 11
-1.218478324272022
 21
8.392452205318755
 31
0.0
  0
ARC
  5
17C
330
2
100
AcDbEntity
  8
0
100
AcDbCircle
 10
-1.226553478479217
 20
8.422589091098974
 30
0.0
 40
0.0311999999999997
100
AcDbArc
 50
284.9999999999938
 51
44.99999999999424
  0
LINE
  5
17D
330
2
100
AcDbEntity
  8
0
100
AcDbLine
 10
-1.204491746906195
 20
8.444650822671992
 30
0.0
 11
-1.395062048894721
 21
8.635221124660525
 31
0.0
  0
ARC
  5
17E
330
2
100
AcDbEntity
  8
0
100
AcDbCircle
 10
-1.417123780467743
 20
8.613159393087507
 30
0.0
 40
0.0312
100
AcDbArc
 50
44.99999999999424
 51
164.9999999999948
  0
LINE
  5
17F
330
2
100
AcDbEntity
  8
0
100
AcDbLine
 10
-1.447260666247962
 20
8.621234547294709
 30
0.0
 11
-1.517014237982641
 21
8.360910673571507
 31
0.0
  0
ARC
  5
180
330
2
100
AcDbEntity
  8
0
100
AcDbCircle
 10
-1.486877352202424
 20
8.352835519364307
 30
0.0
 40
0.0311999999999983
100
AcDbArc
 50
164.9999999999971
 51
284.9999999999977
  0
LINE
  5
181
330
2
100
AcDbEntity
  8
0
100
AcDbLine
 10
1.485191541564704
 20
8.594099664824984
 30
0.0
 11
1.415437969830031
 21
8.333775791101783
 31
0.0
  0
ARC
  5
182
330
2
100
AcDbEntity
  8
0
100
AcDbCircle
 10
1.38530108404981
 20
8.341850945308979
 30
0.0
 40
0.0312000000000017
100
AcDbArc
 50
225.0000000000046
 51
345.0000000000055
  0
LINE
  5
183
330
2
100
AcDbEntity
  8
0
100
AcDbLine
 10
1.36323935247679
 20
8.319789213735955
 30
0.0
 11
1.172669050488262
 21
8.510359515724485
 31
0.0
  0
ARC
  5
184
330
2
100
AcDbEntity
  8
0
100
AcDbCircle
 10
1.194730782061282
 20
8.532421247297506
 30
0.0
 40
0.0312000000000006
100
AcDbArc
 50
105.0000000000016
 51
225.0000000000023
  0
LINE
  5
185
330
2
100
AcDbEntity
  8
0
100
AcDbLine
 10
1.186655627854083
 20
8.562558133077726
 30
0.0
 11
1.446979501577286
 21
8.632311704812398
 31
0.0
  0
ARC
  5
186
330
2
100
AcDbEntity
  8
0
100
AcDbCircle
 10
1.455054655784486
 20
8.602174819032182
 30
0.0
 40
0.0311999999999975
100
AcDbArc
 50
345.0000000000007
 51
105.0000000000033
  0
LINE
  5
187
330
2
100
AcDbEntity
  8
0
100
AcDbLine
 10
-1.478802197995227
 20
3.289920754074753
 30
0.0
 11
-1.218478324272022
 21
3.359674325809418
 31
0.0
  0
ARC
  5
188
330
2
100
AcDbEntity
  8
0
100
AcDbCircle
 10
-1.226553478479217
 20
3.389811211589638
 30
0.0
 40
0.0311999999999997
100
AcDbArc
 50
284.9999999999938
 51
44.99999999999424
  0
LINE
  5
189
330
2
100
AcDbEntity
  8
0
100
AcDbLine
 10
-1.204491746906195
 20
3.411872943162656
 30
0.0
 11
-1.395062048894721
 21
3.602443245151189
 31
0.0
  0
ARC
  5
18A
330
2
100
AcDbEntity
  8
0
100
AcDbCircle
 10
-1.417123780467743
 20
3.580381513578171
 30
0.0
 40
0.0312
100
AcDbArc
 50
44.99999999999424
 51
164.9999999999948
  0
LINE
  5
18B
330
2
100
AcDbEntity
  8
0
100
AcDbLine
 10
-1.447260666247962
 20
3.588456667785372
 30
0.0
 11
-1.517014237982641
 21
3.32813279406217
 31
0.0
  0
ARC
  5
18C
330
2
100
AcDbEntity
  8
0
100
AcDbCircle
 10
-1.486877352202424
 20
3.320057639854971
 30
0.0
 40
0.0311999999999983
100
AcDbArc
 50
164.9999999999971
 51
284.9999999999977
  0
LINE
  5
18D
330
2
100
AcDbEntity
  8
0
100
AcDbLine
 10
-1.478802197995227
 20
2.18316374986305
 30
0.0
 11
-1.218478324272022
 21
2.252917321597715
 31
0.0
  0
ARC
  5
18E
330
2
100
AcDbEntity
  8
0
100
AcDbCircle
 10
-1.226553478479217
 20
2.283054207377935
 30
0.0
 40
0.0311999999999997
100
AcDbArc
 50
284.9999999999938
 51
44.99999999999424
  0
LINE
  5
18F
330
2
100
AcDbEntity
  8
0
100
AcDbLine
 10
-1.204491746906195
 20
2.305115938950953
 30
0.0
 11
-1.395062048894721
 21
2.495686240939486
 31
0.0
  0
ARC
  5
190
330
2
100
AcDbEntity
  8
0
100
AcDbCircle
 10
-1.417123780467743
 20
2.473624509366468
 30
0.0
 40
0.0312
100
AcDbArc
 50
44.99999999999424
 51
164.9999999999948
  0
LINE
  5
191
330
2
100
AcDbEntity
  8
0
100
AcDbLine
 10
-1.447260666247962
 20
2.481699663573669
 30
0.0
 11
-1.517014237982641
 21
2.221375789850467
 31
0.0
  0
ARC
  5
192
330
2
100
AcDbEntity
  8
0
100
AcDbCircle
 10
-1.486877352202424
 20
2.213300635643268
 30
0.0
 40
0.0311999999999983
100
AcDbArc
 50
164.9999999999971
 51
284.9999999999977
  0
LINE
  5
193
330
2
100
AcDbEntity
  8
0
100
AcDbLine
 10
1.485191541564704
 20
3.561321785315646
 30
0.0
 11
1.415437969830031
 21
3.300997911592444
 31
0.0
  0
ARC
  5
194
330
2
100
AcDbEntity
  8
0
100
AcDbCircle
 10
1.38530108404981
 20
3.309073065799641
 30
0.0
 40
0.0312000000000017
100
AcDbArc
 50
225.0000000000046
 51
345.0000000000055
  0
LINE
  5
195
330
2
100
AcDbEntity
  8
0
100
AcDbLine
 10
1.36323935247679
 20
3.287011334226617
 30
0.0
 11
1.172669050488262
 21
3.477581636215147
 31
0.0
  0
ARC
  5
196
330
2
100
AcDbEntity
  8
0
100
AcDbCircle
 10
1.194730782061282
 20
3.499643367788168
 30
0.0
 40
0.0312000000000006
100
AcDbArc
 50
105.0000000000016
 51
225.0000000000023
  0
LINE
  5
197
330
2
100
AcDbEntity
  8
0
100
AcDbLine
 10
1.186655627854083
 20
3.529780253568388
 30
0.0
 11
1.446979501577286
 21
3.59953382530306
 31
0.0
  0
ARC
  5
198
330
2
100
AcDbEntity
  8
0
100
AcDbCircle
 10
1.455054655784486
 20
3.569396939522842
 30
0.0
 40
0.0311999999999992
100
AcDbArc
 50
345.0000000000038
 51
105.0000000000025
  0
LINE
  5
199
330
2
100
AcDbEntity
  8
0
100
AcDbLine
 10
1.485191541564704
 20
2.454564781103943
 30
0.0
 11
1.415437969830031
 21
2.194240907380741
 31
0.0
  0
ARC
  5
19A
330
2
100
AcDbEntity
  8
0
100
AcDbCircle
 10
1.38530108404981
 20
2.202316061587938
 30
0.0
 40
0.0312000000000017
100
AcDbArc
 50
225.0000000000046
 51
345.0000000000055
  0
LINE
  5
19B
330
2
100
AcDbEntity
  8
0
100
AcDbLine
 10
1.36323935247679
 20
2.180254330014914
 30
0.0
 11
1.172669050488262
 21
2.370824632003444
 31
0.0
  0
ARC
  5
19C
330
2
100
AcDbEntity
  8
0
100
AcDbCircle
 10
1.194730782061282
 20
2.392886363576465
 30
0.0
 40
0.0312000000000006
100
AcDbArc
 50
105.0000000000016
 51
225.0000000000023
  0
LINE
  5
19D
330
2
100
AcDbEntity
  8
0
100
AcDbLine
 10
1.186655627854083
 20
2.423023249356685
 30
0.0
 11
1.446979501577286
 21
2.492776821091357
 31
0.0
  0
ARC
  5
19E
330
2
100
AcDbEntity
  8
0
100
AcDbCircle
 10
1.455054655784486
 20
2.462639935311141
 30
0.0
 40
0.0311999999999975
100
AcDbArc
 50
345.0000000000007
 51
105.0000000000033
  0
LINE
  5
1A3
330
2
100
AcDbEntity
  8
0
  6
HIDDEN
100
AcDbLine
 10
-7.601437609702798
 20
0.4332599999999975
 30
0.0
 11
-7.601437609702791
 21
10.38991377174712
 31
0.0
  0
LINE
  5
1A4
330
2
100
AcDbEntity
  8
0
100
AcDbLine
 10
-6.663933609702801
 20
10.39003544018743
 30
0.0
 11
-6.663933609702801
 21
2.137840000000002
 31
0.0
  0
LINE
  5
1A5
330
2
100
AcDbEntity
  8
0
100
AcDbLine
 10
-7.707393609702797
 20
0.4332599999999984
 30
0.0
 11
-7.707393609702797
 21
10.38990002087111
 31
0.0
  0
LINE
  5
1A6
330
2
100
AcDbEntity
  8
0
100
AcDbLine
 10
-6.663933609702801
 20
2.137840000000002
 30
0.0
 11
-5.609743609702796
 21
0.3893199999999992
 31
0.0
  0
LINE
  5
1A7
330
2
100
AcDbEntity
  8
0
100
AcDbLine
 10
-5.609743609702796
 20
0.0205099999999994
 30
0.0
 11
-7.601437609702798
 21
0.0205099999999994
 31
0.0
  0
LINE
  5
1A8
330
2
100
AcDbEntity
  8
0
  6
HIDDEN
100
AcDbLine
 10
-5.609743609702796
 20
0.0830099999999994
 30
0.0
 11
-7.601437609702798
 21
0.0830099999999994
 31
0.0
  0
LINE
  5
1A9
330
2
100
AcDbEntity
  8
0
100
AcDbLine
 10
-5.609743609702796
 20
0.0205099999999994
 30
0.0
 11
-5.609743609702796
 21
0.3893199999999992
 31
0.0
  0
LINE
  5
1AA
330
2
100
AcDbEntity
  8
0
100
AcDbLine
 10
-7.601437609702798
 20
0.4332599999999984
 30
0.0
 11
-7.707393609702797
 21
0.4332599999999984
 31
0.0
  0
LINE
  5
1AB
330
2
100
AcDbEntity
  8
0
100
AcDbLine
 10
-7.601437609702798
 20
0.4332599999999984
 30
0.0
 11
-7.601437609702798
 21
0.0203499999999983
 31
0.0
  0
LINE
  5
1AD
330
2
100
AcDbEntity
  8
0
100
AcDbLine
 10
-6.829469814245562
 20
4.157405844428668
 30
0.0
 11
-7.089793687968768
 21
4.227159416163341
 31
0.0
  0
CIRCLE
  5
1AE
330
2
100
AcDbEntity
  8
0
100
AcDbCircle
 10
-7.007783609702798
 20
2.412670375389066
 30
0.0
 40
0.109
  0
LINE
  5
1AF
330
2
100
AcDbEntity
  8
0
100
AcDbLine
 10
-7.006053538868268
 20
3.914636925086897
 30
0.0
 11
-6.815483236879742
 21
4.105207227075427
 31
0.0
  0
CIRCLE
  5
1B2
330
2
100
AcDbEntity
  8
0
100
AcDbCircle
 10
-7.007783609702794
 20
1.477310551181029
 30
0.0
 40
0.109
  0
ARC
  5
1B3
330
2
100
AcDbEntity
  8
0
100
AcDbCircle
 10
-6.837544968452764
 20
4.127268958648449
 30
0.0
 40
0.0312000000000019
100
AcDbArc
 50
315.0
 51
74.99999999999524
  0
ARC
  5
1B4
330
2
100
AcDbEntity
  8
0
100
AcDbCircle
 10
-7.615946845626485
 20
2.57633065207553
 30
0.0
 40
0.1535427933200886
100
AcDbArc
 50
233.5110736946333
 51
126.4889263053668
  0
LINE
  5
1B5
330
2
100
AcDbEntity
  8
0
100
AcDbLine
 10
-7.601504042086009
 20
2.730754519318473
 30
0.0
 11
-7.601504042086009
 21
2.423668932678296
 31
0.0
  0
LINE
  5
1B8
330
2
100
AcDbEntity
  8
0
100
AcDbLine
 10
-7.128005727956182
 20
4.188947376175927
 30
0.0
 11
-7.058252156221509
 21
3.928623502452724
 31
0.0
  0
ARC
  5
1B9
330
2
100
AcDbEntity
  8
0
100
AcDbCircle
 10
-7.028115270441286
 20
3.936698656659921
 30
0.0
 40
0.0312000000000034
100
AcDbArc
 50
194.9999999999936
 51
314.9999999999931
  0
ARC
  5
1BA
330
2
100
AcDbEntity
  8
0
100
AcDbCircle
 10
-7.097868842175966
 20
4.197022530383125
 30
0.0
 40
0.031199999999997
100
AcDbArc
 50
74.99999999999986
 51
195.0000000000002
  0
LINE
  5
1BE
330
2
100
AcDbEntity
  8
0
100
AcDbLine
 10
-7.006053538868271
 20
7.454475259328273
 30
0.0
 11
-6.815483236879746
 21
7.645045561316803
 31
0.0
  0
LINE
  5
1BF
330
2
100
AcDbEntity
  8
0
100
AcDbLine
 10
-6.829469814245566
 20
7.697244178670044
 30
0.0
 11
-7.089793687968771
 21
7.766997750404716
 31
0.0
  0
CIRCLE
  5
1C1
330
2
100
AcDbEntity
  8
0
100
AcDbCircle
 10
-7.007783609702798
 20
5.610619468961728
 30
0.0
 40
0.109
  0
ARC
  5
1C2
330
2
100
AcDbEntity
  8
0
100
AcDbCircle
 10
-6.837544968452767
 20
7.667107292889824
 30
0.0
 40
0.0312000000000019
100
AcDbArc
 50
315.0
 51
74.99999999999524
  0
LINE
  5
1C4
330
2
100
AcDbEntity
  8
0
100
AcDbLine
 10
-7.128005727956185
 20
7.728785710417302
 30
0.0
 11
-7.058252156221513
 21
7.4684618366941
 31
0.0
  0
ARC
  5
1C5
330
2
100
AcDbEntity
  8
0
100
AcDbCircle
 10
-7.097868842175969
 20
7.7368608646245
 30
0.0
 40
0.031199999999997
100
AcDbArc
 50
74.99999999999986
 51
195.0000000000002
  0
ARC
  5
1C6
330
2
100
AcDbEntity
  8
0
100
AcDbCircle
 10
-7.02811527044129
 20
7.476536990901296
 30
0.0
 40
0.0312000000000034
100
AcDbArc
 50
194.9999999999936
 51
314.9999999999931
  0
LINE
  5
1C8
330
2
100
AcDbEntity
  8
0
100
AcDbLine
 10
-6.663933609702801
 20
10.39003544018743
 30
0.0
 11
-7.707393609702797
 21
10.38990002087111
 31
0.0
  0
ENDSEC
  0
SECTION
  2
OBJECTS
  0
DICTIONARY
  5
9
330
0
100
AcDbDictionary
281
     1
  3
ACAD_COLOR
350
1CD
  3
ACAD_GROUP
350
23
  3
ACAD_LAYOUT
350
D
  3
ACAD_MATERIAL
350
1CC
  3
ACAD_MLINESTYLE
350
24
  3
ACAD_PLOTSETTINGS
350
25
  3
ACAD_PLOTSTYLENAME
350
8
  3
ACAD_TABLESTYLE
350
1CE
  3
ACDBHEADERROUNDTRIPXREC
350
1E6
  3
AcDbVariableDictionary
350
D5
  0
DICTIONARY
  5
1CD
102
{ACAD_REACTORS
330
9
102
}
330
9
100
AcDbDictionary
281
     1
  0
DICTIONARY
  5
23
102
{ACAD_REACTORS
330
9
102
}
330
9
100
AcDbDictionary
281
     1
  0
DICTIONARY
  5
D
102
{ACAD_REACTORS
330
9
102
}
330
9
100
AcDbDictionary
281
     1
  3
Layout1
350
13
  3
Model
350
C
  0
DICTIONARY
  5
1CC
102
{ACAD_REACTORS
330
9
102
}
330
9
100
AcDbDictionary
281
     1
  0
DICTIONARY
  5
24
102
{ACAD_REACTORS
330
9
102
}
330
9
100
AcDbDictionary
281
     1
  3
STANDARD
350
27
  0
DICTIONARY
  5
25
102
{ACAD_REACTORS
330
9
102
}
330
9
100
AcDbDictionary
281
     1
  0
ACDBDICTIONARYWDFLT
  5
8
102
{ACAD_REACTORS
330
9
102
}
330
9
100
AcDbDictionary
281
     1
  3
Normal
350
7
100
AcDbDictionaryWithDefault
340
7
  0
DICTIONARY
  5
1CE
102
{ACAD_REACTORS
330
9
102
}
330
9
100
AcDbDictionary
281
     1
  3
Standard
350
1CF
  0
DICTIONARY
  5
1E6
102
{ACAD_REACTORS
330
9
102
}
330
9
100
AcDbDictionary
281
     1
  3
COLORDICT
350
1E7
  3
MATERIALDICT
350
1E8
  0
DICTIONARY
  5
D5
102
{ACAD_REACTORS
330
9
102
}
330
9
100
AcDbDictionary
281
     1
  3
CTABLESTYLE
350
1D3
  3
HIDETEXT
350
1E5
  0
LAYOUT
  5
13
102
{ACAD_REACTORS
330
D
102
}
102
{ACAD_XDICTIONARY
360
1E9
102
}
330
D
100
AcDbPlotSettings
  1

  2
C:\ACAD2000\plotters\HP LaserJet 2100 Series PS.pc3
  4

  6

 40
0.0
 41
0.0
 42
0.0
 43
0.0
 44
0.0
 45
0.0
 46
0.0
 47
0.0
 48
0.0
 49
0.0
140
0.0
141
0.0
142
1.0
143
1.0
 70
   688
 72
     0
 73
     0
 74
     5
  7

 75
    16
147
1.0
148
0.0
149
0.0
100
AcDbLayout
  1
Layout1
 70
     0
 71
     1
 10
0.0
 20
0.0
 11
12.0
 21
9.0
 12
0.0
 22
0.0
 32
0.0
 14
1.000000000000000E+20
 24
1.000000000000000E+20
 34
1.000000000000000E+20
 15
-1.000000000000000E+20
 25
-1.000000000000000E+20
 35
-1.000000000000000E+20
146
0.0
 13
0.0
 23
0.0
 33
0.0
 16
1.0
 26
0.0
 36
0.0
 17
0.0
 27
1.0
 37
0.0
 76
     0
330
E
  0
LAYOUT
  5
C
102
{ACAD_REACTORS
330
D
102
}
102
{ACAD_XDICTIONARY
360
1EB
102
}
330
D
100
AcDbPlotSettings
  1

  2
HP LaserJet 2100 Series PS
  4
Letter
  6

 40
5.365749835968018
 41
5.365735054016113
 42
3.175003051757813
 43
3.17498779296875
 44
210.4813232421875
 45
273.9813232421875
 46
0.0
 47
0.0
 48
0.0
 49
0.0
140
0.0
141
0.0
142
1.0
143
3.962056750635113
 70
 28336
 72
     0
 73
     1
 74
     2
  7

 75
     0
147
0.2523941636726181
148
0.0
149
0.0
100
AcDbLayout
  1
Model
 70
     1
 71
     0
 10
0.0
 20
0.0
 11
12.0
 21
9.0
 12
0.0
 22
0.0
 32
0.0
 14
0.0
 24
0.0
 34
0.0
 15
0.0
 25
0.0
 35
0.0
146
0.0
 13
0.0
 23
0.0
 33
0.0
 16
1.0
 26
0.0
 36
0.0
 17
0.0
 27
1.0
 37
0.0
 76
     0
330
2
  0
MLINESTYLE
  5
27
102
{ACAD_REACTORS
330
24
102
}
330
24
100
AcDbMlineStyle
  2
STANDARD
 70
     0
  3

 62
   256
 51
90.0
 52
90.0
 71
     2
 49
0.5
 62
   256
  6
BYLAYER
 49
-0.5
 62
   256
  6
BYLAYER
  0
ACDBPLACEHOLDER
  5
7
102
{ACAD_REACTORS
330
8
102
}
330
8
  0
ACAD_PROXY_OBJECT
  5
1CF
102
{ACAD_REACTORS
330
1CE
102
}
330
1CE
100
AcDbProxyObject
 90
      499
 91
      517
 95
   983063
 70
     0
 93
     1841
310
4214DD185B99185C9928B81E85EB51B8AE3F2E07A17AD46E2B8FC02B5E8DC0F42B1CFD028000000C1008070000C3001FDFF8000000C1003FBFF000000182007F7FE00000030400FEFFC00000060801FDFF8000000C1003FBFF00000018200000000000000681FA0B0000001820100E000186003FBFF000000182007F7FE000
310
00030400FEFFC00000060801FDFF8000000C1003FBFF000000182007F7FE000000304000AD7A3703D0AC73F4160000003040201C00030C007F7FE00000030400FEFFC00000060801FDFF8000000C1003FBFF000000182007F7FE00000030400FEFFC000000608000
340
16
340
16
340
16
 94
        0
  0
XRECORD
  5
1E7
102
{ACAD_REACTORS
330
1E6
102
}
330
1E6
100
AcDbXrecord
340
1CD
  0
XRECORD
  5
1E8
102
{ACAD_REACTORS
330
1E6
102
}
330
1E6
100
AcDbXrecord
340
1CC
  0
DICTIONARYVAR
  5
1D3
102
{ACAD_REACTORS
330
D5
102
}
330
D5
100
DictionaryVariables
280
     0
  1
STANDARD
  0
DICTIONARYVAR
  5
1E5
102
{ACAD_REACTORS
330
D5
102
}
330
D5
100
DictionaryVariables
280
     0
  1
0
  0
DICTIONARY
  5
1E9
330
13
100
AcDbDictionary
280
     1
281
     1
  3
ACAD_XREC_ROUNDTRIP
360
1EA
  0
DICTIONARY
  5
1EB
330
C
100
AcDbDictionary
280
     1
281
     1
  3
ACAD_XREC_ROUNDTRIP
360
1EC
  0
XRECORD
  5
1EA
102
{ACAD_REACTORS
330
1E9
102
}
330
1E9
100
AcDbXrecord
102
SHADEPLOT
 70
     0
102
SHADEPLOTRESLEVEL
 70
     2
102
SHADEPLOTCUSTOMDPI
 70
   300
  0
XRECORD
  5
1EC
102
{ACAD_REACTORS
330
1EB
102
}
330
1EB
100
AcDbXrecord
102
SHADEPLOT
 70
     0
102
SHADEPLOTRESLEVEL
 70
     2
102
SHADEPLOTCUSTOMDPI
 70
   300
  0
ENDSEC
  0
EOF
