  0
SECTION
  2
HEADER
  9
$ACADVER
  1
AC1015
  9
$ACADMAINTVER
 70
     6
  9
$DWGCODEPAGE
  3
ANSI_1252
  9
$INSBASE
 10
0.0
 20
0.0
 30
0.0
  9
$EXTMIN
 10
-7.459342883088453
 20
-0.0421549862168362
 30
-0.0015258207003583
  9
$EXTMAX
 10
7.455514350548015
 20
14.2115288829521
 30
0.0000000349246037
  9
$LIMMIN
 10
0.0
 20
0.0
  9
$LIMMAX
 10
31.5
 20
24.0
  9
$ORTHOMODE
 70
     1
  9
$REGENMODE
 70
     1
  9
$FILLMODE
 70
     1
  9
$QTEXTMODE
 70
     0
  9
$MIRRTEXT
 70
     0
  9
$LTSCALE
 40
1.0
  9
$ATTMODE
 70
     1
  9
$TEXTSIZE
 40
0.27
  9
$TRACEWID
 40
0.05
  9
$TEXTSTYLE
  7
STANDARD
  9
$CLAYER
  8
0
  9
$CELTYPE
  6
BYLAYER
  9
$CECOLOR
 62
   256
  9
$CELTSCALE
 40
1.0
  9
$DISPSILH
 70
     0
  9
$DIMSCALE
 40
1.0
  9
$DIMASZ
 40
0.375
  9
$DIMEXO
 40
0.0625
  9
$DIMDLI
 40
0.75
  9
$DIMRND
 40
0.0
  9
$DIMDLE
 40
0.0
  9
$DIMEXE
 40
0.18
  9
$DIMTP
 40
0.0
  9
$DIMTM
 40
0.0
  9
$DIMTXT
 40
0.27
  9
$DIMCEN
 40
-0.06
  9
$DIMTSZ
 40
0.0
  9
$DIMTOL
 70
     0
  9
$DIMLIM
 70
     0
  9
$DIMTIH
 70
     1
  9
$DIMTOH
 70
     1
  9
$DIMSE1
 70
     0
  9
$DIMSE2
 70
     0
  9
$DIMTAD
 70
     0
  9
$DIMZIN
 70
     0
  9
$DIMBLK
  1

  9
$DIMASO
 70
     0
  9
$DIMSHO
 70
     0
  9
$DIMPOST
  1

  9
$DIMAPOST
  1

  9
$DIMALT
 70
     0
  9
$DIMALTD
 70
     2
  9
$DIMALTF
 40
25.4
  9
$DIMLFAC
 40
1.0
  9
$DIMTOFL
 70
     0
  9
$DIMTVP
 40
0.0
  9
$DIMTIX
 70
     0
  9
$DIMSOXD
 70
     0
  9
$DIMSAH
 70
     0
  9
$DIMBLK1
  1

  9
$DIMBLK2
  1

  9
$DIMSTYLE
  2
STANDARD
  9
$DIMCLRD
 70
     0
  9
$DIMCLRE
 70
     0
  9
$DIMCLRT
 70
     0
  9
$DIMTFAC
 40
1.0
  9
$DIMGAP
 40
0.09
  9
$DIMJUST
 70
     0
  9
$DIMSD1
 70
     0
  9
$DIMSD2
 70
     0
  9
$DIMTOLJ
 70
     1
  9
$DIMTZIN
 70
     0
  9
$DIMALTZ
 70
     0
  9
$DIMALTTZ
 70
     0
  9
$DIMUPT
 70
     0
  9
$DIMDEC
 70
     3
  9
$DIMTDEC
 70
     3
  9
$DIMALTU
 70
     2
  9
$DIMALTTD
 70
     2
  9
$DIMTXSTY
  7
STANDARD
  9
$DIMAUNIT
 70
     0
  9
$DIMADEC
 70
     0
  9
$DIMALTRND
 40
0.0
  9
$DIMAZIN
 70
     0
  9
$DIMDSEP
 70
    46
  9
$DIMATFIT
 70
     3
  9
$DIMFRAC
 70
     0
  9
$DIMLDRBLK
  1

  9
$DIMLUNIT
 70
     2
  9
$DIMLWD
 70
    -2
  9
$DIMLWE
 70
    -2
  9
$DIMTMOVE
 70
     2
  9
$LUNITS
 70
     2
  9
$LUPREC
 70
     3
  9
$SKETCHINC
 40
0.1
  9
$FILLETRAD
 40
0.0
  9
$AUNITS
 70
     0
  9
$AUPREC
 70
     0
  9
$MENU
  1
ACAD
  9
$ELEVATION
 40
0.0
  9
$PELEVATION
 40
0.0
  9
$THICKNESS
 40
0.0
  9
$LIMCHECK
 70
     0
  9
$CHAMFERA
 40
0.0
  9
$CHAMFERB
 40
0.0
  9
$CHAMFERC
 40
0.0
  9
$CHAMFERD
 40
0.0
  9
$SKPOLY
 70
     0
  9
$TDCREATE
 40
2449944.976563773
  9
$TDUCREATE
 40
2449945.309897107
  9
$TDUPDATE
 40
2454165.880193854
  9
$TDUUPDATE
 40
2454166.213527188
  9
$TDINDWG
 40
0.0470653009
  9
$TDUSRTIMER
 40
0.0470653009
  9
$USRTIMER
 70
     1
  9
$ANGBASE
 50
0.0
  9
$ANGDIR
 70
     0
  9
$PDMODE
 70
     0
  9
$PDSIZE
 40
0.0
  9
$PLINEWID
 40
0.0
  9
$SPLFRAME
 70
     0
  9
$SPLINETYPE
 70
     6
  9
$SPLINESEGS
 70
     8
  9
$HANDSEED
  5
286
  9
$SURFTAB1
 70
     6
  9
$SURFTAB2
 70
     6
  9
$SURFTYPE
 70
     6
  9
$SURFU
 70
     6
  9
$SURFV
 70
     6
  9
$UCSBASE
  2

  9
$UCSNAME
  2

  9
$UCSORG
 10
0.0
 20
0.0
 30
0.0
  9
$UCSXDIR
 10
1.0
 20
0.0
 30
0.0
  9
$UCSYDIR
 10
0.0
 20
1.0
 30
0.0
  9
$UCSORTHOREF
  2

  9
$UCSORTHOVIEW
 70
     0
  9
$UCSORGTOP
 10
0.0
 20
0.0
 30
0.0
  9
$UCSORGBOTTOM
 10
0.0
 20
0.0
 30
0.0
  9
$UCSORGLEFT
 10
0.0
 20
0.0
 30
0.0
  9
$UCSORGRIGHT
 10
0.0
 20
0.0
 30
0.0
  9
$UCSORGFRONT
 10
0.0
 20
0.0
 30
0.0
  9
$UCSORGBACK
 10
0.0
 20
0.0
 30
0.0
  9
$PUCSBASE
  2

  9
$PUCSNAME
  2

  9
$PUCSORG
 10
0.0
 20
0.0
 30
0.0
  9
$PUCSXDIR
 10
1.0
 20
0.0
 30
0.0
  9
$PUCSYDIR
 10
0.0
 20
1.0
 30
0.0
  9
$PUCSORTHOREF
  2

  9
$PUCSORTHOVIEW
 70
     0
  9
$PUCSORGTOP
 10
0.0
 20
0.0
 30
0.0
  9
$PUCSORGBOTTOM
 10
0.0
 20
0.0
 30
0.0
  9
$PUCSORGLEFT
 10
0.0
 20
0.0
 30
0.0
  9
$PUCSORGRIGHT
 10
0.0
 20
0.0
 30
0.0
  9
$PUCSORGFRONT
 10
0.0
 20
0.0
 30
0.0
  9
$PUCSORGBACK
 10
0.0
 20
0.0
 30
0.0
  9
$USERI1
 70
     0
  9
$USERI2
 70
     0
  9
$USERI3
 70
     0
  9
$USERI4
 70
     0
  9
$USERI5
 70
     0
  9
$USERR1
 40
0.0
  9
$USERR2
 40
0.0
  9
$USERR3
 40
0.0
  9
$USERR4
 40
0.0
  9
$USERR5
 40
0.0
  9
$WORLDVIEW
 70
     1
  9
$SHADEDGE
 70
     3
  9
$SHADEDIF
 70
    70
  9
$TILEMODE
 70
     1
  9
$MAXACTVP
 70
    16
  9
$PINSBASE
 10
0.0
 20
0.0
 30
0.0
  9
$PLIMCHECK
 70
     0
  9
$PEXTMIN
 10
1.000000000000000E+20
 20
1.000000000000000E+20
 30
1.000000000000000E+20
  9
$PEXTMAX
 10
-1.000000000000000E+20
 20
-1.000000000000000E+20
 30
-1.000000000000000E+20
  9
$PLIMMIN
 10
0.0
 20
0.0
  9
$PLIMMAX
 10
12.0
 20
9.0
  9
$UNITMODE
 70
     0
  9
$VISRETAIN
 70
     0
  9
$PLINEGEN
 70
     0
  9
$PSLTSCALE
 70
     0
  9
$TREEDEPTH
 70
  3020
  9
$CMLSTYLE
  2
STANDARD
  9
$CMLJUST
 70
     0
  9
$CMLSCALE
 40
1.0
  9
$PROXYGRAPHICS
 70
     1
  9
$MEASUREMENT
 70
     0
  9
$CELWEIGHT
370
    -1
  9
$ENDCAPS
280
     0
  9
$JOINSTYLE
280
     0
  9
$LWDISPLAY
290
     0
  9
$INSUNITS
 70
     0
  9
$HYPERLINKBASE
  1

  9
$STYLESHEET
  1

  9
$XEDIT
290
     1
  9
$CEPSNTYPE
380
     0
  9
$PSTYLEMODE
290
     1
  9
$FINGERPRINTGUID
  2
{1CE4BFB6-E755-4B9E-8990-7EAC6D4BB9F0}
  9
$VERSIONGUID
  2
{2F7B2672-99F5-43B0-B54C-EE18FBA9122E}
  9
$EXTNAMES
290
     1
  9
$PSVPSCALE
 40
0.0
  9
$OLESTARTUP
290
     0
  0
ENDSEC
  0
SECTION
  2
CLASSES
  0
CLASS
  1
DICTIONARYVAR
  2
AcDbDictionaryVar
  3
AutoCAD 2000
 90
        0
280
     0
281
     0
  0
CLASS
  1
LWPOLYLINE
  2
AcDbPolyline
  3
AutoCAD 2000
 90
        0
280
     0
281
     1
  0
CLASS
  1
ACDBDICTIONARYWDFLT
  2
AcDbDictionaryWithDefault
  3
AutoCAD 2000
 90
        0
280
     0
281
     0
  0
CLASS
  1
ACDBPLACEHOLDER
  2
AcDbPlaceHolder
  3
ObjectDBX Classes
 90
        0
280
     0
281
     0
  0
CLASS
  1
LAYOUT
  2
AcDbLayout
  3
ObjectDBX Classes
 90
        0
280
     0
281
     0
  0
CLASS
  1
LONG_TRANSACTION
  2
AcDbLongTransaction
  3
ObjectDBX Classes
 90
   -65536
280
     1
281
     0
  0
CLASS
  1
LWPOLYLINE
  2
AcDbPolyline
  3
AutoCAD 2000
 90
        0
280
     0
281
     1
  0
CLASS
  1
HATCH
  2
AcDbHatch
  3
AutoCAD 2000
 90
        0
280
     0
281
     1
  0
CLASS
  1
XRECORD
  2
AcDbXrecord
  3
AutoCAD 2000
 90
        0
280
     0
281
     0
  0
CLASS
  1
TABLESTYLE
  2
AcDbTableStyle
  3
ObjectDBX Classes
 90
     2047
280
     1
281
     0
  0
ENDSEC
  0
SECTION
  2
TABLES
  0
TABLE
  2
VPORT
  5
1D
330
0
100
AcDbSymbolTable
 70
     3
  0
VPORT
  5
276
330
1D
100
AcDbSymbolTableRecord
100
AcDbViewportTableRecord
  2
*Active
 70
     0
 10
0.0
 20
0.0
 11
1.0
 21
1.0
 12
12.02032855845577
 22
11.97892250689158
 13
0.0
 23
0.0
 14
0.0625
 24
0.0625
 15
0.5
 25
0.5
 16
0.0
 26
0.0
 36
1.0
 17
0.0
 27
0.0
 37
0.0
 40
24.34205712741704
 41
1.814583333333333
 42
50.0
 43
0.0
 44
0.0
 50
0.0
 51
0.0
 71
     0
 72
   100
 73
     1
 74
     0
 75
     0
 76
     0
 77
     0
 78
     0
281
     0
 65
     1
110
0.0
120
0.0
130
0.0
111
1.0
121
0.0
131
0.0
112
0.0
122
1.0
132
0.0
 79
     0
146
0.0
  0
ENDTAB
  0
TABLE
  2
LTYPE
  5
18
330
0
100
AcDbSymbolTable
 70
     2
  0
LTYPE
  5
19
330
18
100
AcDbSymbolTableRecord
100
AcDbLinetypeTableRecord
  2
BYBLOCK
 70
     0
  3

 72
    65
 73
     0
 40
0.0
  0
LTYPE
  5
1A
330
18
100
AcDbSymbolTableRecord
100
AcDbLinetypeTableRecord
  2
BYLAYER
 70
     0
  3

 72
    65
 73
     0
 40
0.0
  0
LTYPE
  5
A
330
18
100
AcDbSymbolTableRecord
100
AcDbLinetypeTableRecord
  2
CONTINUOUS
 70
     0
  3
Solid line
 72
    65
 73
     0
 40
0.0
  0
LTYPE
  5
177
330
18
100
AcDbSymbolTableRecord
100
AcDbLinetypeTableRecord
  2
DASHED
 70
     0
  3
Dashed __ __ __ __ __ __ __ __ __ __ __ __ __ _
 72
    65
 73
     2
 40
0.75
 49
0.5
 74
     0
 49
-0.25
 74
     0
  0
ENDTAB
  0
TABLE
  2
LAYER
  5
14
330
0
100
AcDbSymbolTable
 70
     2
  0
LAYER
  5
6
330
14
100
AcDbSymbolTableRecord
100
AcDbLayerTableRecord
  2
0
 70
     0
 62
     7
  6
CONTINUOUS
370
    -3
390
7
  0
ENDTAB
  0
TABLE
  2
STYLE
  5
15
330
0
100
AcDbSymbolTable
 70
     2
  0
STYLE
  5
16
330
15
100
AcDbSymbolTableRecord
100
AcDbTextStyleTableRecord
  2
STANDARD
 70
     0
 40
0.0
 41
1.0
 50
0.0
 71
     0
 42
0.27
  3
TXT
  4

  0
ENDTAB
  0
TABLE
  2
VIEW
  5
1B
330
0
100
AcDbSymbolTable
 70
     0
  0
ENDTAB
  0
TABLE
  2
UCS
  5
1C
330
0
100
AcDbSymbolTable
 70
     0
  0
ENDTAB
  0
TABLE
  2
APPID
  5
1F
330
0
100
AcDbSymbolTable
 70
     1
  0
APPID
  5
20
330
1F
100
AcDbSymbolTableRecord
100
AcDbRegAppTableRecord
  2
ACAD
 70
     0
  0
ENDTAB
  0
TABLE
  2
DIMSTYLE
  5
21
330
0
100
AcDbSymbolTable
 70
     1
100
AcDbDimStyleTable
  0
DIMSTYLE
105
28
330
21
100
AcDbSymbolTableRecord
100
AcDbDimStyleTableRecord
  2
STANDARD
 70
     0
  3

  4

340
16
  0
ENDTAB
  0
TABLE
  2
BLOCK_RECORD
  5
1
330
0
100
AcDbSymbolTable
 70
     1
  0
BLOCK_RECORD
  5
2
330
1
100
AcDbSymbolTableRecord
100
AcDbBlockTableRecord
  2
*MODEL_SPACE
340
C
  0
BLOCK_RECORD
  5
E
330
1
100
AcDbSymbolTableRecord
100
AcDbBlockTableRecord
  2
*PAPER_SPACE
340
13
  0
ENDTAB
  0
ENDSEC
  0
SECTION
  2
BLOCKS
  0
BLOCK
  5
5
330
2
100
AcDbEntity
  8
0
100
AcDbBlockBegin
  2
*MODEL_SPACE
 70
     0
 10
0.0
 20
0.0
 30
0.0
  3
*MODEL_SPACE
  1

  4

  0
ENDBLK
  5
B
330
2
100
AcDbEntity
  8
0
100
AcDbBlockEnd
  0
BLOCK
  5
11
330
E
100
AcDbEntity
 67
     1
  8
0
100
AcDbBlockBegin
  2
*PAPER_SPACE
 70
     0
 10
0.0
 20
0.0
 30
0.0
  3
*PAPER_SPACE
  1

  4

  0
ENDBLK
  5
12
330
E
100
AcDbEntity
 67
     1
  8
0
100
AcDbBlockEnd
  0
ENDSEC
  0
SECTION
  2
ENTITIES
  0
LINE
  5
1F5
330
2
100
AcDbEntity
  8
0
100
AcDbLine
 10
1.866048358111445
 20
11.57646709157578
 30
0.0
 11
1.866048358111445
 21
14.07794995086691
 31
0.0
  0
LINE
  5
1F6
330
2
100
AcDbEntity
  8
0
100
AcDbLine
 10
1.787540601955601
 20
14.04666979105647
 30
0.0
 11
1.787540601955601
 21
11.57646709157578
 31
0.0
  0
LINE
  5
1F7
330
2
100
AcDbEntity
  8
0
100
AcDbLine
 10
-1.853677058605244
 20
14.07646709157002
 30
0.0
 11
-1.853677058605251
 21
11.57646709157578
 31
0.0
  0
LINE
  5
1F8
330
2
100
AcDbEntity
  8
0
100
AcDbLine
 10
-1.77520260926076
 20
14.04248020141924
 30
0.0
 11
-1.77520260926076
 21
11.57646709157578
 31
0.0
  0
LINE
  5
1F9
330
2
100
AcDbEntity
  8
0
100
AcDbLine
 10
-0.6429712553480673
 20
11.57646709157578
 30
0.0
 11
0.669528744683368
 21
11.57646709157578
 31
0.0
  0
LINE
  5
1FA
330
2
100
AcDbEntity
  8
0
100
AcDbLine
 10
-1.657440868009995
 20
0.0
 30
0.0
 11
1.657440868009995
 21
0.0
 31
0.0
  0
LINE
  5
1FB
330
2
100
AcDbEntity
  8
0
100
AcDbLine
 10
-1.658102165784089
 20
0.0794429972530697
 30
0.0
 11
1.653490868009992
 21
0.0790700000000015
 31
0.0
  0
LINE
  5
1FC
330
2
100
AcDbEntity
  8
0
100
AcDbLine
 10
-7.396682409784649
 20
0.2167999999999992
 30
0.0
 11
-7.39668240978466
 21
6.889172841090156
 31
0.0
  0
LINE
  5
1FD
330
2
100
AcDbEntity
  8
0
100
AcDbLine
 10
-5.937132838513854
 20
6.889331579229362
 30
0.0
 11
-5.937132838513858
 21
1.694653527535561
 31
0.0
  0
LINE
  5
1FE
330
2
100
AcDbEntity
  8
0
  6
DASHED
100
AcDbLine
 10
-7.290726409784657
 20
0.2167999999999992
 30
0.0
 11
-7.290726409784639
 21
6.889184364685248
 31
0.0
  0
LINE
  5
1FF
330
2
100
AcDbEntity
  8
0
100
AcDbLine
 10
-0.6240270161040771
 20
6.892118736676613
 30
0.0
 11
-0.6240207952640313
 21
1.694653527535559
 31
0.0
  0
LINE
  5
200
330
2
100
AcDbEntity
  8
0
100
AcDbLine
 10
-1.857440868009982
 20
6.892118736676613
 30
0.0
 11
-1.857440868009991
 21
1.1294
 31
0.0
  0
LINE
  5
201
330
2
100
AcDbEntity
  8
0
100
AcDbLine
 10
-1.778830868009982
 20
6.892118736676613
 30
0.0
 11
-1.778830868009993
 21
1.1294
 31
0.0
  0
LINE
  5
202
330
2
100
AcDbEntity
  8
0
  6
DASHED
100
AcDbLine
 10
-4.799032409784648
 20
0.0830100000000016
 30
0.0
 11
-7.290726409784657
 21
0.0830100000000016
 31
0.0
  0
LWPOLYLINE
  5
203
330
2
100
AcDbEntity
  8
0
100
AcDbPolyline
 90
        6
 70
     1
 43
0.0
 10
-6.381384547200927
 20
4.403467076734335
 10
-6.198396605974725
 20
4.354435605317164
 42
-0.5773502686101053
 10
-6.184387614274577
 20
4.302153336347613
 10
-6.318344084583032
 20
4.168196866039159
 42
-0.5773502697691459
 10
-6.370626353580708
 20
4.182205857844263
 10
-6.419657824431916
 20
4.365193799503349
 42
-0.5773502691896258
  0
CIRCLE
  5
204
330
2
100
AcDbEntity
  8
0
100
AcDbCircle
 10
-6.312132838513858
 20
1.540980238629116
 30
0.0
 40
0.078
  0
LINE
  5
205
330
2
100
AcDbEntity
  8
0
100
AcDbLine
 10
-4.799032409784648
 20
0.0205100000000016
 30
0.0
 11
-7.290726409784657
 21
0.0205100000000016
 31
0.0
  0
LINE
  5
206
330
2
100
AcDbEntity
  8
0
100
AcDbLine
 10
-7.290726409784661
 20
0.2167999999999992
 30
0.0
 11
-7.396682409784649
 21
0.2167999999999992
 31
0.0
  0
LINE
  5
207
330
2
100
AcDbEntity
  8
0
100
AcDbLine
 10
-7.290726409784657
 20
0.0205100000000016
 30
0.0
 11
-7.290726409784657
 21
0.2167999999999992
 31
0.0
  0
ARC
  5
208
330
2
100
AcDbEntity
  8
0
100
AcDbCircle
 10
-7.3046112719632
 20
2.573409607190419
 30
0.0
 40
0.1535427933200886
100
AcDbArc
 50
233.5110736946333
 51
126.4889263053668
  0
LINE
  5
209
330
2
100
AcDbEntity
  8
0
100
AcDbLine
 10
-7.290168468422724
 20
2.727833474433362
 30
0.0
 11
-7.290168468422724
 21
2.420747887793185
 31
0.0
  0
LINE
  5
20A
330
2
100
AcDbEntity
  8
0
100
AcDbLine
 10
-4.799032409784648
 20
0.2167999999999992
 30
0.0
 11
-5.937132838513858
 21
1.694653527535561
 31
0.0
  0
LINE
  5
20B
330
2
100
AcDbEntity
  8
0
100
AcDbLine
 10
-1.762121223993234
 20
0.2167999999999992
 30
0.0
 11
-0.6240207952640242
 21
1.694653527535561
 31
0.0
  0
LINE
  5
20C
330
2
100
AcDbEntity
  8
0
100
AcDbLine
 10
-1.778830868009993
 20
1.139220000000002
 30
0.0
 11
-1.778830868009993
 21
0.201509999999999
 31
0.0
  0
LINE
  5
20D
330
2
100
AcDbEntity
  8
0
100
AcDbLine
 10
-1.857440868009991
 20
1.139220000000002
 30
0.0
 11
-1.857440868009991
 21
0.1971900000000026
 31
0.0
  0
LINE
  5
20E
330
2
100
AcDbEntity
  8
0
100
AcDbLine
 10
-4.799032409784648
 20
0.0205100000000016
 30
0.0
 11
-4.799032409784648
 21
0.2167999999999992
 31
0.0
  0
ARC
  5
20F
330
2
100
AcDbEntity
  8
0
100
AcDbCircle
 10
-1.657440868009995
 20
0.2000000000000028
 30
0.0
 40
0.2
100
AcDbArc
 50
180.0
 51
270.0
  0
ARC
  5
210
330
2
100
AcDbEntity
  8
0
100
AcDbCircle
 10
-1.653830868009993
 20
0.2043700000000008
 30
0.0
 40
0.125
100
AcDbArc
 50
180.0
 51
269.9927
  0
LINE
  5
211
330
2
100
AcDbEntity
  8
0
100
AcDbLine
 10
-0.8929712553540545
 20
0.0793568176636938
 30
0.0
 11
-0.8929712553540545
 21
0.0
 31
0.0
  0
LINE
  5
212
330
2
100
AcDbEntity
  8
0
100
AcDbLine
 10
-0.6429712553480655
 20
0.0793286592177989
 30
0.0
 11
-0.6429712553480664
 21
0.0
 31
0.0
  0
ARC
  5
213
330
2
100
AcDbEntity
  8
0
100
AcDbCircle
 10
-1.77883086800999
 20
2.57944299725307
 30
0.0
 40
0.156
100
AcDbArc
 50
270.0
 51
90.0
  0
CIRCLE
  5
214
330
2
100
AcDbEntity
  8
0
100
AcDbCircle
 10
-1.386531223993232
 20
1.419746286394432
 30
0.0
 40
0.109
  0
CIRCLE
  5
215
330
2
100
AcDbEntity
  8
0
100
AcDbCircle
 10
-0.9445216830369327
 20
1.846385180369888
 30
0.0
 40
0.109
  0
LWPOLYLINE
  5
216
330
2
100
AcDbEntity
  8
0
100
AcDbPolyline
 90
        6
 70
     1
 43
0.0
 10
-1.327498703529034
 20
2.433260174601712
 10
-1.510486644755239
 20
2.384228703184538
 42
0.5773502686101053
 10
-1.524495636455385
 20
2.331946434214988
 10
-1.39053916614693
 20
2.197989963906533
 42
0.5773502697691459
 10
-1.338256897149256
 20
2.211998955711637
 10
-1.289225426298047
 20
2.394986897370723
 42
0.5773502691896258
  0
LWPOLYLINE
  5
217
330
2
100
AcDbEntity
  8
0
100
AcDbPolyline
 90
        6
 70
     1
 43
0.0
 10
-1.327498703529034
 20
3.561258709668566
 10
-1.510486644755239
 20
3.512227238251395
 42
0.5773502686101053
 10
-1.524495636455385
 20
3.459944969281844
 10
-1.39053916614693
 20
3.325988498973389
 42
0.5773502697691459
 10
-1.338256897149256
 20
3.339997490778494
 10
-1.289225426298047
 20
3.522985432437579
 42
0.5773502691896258
  0
CIRCLE
  5
218
330
2
100
AcDbEntity
  8
0
100
AcDbCircle
 10
-1.323281223993228
 20
2.970254468046141
 30
0.0
 40
0.109
  0
CIRCLE
  5
219
330
2
100
AcDbEntity
  8
0
100
AcDbCircle
 10
-0.9445216830369327
 20
3.897257273393159
 30
0.0
 40
0.109
  0
CIRCLE
  5
21A
330
2
100
AcDbEntity
  8
0
100
AcDbCircle
 10
-6.312132838513858
 20
5.861703855369258
 30
0.0
 40
0.078
  0
LINE
  5
21B
330
2
100
AcDbEntity
  8
0
100
AcDbLine
 10
-5.937132838513858
 20
6.889331579229369
 30
0.0
 11
-7.396682409784656
 21
6.889172841090156
 31
0.0
  0
CIRCLE
  5
21C
330
2
100
AcDbEntity
  8
0
100
AcDbCircle
 10
-0.9445216830369327
 20
5.647257273393159
 30
0.0
 40
0.109
  0
LINE
  5
21D
330
2
100
AcDbEntity
  8
0
100
AcDbLine
 10
-1.857440868009985
 20
6.892118736676613
 30
0.0
 11
-0.6240270161040771
 21
6.892118736676613
 31
0.0
  0
LINE
  5
21E
330
2
100
AcDbEntity
  8
0
100
AcDbLine
 10
-1.853677058605251
 20
11.57646709157578
 30
0.0
 11
-0.8929712553540536
 21
11.57646709157578
 31
0.0
  0
LINE
  5
21F
330
2
100
AcDbEntity
  8
0
100
AcDbLine
 10
-0.8304714716305535
 20
11.67021709157578
 30
0.0
 11
-0.7054714716275612
 21
11.67021709157578
 31
0.0
  0
LINE
  5
220
330
2
100
AcDbEntity
  8
0
100
AcDbLine
 10
-0.892971471629056
 20
11.60771665901979
 30
0.0
 11
-0.8929712553540536
 21
11.57646709157578
 31
0.0
  0
LINE
  5
221
330
2
100
AcDbEntity
  8
0
100
AcDbLine
 10
-0.6429714716290569
 20
11.60771752413178
 30
0.0
 11
-0.6429712553480673
 21
11.57646709157578
 31
0.0
  0
ARC
  5
222
330
2
100
AcDbEntity
  8
0
100
AcDbCircle
 10
-0.7054714716275603
 20
11.60771709157578
 30
0.0
 40
0.0625
100
AcDbArc
 50
0.0003965381235562
 51
90.00000000000108
  0
ARC
  5
223
330
2
100
AcDbEntity
  8
0
100
AcDbCircle
 10
-0.8304714716305526
 20
11.60771709157578
 30
0.0
 40
0.0625
100
AcDbArc
 50
90.00000000000078
 51
180.0003965381241
  0
LINE
  5
224
330
2
100
AcDbEntity
  8
0
100
AcDbLine
 10
7.392071112010552
 20
0.2167999999999992
 30
0.0
 11
7.392071112010562
 21
6.889172841090156
 31
0.0
  0
LINE
  5
225
330
2
100
AcDbEntity
  8
0
100
AcDbLine
 10
5.932521540739757
 20
6.889331579229362
 30
0.0
 11
5.93252154073976
 21
1.694653527535561
 31
0.0
  0
LINE
  5
226
330
2
100
AcDbEntity
  8
0
  6
DASHED
100
AcDbLine
 10
7.28611511201056
 20
0.2167999999999992
 30
0.0
 11
7.286115112010542
 21
6.889184364685248
 31
0.0
  0
LINE
  5
227
330
2
100
AcDbEntity
  8
0
100
AcDbLine
 10
1.857440868009991
 20
6.892118736676613
 30
0.0
 11
1.857440868009991
 21
0.2000000000000028
 31
0.0
  0
LINE
  5
228
330
2
100
AcDbEntity
  8
0
100
AcDbLine
 10
1.778510868009991
 20
0.2040700000000015
 30
0.0
 11
1.778510868009989
 21
6.892118736676613
 31
0.0
  0
LINE
  5
229
330
2
100
AcDbEntity
  8
0
100
AcDbLine
 10
0.6404166603613026
 20
6.892118736676615
 30
0.0
 11
0.6404104392807879
 21
1.694653527535559
 31
0.0
  0
LINE
  5
22A
330
2
100
AcDbEntity
  8
0
  6
DASHED
100
AcDbLine
 10
4.79442111201055
 20
0.0830100000000016
 30
0.0
 11
7.28611511201056
 21
0.0830100000000016
 31
0.0
  0
LINE
  5
22B
330
2
100
AcDbEntity
  8
0
100
AcDbLine
 10
4.79442111201055
 20
0.0205100000000016
 30
0.0
 11
7.28611511201056
 21
0.0205100000000016
 31
0.0
  0
LINE
  5
22C
330
2
100
AcDbEntity
  8
0
100
AcDbLine
 10
4.79442111201055
 20
0.2167999999999992
 30
0.0
 11
5.93252154073976
 21
1.694653527535561
 31
0.0
  0
LINE
  5
22D
330
2
100
AcDbEntity
  8
0
100
AcDbLine
 10
1.778510868009991
 20
0.2167999999999992
 30
0.0
 11
0.6404104392807808
 21
1.694653527535561
 31
0.0
  0
LINE
  5
22E
330
2
100
AcDbEntity
  8
0
100
AcDbLine
 10
0.9195287446893543
 20
0.0791526689309539
 30
0.0
 11
0.9195287446893543
 21
0.0000000000000009
 31
0.0
  0
LINE
  5
22F
330
2
100
AcDbEntity
  8
0
100
AcDbLine
 10
0.669528744683368
 20
0.0791808273768488
 30
0.0
 11
0.669528744683368
 21
0.0
 31
0.0
  0
ARC
  5
230
330
2
100
AcDbEntity
  8
0
100
AcDbCircle
 10
1.657440868009995
 20
0.2000000000000028
 30
0.0
 40
0.2
100
AcDbArc
 50
270.0
 51
0.0
  0
ARC
  5
231
330
2
100
AcDbEntity
  8
0
100
AcDbCircle
 10
1.653510868009991
 20
0.2040700000000015
 30
0.0
 40
0.125
100
AcDbArc
 50
269.9927
 51
0.0
  0
LINE
  5
232
330
2
100
AcDbEntity
  8
0
100
AcDbLine
 10
4.79442111201055
 20
0.0205100000000016
 30
0.0
 11
4.79442111201055
 21
0.2167999999999992
 31
0.0
  0
ARC
  5
233
330
2
100
AcDbEntity
  8
0
100
AcDbCircle
 10
1.778510868009991
 20
2.57944299725307
 30
0.0
 40
0.156
100
AcDbArc
 50
90.0
 51
270.0
  0
LWPOLYLINE
  5
234
330
2
100
AcDbEntity
  8
0
100
AcDbPolyline
 90
        6
 70
     1
 43
0.0
 10
1.343888347545788
 20
2.433260174601712
 10
1.526876288771994
 20
2.384228703184538
 42
-0.5773502686101053
 10
1.54088528047214
 20
2.331946434214988
 10
1.406928810163685
 20
2.197989963906533
 42
-0.5773502697691459
 10
1.354646541166011
 20
2.211998955711637
 10
1.305615070314802
 20
2.394986897370723
 42
-0.5773502691896258
  0
CIRCLE
  5
235
330
2
100
AcDbEntity
  8
0
100
AcDbCircle
 10
1.402920868009988
 20
1.419746286394432
 30
0.0
 40
0.109
  0
CIRCLE
  5
236
330
2
100
AcDbEntity
  8
0
100
AcDbCircle
 10
0.9609113270536893
 20
1.846385180369888
 30
0.0
 40
0.109
  0
LWPOLYLINE
  5
237
330
2
100
AcDbEntity
  8
0
100
AcDbPolyline
 90
        6
 70
     1
 43
0.0
 10
1.343888347545788
 20
3.561258709668568
 10
1.526876288771994
 20
3.512227238251395
 42
-0.5773502686101053
 10
1.54088528047214
 20
3.459944969281844
 10
1.406928810163685
 20
3.325988498973389
 42
-0.5773502697691459
 10
1.354646541166011
 20
3.339997490778494
 10
1.305615070314802
 20
3.522985432437579
 42
-0.5773502691896258
  0
CIRCLE
  5
238
330
2
100
AcDbEntity
  8
0
100
AcDbCircle
 10
1.339670868009985
 20
2.970254468046141
 30
0.0
 40
0.109
  0
CIRCLE
  5
239
330
2
100
AcDbEntity
  8
0
100
AcDbCircle
 10
0.9609113270536893
 20
3.897257273393159
 30
0.0
 40
0.109
  0
LINE
  5
23A
330
2
100
AcDbEntity
  8
0
100
AcDbLine
 10
7.28611511201056
 20
0.0205100000000016
 30
0.0
 11
7.28611511201056
 21
0.2167999999999992
 31
0.0
  0
LINE
  5
23B
330
2
100
AcDbEntity
  8
0
100
AcDbLine
 10
7.286115112010563
 20
0.2167999999999992
 30
0.0
 11
7.392071112010552
 21
0.2167999999999992
 31
0.0
  0
ARC
  5
23C
330
2
100
AcDbEntity
  8
0
100
AcDbCircle
 10
7.299999974189102
 20
2.573409607190419
 30
0.0
 40
0.1535427933200886
100
AcDbArc
 50
53.51107369463323
 51
306.4889263053668
  0
LINE
  5
23D
330
2
100
AcDbEntity
  8
0
100
AcDbLine
 10
7.285557170648627
 20
2.727833474433362
 30
0.0
 11
7.285557170648627
 21
2.420747887793185
 31
0.0
  0
CIRCLE
  5
23E
330
2
100
AcDbEntity
  8
0
100
AcDbCircle
 10
6.30752154073976
 20
1.028562641119505
 30
0.0
 40
0.078
  0
LINE
  5
23F
330
2
100
AcDbEntity
  8
0
100
AcDbLine
 10
5.93252154073976
 20
6.889331579229369
 30
0.0
 11
7.392071112010559
 21
6.889172841090156
 31
0.0
  0
CIRCLE
  5
240
330
2
100
AcDbEntity
  8
0
100
AcDbCircle
 10
0.9609113270536893
 20
5.647257273393159
 30
0.0
 40
0.109
  0
LINE
  5
241
330
2
100
AcDbEntity
  8
0
100
AcDbLine
 10
0.6404166603613026
 20
6.892118736676615
 30
0.0
 11
1.857440868009992
 21
6.892118736676615
 31
0.0
  0
LINE
  5
242
330
2
100
AcDbEntity
  8
0
100
AcDbLine
 10
0.9195287446893543
 20
11.57646709157578
 30
0.0
 11
1.866048358111445
 21
11.57646709157578
 31
0.0
  0
LINE
  5
243
330
2
100
AcDbEntity
  8
0
100
AcDbLine
 10
0.919528528408363
 20
11.60771752413177
 30
0.0
 11
0.9195287446893543
 21
11.57646709157578
 31
0.0
  0
ARC
  5
244
330
2
100
AcDbEntity
  8
0
100
AcDbCircle
 10
0.8570285284098604
 20
11.60771709157578
 30
0.0
 40
0.0625
100
AcDbArc
 50
0.0003965381240906
 51
90.0
  0
LINE
  5
245
330
2
100
AcDbEntity
  8
0
100
AcDbLine
 10
0.6695285284083647
 20
11.60771665901979
 30
0.0
 11
0.669528744683368
 21
11.57646709157578
 31
0.0
  0
ARC
  5
246
330
2
100
AcDbEntity
  8
0
100
AcDbCircle
 10
0.7320285284068673
 20
11.60771709157578
 30
0.0
 40
0.0625
100
AcDbArc
 50
90.0
 51
180.0003965381241
  0
LINE
  5
247
330
2
100
AcDbEntity
  8
0
100
AcDbLine
 10
0.7320285284068673
 20
11.67021709157578
 30
0.0
 11
0.8570285284098604
 21
11.67021709157578
 31
0.0
  0
LWPOLYLINE
  5
248
330
2
100
AcDbEntity
  8
0
100
AcDbPolyline
 90
        6
 70
     1
 43
0.0
 10
6.376773249426826
 20
5.056094800594446
 10
6.193785308200624
 20
5.007063329177274
 42
0.5773502686101053
 10
6.179776316500476
 20
4.954781060207724
 10
6.313732786808931
 20
4.820824589899269
 42
0.5773502697691459
 10
6.366015055806606
 20
4.834833581704373
 10
6.415046526657815
 20
5.017821523363459
 42
0.5773502691896258
  0
CIRCLE
  5
249
330
2
100
AcDbEntity
  8
0
100
AcDbCircle
 10
6.307521540739757
 20
6.514331579229369
 30
0.0
 40
0.078
  0
LINE
  5
24A
330
2
100
AcDbEntity
  8
0
100
AcDbLine
 10
0.6656020910577665
 20
14.07681816508323
 30
0.0
 11
-0.6468979089736671
 21
14.07681816508323
 31
0.0
  0
LINE
  5
24B
330
2
100
AcDbEntity
  8
0
100
AcDbLine
 10
-1.853677058605247
 20
12.72948020141924
 30
0.0
 11
-1.77520260926076
 21
12.72948020141924
 31
0.0
  0
LINE
  5
24C
330
2
100
AcDbEntity
  8
0
100
AcDbLine
 10
-0.601790011787565
 20
14.18376036122968
 30
0.0
 11
-1.743710365416611
 21
14.18376036122968
 31
0.0
  0
LINE
  5
24D
330
2
100
AcDbEntity
  8
0
100
AcDbLine
 10
-1.713202609260769
 20
14.10448020141923
 30
0.0
 11
-0.601790011787565
 21
14.10448020141923
 31
0.0
  0
LINE
  5
24E
330
2
100
AcDbEntity
  8
0
100
AcDbLine
 10
-0.8968979089796552
 20
14.07681816508323
 30
0.0
 11
-1.77520260926076
 21
14.0764670915738
 31
0.0
  0
ARC
  5
24F
330
2
100
AcDbEntity
  8
0
100
AcDbCircle
 10
-1.713202609260769
 20
14.04248020141924
 30
0.0
 40
0.062
100
AcDbArc
 50
90.00000000000006
 51
180.0
  0
ARC
  5
250
330
2
100
AcDbEntity
  8
0
100
AcDbCircle
 10
-1.743710365416611
 20
14.07376036122968
 30
0.0
 40
0.11
100
AcDbArc
 50
90.00000000000006
 51
178.5900010943918
  0
LINE
  5
251
330
2
100
AcDbEntity
  8
0
100
AcDbLine
 10
-0.601790011787565
 20
14.10448020141923
 30
0.0
 11
-0.601790011787565
 21
14.18376036122968
 31
0.0
  0
LINE
  5
252
330
2
100
AcDbEntity
  8
0
100
AcDbLine
 10
-0.7093976926971681
 20
13.98306816508323
 30
0.0
 11
-0.8343976927001604
 21
13.98306816508323
 31
0.0
  0
LINE
  5
253
330
2
100
AcDbEntity
  8
0
100
AcDbLine
 10
-0.6468979089736671
 20
14.07681816508323
 30
0.0
 11
-0.6468976926986647
 21
14.04556859763923
 31
0.0
  0
ARC
  5
254
330
2
100
AcDbEntity
  8
0
100
AcDbCircle
 10
-0.7093976926971681
 20
14.04556816508323
 30
0.0
 40
0.0625
100
AcDbArc
 50
270.0
 51
0.0003965381241415
  0
LINE
  5
255
330
2
100
AcDbEntity
  8
0
100
AcDbLine
 10
-0.8968979089796543
 20
14.07681816508323
 30
0.0
 11
-0.8968976926986638
 21
14.04556773252724
 31
0.0
  0
ARC
  5
256
330
2
100
AcDbEntity
  8
0
100
AcDbCircle
 10
-0.8343976927001604
 20
14.04556816508323
 30
0.0
 40
0.0625
100
AcDbArc
 50
180.0003965381243
 51
270.0
  0
LINE
  5
257
330
2
100
AcDbEntity
  8
0
100
AcDbLine
 10
1.787540601955599
 20
12.72948020141924
 30
0.0
 11
1.866048358111445
 21
12.72948020141923
 31
0.0
  0
LINE
  5
258
330
2
100
AcDbEntity
  8
0
100
AcDbLine
 10
1.725540601955596
 20
14.10866979105647
 30
0.0
 11
0.6639599219631522
 21
14.10866979105647
 31
0.0
  0
LINE
  5
259
330
2
100
AcDbEntity
  8
0
100
AcDbLine
 10
0.6639599219631522
 20
14.18794995086691
 30
0.0
 11
1.756048358111447
 21
14.18794995086691
 31
0.0
  0
LINE
  5
25A
330
2
100
AcDbEntity
  8
0
100
AcDbLine
 10
1.787540601955601
 20
14.07646709157578
 30
0.0
 11
0.9156020910637528
 21
14.07681816508323
 31
0.0
  0
LINE
  5
25B
330
2
100
AcDbEntity
  8
0
100
AcDbLine
 10
0.9156020910203457
 20
14.07682443714512
 30
0.0
 11
0.9156023073387578
 21
14.04556859763922
 31
0.0
  0
ARC
  5
25C
330
2
100
AcDbEntity
  8
0
100
AcDbCircle
 10
0.8531023073402535
 20
14.04556816508323
 30
0.0
 40
0.0625
100
AcDbArc
 50
270.0
 51
0.000396538123887
  0
LINE
  5
25D
330
2
100
AcDbEntity
  8
0
100
AcDbLine
 10
0.6639599219631522
 20
14.10866979105647
 30
0.0
 11
0.6639599219631522
 21
14.18794995086691
 31
0.0
  0
LINE
  5
25E
330
2
100
AcDbEntity
  8
0
100
AcDbLine
 10
0.6656020910263338
 20
14.07682270692115
 30
0.0
 11
0.6656023073387578
 21
14.04556773252724
 31
0.0
  0
ARC
  5
25F
330
2
100
AcDbEntity
  8
0
100
AcDbCircle
 10
0.7281023073372603
 20
14.04556816508323
 30
0.0
 40
0.0625
100
AcDbArc
 50
180.0003965381235
 51
270.0
  0
LINE
  5
260
330
2
100
AcDbEntity
  8
0
100
AcDbLine
 10
0.8531023073402535
 20
13.98306816508323
 30
0.0
 11
0.7281023073372603
 21
13.98306816508323
 31
0.0
  0
ARC
  5
261
330
2
100
AcDbEntity
  8
0
100
AcDbCircle
 10
1.725540601955596
 20
14.04666979105647
 30
0.0
 40
0.062
100
AcDbArc
 50
359.9999999999999
 51
89.99999999999994
  0
LINE
  5
262
330
2
100
AcDbEntity
  8
0
100
AcDbLine
 10
1.866048358111446
 20
14.07794995086691
 30
0.0
 11
1.866048358111446
 21
14.07646709157578
 31
0.0
  0
ARC
  5
263
330
2
100
AcDbEntity
  8
0
100
AcDbCircle
 10
1.756048358111447
 20
14.07794995086691
 30
0.0
 40
0.11
100
AcDbArc
 50
359.9999999999999
 51
89.99999999999994
  0
ENDSEC
  0
SECTION
  2
OBJECTS
  0
DICTIONARY
  5
9
330
0
100
AcDbDictionary
281
     1
  3
ACAD_COLOR
350
268
  3
ACAD_GROUP
350
23
  3
ACAD_LAYOUT
350
D
  3
ACAD_MATERIAL
350
267
  3
ACAD_MLINESTYLE
350
24
  3
ACAD_PLOTSETTINGS
350
25
  3
ACAD_PLOTSTYLENAME
350
8
  3
ACAD_TABLESTYLE
350
269
  3
ACDBHEADERROUNDTRIPXREC
350
27F
  3
AcDbVariableDictionary
350
BE
  0
DICTIONARY
  5
268
102
{ACAD_REACTORS
330
9
102
}
330
9
100
AcDbDictionary
281
     1
  0
DICTIONARY
  5
23
102
{ACAD_REACTORS
330
9
102
}
330
9
100
AcDbDictionary
281
     1
  0
DICTIONARY
  5
D
102
{ACAD_REACTORS
330
9
102
}
330
9
100
AcDbDictionary
281
     1
  3
Layout1
350
13
  3
Model
350
C
  0
DICTIONARY
  5
267
102
{ACAD_REACTORS
330
9
102
}
330
9
100
AcDbDictionary
281
     1
  0
DICTIONARY
  5
24
102
{ACAD_REACTORS
330
9
102
}
330
9
100
AcDbDictionary
281
     1
  3
STANDARD
350
27
  0
DICTIONARY
  5
25
102
{ACAD_REACTORS
330
9
102
}
330
9
100
AcDbDictionary
281
     1
  0
ACDBDICTIONARYWDFLT
  5
8
102
{ACAD_REACTORS
330
9
102
}
330
9
100
AcDbDictionary
281
     1
  3
Normal
350
7
100
AcDbDictionaryWithDefault
340
7
  0
DICTIONARY
  5
269
102
{ACAD_REACTORS
330
9
102
}
330
9
100
AcDbDictionary
281
     1
  3
Standard
350
26A
  0
DICTIONARY
  5
27F
102
{ACAD_REACTORS
330
9
102
}
330
9
100
AcDbDictionary
281
     1
  3
COLORDICT
350
280
  3
MATERIALDICT
350
281
  0
DICTIONARY
  5
BE
102
{ACAD_REACTORS
330
9
102
}
330
9
100
AcDbDictionary
281
     1
  3
CTABLESTYLE
350
27C
  3
HIDETEXT
350
27E
  0
LAYOUT
  5
13
102
{ACAD_REACTORS
330
D
102
}
102
{ACAD_XDICTIONARY
360
282
102
}
330
D
100
AcDbPlotSettings
  1

  2
C:\ACAD2000\plotters\HP LaserJet 2100 Series PS.pc3
  4

  6

 40
0.0
 41
0.0
 42
0.0
 43
0.0
 44
0.0
 45
0.0
 46
0.0
 47
0.0
 48
0.0
 49
0.0
140
0.0
141
0.0
142
1.0
143
1.0
 70
   688
 72
     0
 73
     0
 74
     5
  7

 75
    16
147
1.0
148
0.0
149
0.0
100
AcDbLayout
  1
Layout1
 70
     0
 71
     1
 10
0.0
 20
0.0
 11
12.0
 21
9.0
 12
0.0
 22
0.0
 32
0.0
 14
1.000000000000000E+20
 24
1.000000000000000E+20
 34
1.000000000000000E+20
 15
-1.000000000000000E+20
 25
-1.000000000000000E+20
 35
-1.000000000000000E+20
146
0.0
 13
0.0
 23
0.0
 33
0.0
 16
1.0
 26
0.0
 36
0.0
 17
0.0
 27
1.0
 37
0.0
 76
     0
330
E
  0
LAYOUT
  5
C
102
{ACAD_REACTORS
330
D
102
}
102
{ACAD_XDICTIONARY
360
284
102
}
330
D
100
AcDbPlotSettings
  1

  2
HP LaserJet 2100 Series PS
  4
Letter
  6

 40
5.365749835968018
 41
5.365735054016113
 42
3.175003051757813
 43
3.17498779296875
 44
210.4813232421875
 45
273.9813232421875
 46
0.0
 47
0.0
 48
0.0
 49
0.0
140
0.0
141
0.0
142
1.0
143
3.962056750635113
 70
 28336
 72
     0
 73
     1
 74
     2
  7

 75
     0
147
0.2523941636726181
148
0.0
149
0.0
100
AcDbLayout
  1
Model
 70
     1
 71
     0
 10
0.0
 20
0.0
 11
12.0
 21
9.0
 12
0.0
 22
0.0
 32
0.0
 14
0.0
 24
0.0
 34
0.0
 15
0.0
 25
0.0
 35
0.0
146
0.0
 13
0.0
 23
0.0
 33
0.0
 16
1.0
 26
0.0
 36
0.0
 17
0.0
 27
1.0
 37
0.0
 76
     0
330
2
  0
MLINESTYLE
  5
27
102
{ACAD_REACTORS
330
24
102
}
330
24
100
AcDbMlineStyle
  2
STANDARD
 70
     0
  3

 62
   256
 51
90.0
 52
90.0
 71
     2
 49
0.5
 62
   256
  6
BYLAYER
 49
-0.5
 62
   256
  6
BYLAYER
  0
ACDBPLACEHOLDER
  5
7
102
{ACAD_REACTORS
330
8
102
}
330
8
  0
ACAD_PROXY_OBJECT
  5
26A
102
{ACAD_REACTORS
330
269
102
}
330
269
100
AcDbProxyObject
 90
      499
 91
      509
 95
   983063
 70
     0
 93
     1841
310
4214DD185B99185C9928B81E85EB51B8AE3F2E07A17AD46E2B8FC02B5E8DC0F42B1CFD028000000C1008070000C3001FDFF8000000C1003FBFF000000182007F7FE00000030400FEFFC00000060801FDFF8000000C1003FBFF00000018200000000000000681FA0B0000001820100E000186003FBFF000000182007F7FE000
310
00030400FEFFC00000060801FDFF8000000C1003FBFF000000182007F7FE000000304000AD7A3703D0AC73F4160000003040201C00030C007F7FE00000030400FEFFC00000060801FDFF8000000C1003FBFF000000182007F7FE00000030400FEFFC000000608000
340
16
340
16
340
16
 94
        0
  0
XRECORD
  5
280
102
{ACAD_REACTORS
330
27F
102
}
330
27F
100
AcDbXrecord
340
268
  0
XRECORD
  5
281
102
{ACAD_REACTORS
330
27F
102
}
330
27F
100
AcDbXrecord
340
267
  0
DICTIONARYVAR
  5
27C
102
{ACAD_REACTORS
330
BE
102
}
330
BE
100
DictionaryVariables
280
     0
  1
STANDARD
  0
DICTIONARYVAR
  5
27E
102
{ACAD_REACTORS
330
BE
102
}
330
BE
100
DictionaryVariables
280
     0
  1
0
  0
DICTIONARY
  5
282
330
13
100
AcDbDictionary
280
     1
281
     1
  3
ACAD_XREC_ROUNDTRIP
360
283
  0
DICTIONARY
  5
284
330
C
100
AcDbDictionary
280
     1
281
     1
  3
ACAD_XREC_ROUNDTRIP
360
285
  0
XRECORD
  5
283
102
{ACAD_REACTORS
330
282
102
}
330
282
100
AcDbXrecord
102
SHADEPLOT
 70
     0
102
SHADEPLOTRESLEVEL
 70
     2
102
SHADEPLOTCUSTOMDPI
 70
   300
  0
XRECORD
  5
285
102
{ACAD_REACTORS
330
284
102
}
330
284
100
AcDbXrecord
102
SHADEPLOT
 70
     0
102
SHADEPLOTRESLEVEL
 70
     2
102
SHADEPLOTCUSTOMDPI
 70
   300
  0
ENDSEC
  0
EOF
