  0
SECTION
  2
HEADER
  9
$ACADVER
  1
AC1015
  9
$ACADMAINTVER
 70
     6
  9
$DWGCODEPAGE
  3
ANSI_1252
  9
$INSBASE
 10
0.0
 20
0.0
 30
0.0
  9
$EXTMIN
 10
-9.582861602587641
 20
-0.0424796135876662
 30
-0.0000000000112498
  9
$EXTMAX
 10
9.576979499277798
 20
14.71214414058954
 30
0.0000000000002956
  9
$LIMMIN
 10
0.0
 20
0.0
  9
$LIMMAX
 10
31.5
 20
24.0
  9
$ORTHOMODE
 70
     1
  9
$REGENMODE
 70
     1
  9
$FILLMODE
 70
     1
  9
$QTEXTMODE
 70
     0
  9
$MIRRTEXT
 70
     0
  9
$LTSCALE
 40
1.0
  9
$ATTMODE
 70
     1
  9
$TEXTSIZE
 40
0.27
  9
$TRACEWID
 40
0.05
  9
$TEXTSTYLE
  7
STANDARD
  9
$CLAYER
  8
0
  9
$CELTYPE
  6
BYLAYER
  9
$CECOLOR
 62
   256
  9
$CELTSCALE
 40
1.0
  9
$DISPSILH
 70
     0
  9
$DIMSCALE
 40
1.0
  9
$DIMASZ
 40
0.375
  9
$DIMEXO
 40
0.0625
  9
$DIMDLI
 40
0.75
  9
$DIMRND
 40
0.0
  9
$DIMDLE
 40
0.0
  9
$DIMEXE
 40
0.18
  9
$DIMTP
 40
0.0
  9
$DIMTM
 40
0.0
  9
$DIMTXT
 40
0.27
  9
$DIMCEN
 40
-0.06
  9
$DIMTSZ
 40
0.0
  9
$DIMTOL
 70
     0
  9
$DIMLIM
 70
     0
  9
$DIMTIH
 70
     1
  9
$DIMTOH
 70
     1
  9
$DIMSE1
 70
     0
  9
$DIMSE2
 70
     0
  9
$DIMTAD
 70
     0
  9
$DIMZIN
 70
     0
  9
$DIMBLK
  1

  9
$DIMASO
 70
     0
  9
$DIMSHO
 70
     0
  9
$DIMPOST
  1

  9
$DIMAPOST
  1

  9
$DIMALT
 70
     0
  9
$DIMALTD
 70
     2
  9
$DIMALTF
 40
25.4
  9
$DIMLFAC
 40
1.0
  9
$DIMTOFL
 70
     0
  9
$DIMTVP
 40
0.0
  9
$DIMTIX
 70
     0
  9
$DIMSOXD
 70
     0
  9
$DIMSAH
 70
     0
  9
$DIMBLK1
  1

  9
$DIMBLK2
  1

  9
$DIMSTYLE
  2
STANDARD
  9
$DIMCLRD
 70
     0
  9
$DIMCLRE
 70
     0
  9
$DIMCLRT
 70
     0
  9
$DIMTFAC
 40
1.0
  9
$DIMGAP
 40
0.09
  9
$DIMJUST
 70
     0
  9
$DIMSD1
 70
     0
  9
$DIMSD2
 70
     0
  9
$DIMTOLJ
 70
     1
  9
$DIMTZIN
 70
     0
  9
$DIMALTZ
 70
     0
  9
$DIMALTTZ
 70
     0
  9
$DIMUPT
 70
     0
  9
$DIMDEC
 70
     3
  9
$DIMTDEC
 70
     3
  9
$DIMALTU
 70
     2
  9
$DIMALTTD
 70
     2
  9
$DIMTXSTY
  7
STANDARD
  9
$DIMAUNIT
 70
     0
  9
$DIMADEC
 70
     0
  9
$DIMALTRND
 40
0.0
  9
$DIMAZIN
 70
     0
  9
$DIMDSEP
 70
    46
  9
$DIMATFIT
 70
     3
  9
$DIMFRAC
 70
     0
  9
$DIMLDRBLK
  1

  9
$DIMLUNIT
 70
     2
  9
$DIMLWD
 70
    -2
  9
$DIMLWE
 70
    -2
  9
$DIMTMOVE
 70
     2
  9
$LUNITS
 70
     2
  9
$LUPREC
 70
     3
  9
$SKETCHINC
 40
0.1
  9
$FILLETRAD
 40
0.0
  9
$AUNITS
 70
     0
  9
$AUPREC
 70
     0
  9
$MENU
  1
ACAD
  9
$ELEVATION
 40
0.0
  9
$PELEVATION
 40
0.0
  9
$THICKNESS
 40
0.0
  9
$LIMCHECK
 70
     0
  9
$CHAMFERA
 40
0.0
  9
$CHAMFERB
 40
0.0
  9
$CHAMFERC
 40
0.0
  9
$CHAMFERD
 40
0.0
  9
$SKPOLY
 70
     0
  9
$TDCREATE
 40
2449945.794627546
  9
$TDUCREATE
 40
2449946.12796088
  9
$TDUPDATE
 40
2454165.881585833
  9
$TDUUPDATE
 40
2454166.214919167
  9
$TDINDWG
 40
0.0291231134
  9
$TDUSRTIMER
 40
0.0291231134
  9
$USRTIMER
 70
     1
  9
$ANGBASE
 50
0.0
  9
$ANGDIR
 70
     0
  9
$PDMODE
 70
     0
  9
$PDSIZE
 40
0.0
  9
$PLINEWID
 40
0.0
  9
$SPLFRAME
 70
     0
  9
$SPLINETYPE
 70
     6
  9
$SPLINESEGS
 70
     8
  9
$HANDSEED
  5
196
  9
$SURFTAB1
 70
     6
  9
$SURFTAB2
 70
     6
  9
$SURFTYPE
 70
     6
  9
$SURFU
 70
     6
  9
$SURFV
 70
     6
  9
$UCSBASE
  2

  9
$UCSNAME
  2

  9
$UCSORG
 10
0.0
 20
0.0
 30
0.0
  9
$UCSXDIR
 10
1.0
 20
0.0
 30
0.0
  9
$UCSYDIR
 10
0.0
 20
1.0
 30
0.0
  9
$UCSORTHOREF
  2

  9
$UCSORTHOVIEW
 70
     0
  9
$UCSORGTOP
 10
0.0
 20
0.0
 30
0.0
  9
$UCSORGBOTTOM
 10
0.0
 20
0.0
 30
0.0
  9
$UCSORGLEFT
 10
0.0
 20
0.0
 30
0.0
  9
$UCSORGRIGHT
 10
0.0
 20
0.0
 30
0.0
  9
$UCSORGFRONT
 10
0.0
 20
0.0
 30
0.0
  9
$UCSORGBACK
 10
0.0
 20
0.0
 30
0.0
  9
$PUCSBASE
  2

  9
$PUCSNAME
  2

  9
$PUCSORG
 10
0.0
 20
0.0
 30
0.0
  9
$PUCSXDIR
 10
1.0
 20
0.0
 30
0.0
  9
$PUCSYDIR
 10
0.0
 20
1.0
 30
0.0
  9
$PUCSORTHOREF
  2

  9
$PUCSORTHOVIEW
 70
     0
  9
$PUCSORGTOP
 10
0.0
 20
0.0
 30
0.0
  9
$PUCSORGBOTTOM
 10
0.0
 20
0.0
 30
0.0
  9
$PUCSORGLEFT
 10
0.0
 20
0.0
 30
0.0
  9
$PUCSORGRIGHT
 10
0.0
 20
0.0
 30
0.0
  9
$PUCSORGFRONT
 10
0.0
 20
0.0
 30
0.0
  9
$PUCSORGBACK
 10
0.0
 20
0.0
 30
0.0
  9
$USERI1
 70
     0
  9
$USERI2
 70
     0
  9
$USERI3
 70
     0
  9
$USERI4
 70
     0
  9
$USERI5
 70
     0
  9
$USERR1
 40
0.0
  9
$USERR2
 40
0.0
  9
$USERR3
 40
0.0
  9
$USERR4
 40
0.0
  9
$USERR5
 40
0.0
  9
$WORLDVIEW
 70
     1
  9
$SHADEDGE
 70
     3
  9
$SHADEDIF
 70
    70
  9
$TILEMODE
 70
     1
  9
$MAXACTVP
 70
    16
  9
$PINSBASE
 10
0.0
 20
0.0
 30
0.0
  9
$PLIMCHECK
 70
     0
  9
$PEXTMIN
 10
1.000000000000000E+20
 20
1.000000000000000E+20
 30
1.000000000000000E+20
  9
$PEXTMAX
 10
-1.000000000000000E+20
 20
-1.000000000000000E+20
 30
-1.000000000000000E+20
  9
$PLIMMIN
 10
0.0
 20
0.0
  9
$PLIMMAX
 10
12.0
 20
9.0
  9
$UNITMODE
 70
     0
  9
$VISRETAIN
 70
     0
  9
$PLINEGEN
 70
     0
  9
$PSLTSCALE
 70
     0
  9
$TREEDEPTH
 70
  3020
  9
$CMLSTYLE
  2
STANDARD
  9
$CMLJUST
 70
     0
  9
$CMLSCALE
 40
1.0
  9
$PROXYGRAPHICS
 70
     1
  9
$MEASUREMENT
 70
     0
  9
$CELWEIGHT
370
    -1
  9
$ENDCAPS
280
     0
  9
$JOINSTYLE
280
     0
  9
$LWDISPLAY
290
     0
  9
$INSUNITS
 70
     0
  9
$HYPERLINKBASE
  1

  9
$STYLESHEET
  1

  9
$XEDIT
290
     1
  9
$CEPSNTYPE
380
     0
  9
$PSTYLEMODE
290
     1
  9
$FINGERPRINTGUID
  2
{A2ABDCF6-D096-4228-ACC7-4B00C67737ED}
  9
$VERSIONGUID
  2
{CD6B15D0-C3D1-4DFA-9CCC-5192790B885C}
  9
$EXTNAMES
290
     1
  9
$PSVPSCALE
 40
0.0
  9
$OLESTARTUP
290
     0
  0
ENDSEC
  0
SECTION
  2
CLASSES
  0
CLASS
  1
DICTIONARYVAR
  2
AcDbDictionaryVar
  3
AutoCAD 2000
 90
        0
280
     0
281
     0
  0
CLASS
  1
LWPOLYLINE
  2
AcDbPolyline
  3
AutoCAD 2000
 90
        0
280
     0
281
     1
  0
CLASS
  1
ACDBDICTIONARYWDFLT
  2
AcDbDictionaryWithDefault
  3
AutoCAD 2000
 90
        0
280
     0
281
     0
  0
CLASS
  1
ACDBPLACEHOLDER
  2
AcDbPlaceHolder
  3
ObjectDBX Classes
 90
        0
280
     0
281
     0
  0
CLASS
  1
LAYOUT
  2
AcDbLayout
  3
ObjectDBX Classes
 90
        0
280
     0
281
     0
  0
CLASS
  1
LONG_TRANSACTION
  2
AcDbLongTransaction
  3
ObjectDBX Classes
 90
   -65536
280
     1
281
     0
  0
CLASS
  1
LWPOLYLINE
  2
AcDbPolyline
  3
AutoCAD 2000
 90
        0
280
     0
281
     1
  0
CLASS
  1
HATCH
  2
AcDbHatch
  3
AutoCAD 2000
 90
        0
280
     0
281
     1
  0
CLASS
  1
XRECORD
  2
AcDbXrecord
  3
AutoCAD 2000
 90
        0
280
     0
281
     0
  0
CLASS
  1
TABLESTYLE
  2
AcDbTableStyle
  3
ObjectDBX Classes
 90
     2047
280
     1
281
     0
  0
ENDSEC
  0
SECTION
  2
TABLES
  0
TABLE
  2
VPORT
  5
1D
330
0
100
AcDbSymbolTable
 70
     3
  0
VPORT
  5
186
330
1D
100
AcDbSymbolTableRecord
100
AcDbViewportTableRecord
  2
*Active
 70
     0
 10
0.0
 20
0.0
 11
1.0
 21
1.0
 12
10.95856919870618
 22
11.97876019320617
 13
0.0
 23
0.0
 14
0.0625
 24
0.0625
 15
0.5
 25
0.5
 16
0.0
 26
0.0
 36
1.0
 17
0.0
 27
0.0
 37
0.0
 40
24.34238580419375
 41
1.814583333333333
 42
50.0
 43
0.0
 44
0.0
 50
0.0
 51
0.0
 71
     0
 72
   100
 73
     1
 74
     0
 75
     0
 76
     0
 77
     0
 78
     0
281
     0
 65
     1
110
0.0
120
0.0
130
0.0
111
1.0
121
0.0
131
0.0
112
0.0
122
1.0
132
0.0
 79
     0
146
0.0
  0
ENDTAB
  0
TABLE
  2
LTYPE
  5
18
330
0
100
AcDbSymbolTable
 70
     2
  0
LTYPE
  5
19
330
18
100
AcDbSymbolTableRecord
100
AcDbLinetypeTableRecord
  2
BYBLOCK
 70
     0
  3

 72
    65
 73
     0
 40
0.0
  0
LTYPE
  5
1A
330
18
100
AcDbSymbolTableRecord
100
AcDbLinetypeTableRecord
  2
BYLAYER
 70
     0
  3

 72
    65
 73
     0
 40
0.0
  0
LTYPE
  5
A
330
18
100
AcDbSymbolTableRecord
100
AcDbLinetypeTableRecord
  2
CONTINUOUS
 70
     0
  3
Solid line
 72
    65
 73
     0
 40
0.0
  0
LTYPE
  5
185
330
18
100
AcDbSymbolTableRecord
100
AcDbLinetypeTableRecord
  2
HIDDEN
 70
     0
  3
Hidden __ __ __ __ __ __ __ __ __ __ __ __ __ _
 72
    65
 73
     2
 40
0.375
 49
0.25
 74
     0
 49
-0.125
 74
     0
  0
ENDTAB
  0
TABLE
  2
LAYER
  5
14
330
0
100
AcDbSymbolTable
 70
     2
  0
LAYER
  5
6
330
14
100
AcDbSymbolTableRecord
100
AcDbLayerTableRecord
  2
0
 70
     0
 62
     7
  6
CONTINUOUS
370
    -3
390
7
  0
ENDTAB
  0
TABLE
  2
STYLE
  5
15
330
0
100
AcDbSymbolTable
 70
     2
  0
STYLE
  5
16
330
15
100
AcDbSymbolTableRecord
100
AcDbTextStyleTableRecord
  2
STANDARD
 70
     0
 40
0.0
 41
1.0
 50
0.0
 71
     0
 42
0.27
  3
TXT
  4

  0
STYLE
  5
184
330
15
100
AcDbSymbolTableRecord
100
AcDbTextStyleTableRecord
  2

 70
     1
 40
0.0
 41
1.0
 50
0.0
 71
     0
 42
0.27
  3
ltypeshp.shx
  4

  0
ENDTAB
  0
TABLE
  2
VIEW
  5
1B
330
0
100
AcDbSymbolTable
 70
     0
  0
ENDTAB
  0
TABLE
  2
UCS
  5
1C
330
0
100
AcDbSymbolTable
 70
     0
  0
ENDTAB
  0
TABLE
  2
APPID
  5
1F
330
0
100
AcDbSymbolTable
 70
     1
  0
APPID
  5
20
330
1F
100
AcDbSymbolTableRecord
100
AcDbRegAppTableRecord
  2
ACAD
 70
     0
  0
ENDTAB
  0
TABLE
  2
DIMSTYLE
  5
21
330
0
100
AcDbSymbolTable
 70
     1
100
AcDbDimStyleTable
  0
DIMSTYLE
105
28
330
21
100
AcDbSymbolTableRecord
100
AcDbDimStyleTableRecord
  2
STANDARD
 70
     0
  3

  4

340
16
  0
ENDTAB
  0
TABLE
  2
BLOCK_RECORD
  5
1
330
0
100
AcDbSymbolTable
 70
     0
  0
BLOCK_RECORD
  5
2
330
1
100
AcDbSymbolTableRecord
100
AcDbBlockTableRecord
  2
*MODEL_SPACE
340
C
  0
BLOCK_RECORD
  5
E
330
1
100
AcDbSymbolTableRecord
100
AcDbBlockTableRecord
  2
*PAPER_SPACE
340
13
  0
ENDTAB
  0
ENDSEC
  0
SECTION
  2
BLOCKS
  0
BLOCK
  5
5
330
2
100
AcDbEntity
  8
0
100
AcDbBlockBegin
  2
*MODEL_SPACE
 70
     0
 10
0.0
 20
0.0
 30
0.0
  3
*MODEL_SPACE
  1

  4

  0
ENDBLK
  5
B
330
2
100
AcDbEntity
  8
0
100
AcDbBlockEnd
  0
BLOCK
  5
11
330
E
100
AcDbEntity
 67
     1
  8
0
100
AcDbBlockBegin
  2
*PAPER_SPACE
 70
     0
 10
0.0
 20
0.0
 30
0.0
  3
*PAPER_SPACE
  1

  4

  0
ENDBLK
  5
12
330
E
100
AcDbEntity
 67
     1
  8
0
100
AcDbBlockEnd
  0
ENDSEC
  0
SECTION
  2
ENTITIES
  0
LINE
  5
CB
330
2
100
AcDbEntity
  8
0
100
AcDbLine
 10
1.609166660244314
 20
7.704618736676613
 30
0.0
 11
1.60916043928079
 21
1.694653527535559
 31
0.0
  0
LINE
  5
CC
330
2
100
AcDbEntity
  8
0
100
AcDbLine
 10
-2.747580868009982
 20
7.704618736676613
 30
0.0
 11
-2.747580868009993
 21
1.1294
 31
0.0
  0
LINE
  5
CD
330
2
100
AcDbEntity
  8
0
100
AcDbLine
 10
-2.826190868009982
 20
7.704618736676613
 30
0.0
 11
-2.826190868009991
 21
1.1294
 31
0.0
  0
LINE
  5
CE
330
2
100
AcDbEntity
  8
0
100
AcDbLine
 10
2.826190868009994
 20
7.704618736676613
 30
0.0
 11
2.826190868009991
 21
4.139220000000002
 31
0.0
  0
LINE
  5
CF
330
2
100
AcDbEntity
  8
0
100
AcDbLine
 10
2.747260868009991
 20
4.139220000000002
 30
0.0
 11
2.747260868009991
 21
7.704618736676613
 31
0.0
  0
LINE
  5
D0
330
2
100
AcDbEntity
  8
0
100
AcDbLine
 10
-1.592777016104079
 20
7.704618736676613
 30
0.0
 11
-1.592770795264033
 21
1.694653527535559
 31
0.0
  0
LINE
  5
D1
330
2
100
AcDbEntity
  8
0
100
AcDbLine
 10
-2.626852165784089
 20
0.0794429972530697
 30
0.0
 11
2.622240868009992
 21
0.0790700000000015
 31
0.0
  0
LINE
  5
D2
330
2
100
AcDbEntity
  8
0
100
AcDbLine
 10
-2.626190868009995
 20
0.0
 30
0.0
 11
2.626190868009995
 21
0.0
 31
0.0
  0
LINE
  5
D3
330
2
100
AcDbEntity
  8
0
100
AcDbLine
 10
-2.826190868009991
 20
1.139220000000002
 30
0.0
 11
-2.826190868009991
 21
0.1971900000000026
 31
0.0
  0
LINE
  5
D4
330
2
100
AcDbEntity
  8
0
100
AcDbLine
 10
-2.747580868009993
 20
1.139220000000002
 30
0.0
 11
-2.747580868009993
 21
0.201509999999999
 31
0.0
  0
LINE
  5
D5
330
2
100
AcDbEntity
  8
0
100
AcDbLine
 10
-2.730871223993236
 20
0.2167999999999992
 30
0.0
 11
-1.592770795264026
 21
1.694653527535561
 31
0.0
  0
ARC
  5
D6
330
2
100
AcDbEntity
  8
0
100
AcDbCircle
 10
-2.626190868009995
 20
0.2000000000000028
 30
0.0
 40
0.2
100
AcDbArc
 50
180.0
 51
270.0
  0
ARC
  5
D7
330
2
100
AcDbEntity
  8
0
100
AcDbCircle
 10
-2.622580868009993
 20
0.2043700000000008
 30
0.0
 40
0.125
100
AcDbArc
 50
180.0
 51
269.9927
  0
LINE
  5
D8
330
2
100
AcDbEntity
  8
0
100
AcDbLine
 10
-0.8649639293114246
 20
0.0793177985819487
 30
0.0
 11
-0.8649639293114255
 21
0.0
 31
0.0
  0
LINE
  5
D9
330
2
100
AcDbEntity
  8
0
100
AcDbLine
 10
-0.6149639293114246
 20
0.0793000337390195
 30
0.0
 11
-0.6149639293114246
 21
0.0000000000000009
 31
0.0
  0
LINE
  5
DA
330
2
100
AcDbEntity
  8
0
100
AcDbLine
 10
0.6975360706885745
 20
0.0792067683136395
 30
0.0
 11
0.6975360706885754
 21
0.0
 31
0.0
  0
LINE
  5
DB
330
2
100
AcDbEntity
  8
0
100
AcDbLine
 10
0.9475360706885736
 20
0.0791890034707103
 30
0.0
 11
0.9475360706885727
 21
0.0000000000000009
 31
0.0
  0
CIRCLE
  5
DC
330
2
100
AcDbEntity
  8
0
100
AcDbCircle
 10
-2.355281223993234
 20
1.419746286394432
 30
0.0
 40
0.109
  0
CIRCLE
  5
DF
330
2
100
AcDbEntity
  8
0
100
AcDbCircle
 10
-2.29203122399323
 20
2.970254468046141
 30
0.0
 40
0.109
  0
CIRCLE
  5
E0
330
2
100
AcDbEntity
  8
0
100
AcDbCircle
 10
-1.913271683036935
 20
1.846385180369888
 30
0.0
 40
0.109
  0
CIRCLE
  5
E1
330
2
100
AcDbEntity
  8
0
100
AcDbCircle
 10
-1.913271683036935
 20
3.897257273393159
 30
0.0
 40
0.109
  0
LINE
  5
E2
330
2
100
AcDbEntity
  8
0
100
AcDbLine
 10
2.747260868009991
 20
0.2040700000000015
 30
0.0
 11
2.747260868009991
 21
4.145110000000003
 31
0.0
  0
LINE
  5
E3
330
2
100
AcDbEntity
  8
0
100
AcDbLine
 10
2.826190868009991
 20
4.145110000000003
 30
0.0
 11
2.826190868009991
 21
0.2000000000000028
 31
0.0
  0
LINE
  5
E4
330
2
100
AcDbEntity
  8
0
100
AcDbLine
 10
2.747260868009993
 20
0.2167999999999992
 30
0.0
 11
1.609160439280783
 21
1.694653527535561
 31
0.0
  0
ARC
  5
E5
330
2
100
AcDbEntity
  8
0
100
AcDbCircle
 10
2.626190868009995
 20
0.2000000000000028
 30
0.0
 40
0.2
100
AcDbArc
 50
270.0
 51
0.0
  0
ARC
  5
E6
330
2
100
AcDbEntity
  8
0
100
AcDbCircle
 10
2.622260868009991
 20
0.2040700000000015
 30
0.0
 40
0.125
100
AcDbArc
 50
269.9927
 51
0.0
  0
CIRCLE
  5
E7
330
2
100
AcDbEntity
  8
0
100
AcDbCircle
 10
2.37167086800999
 20
1.419746286394432
 30
0.0
 40
0.109
  0
CIRCLE
  5
E8
330
2
100
AcDbEntity
  8
0
100
AcDbCircle
 10
1.929661327053691
 20
1.846385180369888
 30
0.0
 40
0.109
  0
CIRCLE
  5
EB
330
2
100
AcDbEntity
  8
0
100
AcDbCircle
 10
2.308420868009987
 20
2.970254468046141
 30
0.0
 40
0.109
  0
CIRCLE
  5
EC
330
2
100
AcDbEntity
  8
0
100
AcDbCircle
 10
1.929661327053691
 20
3.897257273393159
 30
0.0
 40
0.109
  0
LINE
  5
ED
330
2
100
AcDbEntity
  8
0
100
AcDbLine
 10
-1.592777016104079
 20
7.704618736676613
 30
0.0
 11
-2.826190868009982
 21
7.704618736676613
 31
0.0
  0
CIRCLE
  5
EE
330
2
100
AcDbEntity
  8
0
100
AcDbCircle
 10
-2.292032577226778
 20
6.402615931329594
 30
0.0
 40
0.109
  0
CIRCLE
  5
EF
330
2
100
AcDbEntity
  8
0
100
AcDbCircle
 10
-1.913273036270483
 20
5.579618736676611
 30
0.0
 40
0.109
  0
CIRCLE
  5
F0
330
2
100
AcDbEntity
  8
0
100
AcDbCircle
 10
-1.913273036270483
 20
7.329618736676613
 30
0.0
 40
0.109
  0
CIRCLE
  5
F1
330
2
100
AcDbEntity
  8
0
100
AcDbCircle
 10
2.308416489691981
 20
6.402615931326979
 30
0.0
 40
0.109
  0
CIRCLE
  5
F2
330
2
100
AcDbEntity
  8
0
100
AcDbCircle
 10
1.929659973820143
 20
5.579618736676611
 30
0.0
 40
0.109
  0
CIRCLE
  5
F3
330
2
100
AcDbEntity
  8
0
100
AcDbCircle
 10
1.929656948735686
 20
7.329618736673995
 30
0.0
 40
0.109
  0
LINE
  5
F4
330
2
100
AcDbEntity
  8
0
100
AcDbLine
 10
1.609166660244314
 20
7.704618736676613
 30
0.0
 11
2.826190868009992
 21
7.704618736676613
 31
0.0
  0
LINE
  5
F5
330
2
100
AcDbEntity
  8
0
100
AcDbLine
 10
0.9475360706885745
 20
12.07646709157579
 30
0.0
 11
2.844943837599842
 21
12.07646709157577
 31
0.0
  0
LINE
  5
F6
330
2
100
AcDbEntity
  8
0
100
AcDbLine
 10
2.766436081444
 20
14.57646709157578
 30
0.0
 11
0.9475360706885754
 21
14.57646709157578
 31
0.0
  0
LINE
  5
F7
330
2
100
AcDbEntity
  8
0
100
AcDbLine
 10
-2.812281579116854
 20
12.07646709157578
 30
0.0
 11
-0.8649639293114255
 21
12.07646709157579
 31
0.0
  0
LINE
  5
F8
330
2
100
AcDbEntity
  8
0
100
AcDbLine
 10
-0.8649639293114246
 20
14.57646709157578
 30
0.0
 11
-2.733807129772363
 21
14.57646709157578
 31
0.0
  0
LINE
  5
F9
330
2
100
AcDbEntity
  8
0
100
AcDbLine
 10
-2.68195260926077
 20
14.60448020141923
 30
0.0
 11
-1.570540011787565
 21
14.60448020141923
 31
0.0
  0
LINE
  5
FA
330
2
100
AcDbEntity
  8
0
100
AcDbLine
 10
-1.570540011787565
 20
14.68376036122968
 30
0.0
 11
-2.712460365416612
 21
14.68376036122968
 31
0.0
  0
LINE
  5
FB
330
2
100
AcDbEntity
  8
0
100
AcDbLine
 10
-2.74395260926076
 20
14.54248020141924
 30
0.0
 11
-2.74395260926076
 21
12.07646709157578
 31
0.0
  0
LINE
  5
FC
330
2
100
AcDbEntity
  8
0
100
AcDbLine
 10
-2.822427058605244
 20
14.57646709157243
 30
0.0
 11
-2.822427058605251
 21
12.07646709157578
 31
0.0
  0
LINE
  5
FD
330
2
100
AcDbEntity
  8
0
100
AcDbLine
 10
-2.81228157911685
 20
13.22948020141923
 30
0.0
 11
-2.733807129772363
 21
13.22948020141923
 31
0.0
  0
ARC
  5
FE
330
2
100
AcDbEntity
  8
0
100
AcDbCircle
 10
-2.712460365416612
 20
14.57376036122968
 30
0.0
 40
0.11
100
AcDbArc
 50
90.00000000000006
 51
178.5900010943918
  0
ARC
  5
FF
330
2
100
AcDbEntity
  8
0
100
AcDbCircle
 10
-2.68195260926077
 20
14.54248020141924
 30
0.0
 40
0.062
100
AcDbArc
 50
90.00000000000006
 51
180.0
  0
LINE
  5
100
330
2
100
AcDbEntity
  8
0
100
AcDbLine
 10
-0.6149639293114255
 20
12.07646709157579
 30
0.0
 11
0.6975360706885745
 21
12.07646709157579
 31
0.0
  0
ARC
  5
101
330
2
100
AcDbEntity
  8
0
100
AcDbCircle
 10
-0.8024639293114255
 20
12.10771709157578
 30
0.0
 40
0.0625
100
AcDbArc
 50
90.0
 51
179.9999999999994
  0
LINE
  5
102
330
2
100
AcDbEntity
  8
0
100
AcDbLine
 10
-0.8649639293114255
 20
12.10771709157578
 30
0.0
 11
-0.8649639293114255
 21
12.07646709157578
 31
0.0
  0
ARC
  5
103
330
2
100
AcDbEntity
  8
0
100
AcDbCircle
 10
-0.6774639293114255
 20
12.10771709157578
 30
0.0
 40
0.0625
100
AcDbArc
 50
359.9999999999989
 51
90.0
  0
LINE
  5
104
330
2
100
AcDbEntity
  8
0
100
AcDbLine
 10
-0.6149639293114255
 20
12.10771709157578
 30
0.0
 11
-0.6149639293114255
 21
12.07646709157578
 31
0.0
  0
LINE
  5
105
330
2
100
AcDbEntity
  8
0
100
AcDbLine
 10
-0.8024639293114255
 20
12.17021709157578
 30
0.0
 11
-0.6774639293114255
 21
12.17021709157578
 31
0.0
  0
LINE
  5
106
330
2
100
AcDbEntity
  8
0
100
AcDbLine
 10
0.7600360706885745
 20
12.17021709157578
 30
0.0
 11
0.8850360706885745
 21
12.17021709157578
 31
0.0
  0
ARC
  5
107
330
2
100
AcDbEntity
  8
0
100
AcDbCircle
 10
0.7600360706885745
 20
12.10771709157578
 30
0.0
 40
0.0625
100
AcDbArc
 50
90.0
 51
179.9999999999989
  0
LINE
  5
108
330
2
100
AcDbEntity
  8
0
100
AcDbLine
 10
0.6975360706885745
 20
12.10771709157578
 30
0.0
 11
0.6975360706885745
 21
12.07646709157579
 31
0.0
  0
LINE
  5
109
330
2
100
AcDbEntity
  8
0
100
AcDbLine
 10
0.9475360706885745
 20
12.10771709157578
 30
0.0
 11
0.9475360706885745
 21
12.07646709157579
 31
0.0
  0
ARC
  5
10A
330
2
100
AcDbEntity
  8
0
100
AcDbCircle
 10
0.8850360706885745
 20
12.10771709157578
 30
0.0
 40
0.0625
100
AcDbArc
 50
359.9999999999989
 51
90.0
  0
LINE
  5
10B
330
2
100
AcDbEntity
  8
0
100
AcDbLine
 10
0.6975360706885754
 20
14.57646709157578
 30
0.0
 11
-0.6149639293114246
 21
14.57646709157578
 31
0.0
  0
LINE
  5
10C
330
2
100
AcDbEntity
  8
0
100
AcDbLine
 10
-1.570540011787565
 20
14.60448020141923
 30
0.0
 11
-1.570540011787565
 21
14.68376036122968
 31
0.0
  0
ARC
  5
10D
330
2
100
AcDbEntity
  8
0
100
AcDbCircle
 10
-0.8024639293114211
 20
14.54521709157578
 30
0.0
 40
0.0625
100
AcDbArc
 50
180.0
 51
270.0
  0
LINE
  5
10E
330
2
100
AcDbEntity
  8
0
100
AcDbLine
 10
-0.8649639293114246
 20
14.57646709157578
 30
0.0
 11
-0.8649639293114211
 21
14.54521709157578
 31
0.0
  0
ARC
  5
10F
330
2
100
AcDbEntity
  8
0
100
AcDbCircle
 10
-0.6774639293114246
 20
14.54521709157578
 30
0.0
 40
0.0625
100
AcDbArc
 50
270.0
 51
0.0
  0
LINE
  5
110
330
2
100
AcDbEntity
  8
0
100
AcDbLine
 10
-0.6149639293114246
 20
14.57646709157578
 30
0.0
 11
-0.6149639293114246
 21
14.54521709157578
 31
0.0
  0
LINE
  5
111
330
2
100
AcDbEntity
  8
0
100
AcDbLine
 10
-0.6774639293114246
 20
14.48271709157578
 30
0.0
 11
-0.8024639293114211
 21
14.48271709157578
 31
0.0
  0
LINE
  5
112
330
2
100
AcDbEntity
  8
0
100
AcDbLine
 10
0.8850360706885754
 20
14.48271709157578
 30
0.0
 11
0.7600360706885754
 21
14.48271709157578
 31
0.0
  0
ARC
  5
113
330
2
100
AcDbEntity
  8
0
100
AcDbCircle
 10
0.7600360706885754
 20
14.54521709157578
 30
0.0
 40
0.0625
100
AcDbArc
 50
180.0
 51
270.0
  0
LINE
  5
114
330
2
100
AcDbEntity
  8
0
100
AcDbLine
 10
0.6975360706885754
 20
14.57646709157578
 30
0.0
 11
0.6975360706885754
 21
14.54521709157578
 31
0.0
  0
LINE
  5
115
330
2
100
AcDbEntity
  8
0
100
AcDbLine
 10
0.9475360706885754
 20
14.57646709157578
 30
0.0
 11
0.9475360706885754
 21
14.54521709157578
 31
0.0
  0
ARC
  5
116
330
2
100
AcDbEntity
  8
0
100
AcDbCircle
 10
0.8850360706885754
 20
14.54521709157578
 30
0.0
 40
0.0625
100
AcDbArc
 50
270.0
 51
0.0
  0
LINE
  5
117
330
2
100
AcDbEntity
  8
0
100
AcDbLine
 10
2.756290601955601
 20
14.54666979105647
 30
0.0
 11
2.756290601955601
 21
12.07646709157578
 31
0.0
  0
LINE
  5
118
330
2
100
AcDbEntity
  8
0
100
AcDbLine
 10
2.834798358111445
 20
12.07646709157578
 30
0.0
 11
2.834798358111445
 21
14.57794995086691
 31
0.0
  0
LINE
  5
119
330
2
100
AcDbEntity
  8
0
100
AcDbLine
 10
2.766436081443998
 20
13.22948020141923
 30
0.0
 11
2.844943837599842
 21
13.22948020141923
 31
0.0
  0
LINE
  5
11A
330
2
100
AcDbEntity
  8
0
100
AcDbLine
 10
1.632709921963152
 20
14.68794995086691
 30
0.0
 11
2.724798358111447
 21
14.68794995086691
 31
0.0
  0
LINE
  5
11B
330
2
100
AcDbEntity
  8
0
100
AcDbLine
 10
2.694290601955596
 20
14.60866979105647
 30
0.0
 11
1.632709921963152
 21
14.60866979105647
 31
0.0
  0
LINE
  5
11C
330
2
100
AcDbEntity
  8
0
100
AcDbLine
 10
1.632709921963152
 20
14.60866979105647
 30
0.0
 11
1.632709921963152
 21
14.68794995086691
 31
0.0
  0
ARC
  5
11D
330
2
100
AcDbEntity
  8
0
100
AcDbCircle
 10
2.694290601955596
 20
14.54666979105647
 30
0.0
 40
0.062
100
AcDbArc
 50
359.9999999999999
 51
89.99999999999994
  0
ARC
  5
11E
330
2
100
AcDbEntity
  8
0
100
AcDbCircle
 10
2.724798358111447
 20
14.57794995086691
 30
0.0
 40
0.11
100
AcDbArc
 50
359.9999999999999
 51
89.99999999999994
  0
LINE
  5
11F
330
2
100
AcDbEntity
  8
0
100
AcDbLine
 10
2.834798358111446
 20
14.57794995086691
 30
0.0
 11
2.834798358111446
 21
14.57646709157578
 31
0.0
  0
LINE
  5
120
330
2
100
AcDbEntity
  8
0
  6
HIDDEN
100
AcDbLine
 10
9.469254031717409
 20
0.2167999999999992
 30
0.0
 11
9.469254031717391
 21
7.701684364685248
 31
0.0
  0
LINE
  5
121
330
2
100
AcDbEntity
  8
0
100
AcDbLine
 10
8.115660460446605
 20
7.701831579229362
 30
0.0
 11
8.115660460446609
 21
1.694653527535561
 31
0.0
  0
LINE
  5
122
330
2
100
AcDbEntity
  8
0
100
AcDbLine
 10
9.575210031717401
 20
0.2167999999999992
 30
0.0
 11
9.575210031717411
 21
7.701672841090156
 31
0.0
  0
LINE
  5
123
330
2
100
AcDbEntity
  8
0
100
AcDbLine
 10
6.977560031717399
 20
0.2167999999999992
 30
0.0
 11
8.115660460446609
 21
1.694653527535561
 31
0.0
  0
LINE
  5
124
330
2
100
AcDbEntity
  8
0
  6
HIDDEN
100
AcDbLine
 10
6.977560031717399
 20
0.0830100000000016
 30
0.0
 11
9.469254031717409
 21
0.0830100000000016
 31
0.0
  0
LINE
  5
125
330
2
100
AcDbEntity
  8
0
100
AcDbLine
 10
6.977560031717399
 20
0.0205100000000016
 30
0.0
 11
9.469254031717409
 21
0.0205100000000016
 31
0.0
  0
LINE
  5
126
330
2
100
AcDbEntity
  8
0
100
AcDbLine
 10
6.977560031717399
 20
0.0205100000000016
 30
0.0
 11
6.977560031717399
 21
0.2167999999999992
 31
0.0
  0
LINE
  5
127
330
2
100
AcDbEntity
  8
0
100
AcDbLine
 10
9.469254031717412
 20
0.2167999999999992
 30
0.0
 11
9.575210031717401
 21
0.2167999999999992
 31
0.0
  0
LINE
  5
128
330
2
100
AcDbEntity
  8
0
100
AcDbLine
 10
9.469254031717409
 20
0.0205100000000016
 30
0.0
 11
9.469254031717409
 21
0.2167999999999992
 31
0.0
  0
CIRCLE
  5
129
330
2
100
AcDbEntity
  8
0
100
AcDbCircle
 10
8.490660460446609
 20
1.028562641119505
 30
0.0
 40
0.0855
  0
CIRCLE
  5
12E
330
2
100
AcDbEntity
  8
0
100
AcDbCircle
 10
8.490660460446609
 20
3.392472639288386
 30
0.0
 40
0.0855
  0
LINE
  5
12F
330
2
100
AcDbEntity
  8
0
100
AcDbLine
 10
8.115660460446609
 20
7.701831579229369
 30
0.0
 11
9.575210031717408
 21
7.701672841090156
 31
0.0
  0
CIRCLE
  5
133
330
2
100
AcDbEntity
  8
0
100
AcDbCircle
 10
8.490660460446605
 20
7.326831579229369
 30
0.0
 40
0.0855
  0
LWPOLYLINE
  5
136
330
2
100
AcDbEntity
  8
0
100
AcDbPolyline
 90
        6
 70
     1
 43
0.0
 10
-2.296248703529036
 20
2.433260174601712
 10
-2.479236644755241
 20
2.384228703184538
 42
0.5773502686101053
 10
-2.493245636455387
 20
2.331946434214988
 10
-2.359289166146932
 20
2.197989963906533
 42
0.5773502697691459
 10
-2.307006897149257
 20
2.211998955711637
 10
-2.257975426298049
 20
2.394986897370723
 42
0.5773502691896258
  0
LWPOLYLINE
  5
13D
330
2
100
AcDbEntity
  8
0
100
AcDbPolyline
 90
        6
 70
     1
 43
0.0
 10
-2.296248703529036
 20
3.561258709668566
 10
-2.479236644755241
 20
3.512227238251395
 42
0.5773502686101053
 10
-2.493245636455387
 20
3.459944969281844
 10
-2.359289166146932
 20
3.325988498973389
 42
0.5773502697691459
 10
-2.307006897149257
 20
3.339997490778494
 10
-2.257975426298049
 20
3.522985432437579
 42
0.5773502691896258
  0
LWPOLYLINE
  5
144
330
2
100
AcDbEntity
  8
0
100
AcDbPolyline
 90
        6
 70
     1
 43
0.0
 10
2.31263834754579
 20
2.433260174601712
 10
2.495626288771995
 20
2.384228703184538
 42
-0.5773502686101053
 10
2.509635280472142
 20
2.331946434214988
 10
2.375678810163687
 20
2.197989963906533
 42
-0.5773502697691459
 10
2.323396541166013
 20
2.211998955711637
 10
2.274365070314803
 20
2.394986897370723
 42
-0.5773502691896258
  0
LWPOLYLINE
  5
14B
330
2
100
AcDbEntity
  8
0
100
AcDbPolyline
 90
        6
 70
     1
 43
0.0
 10
2.31263834754579
 20
3.561258709668568
 10
2.495626288771995
 20
3.512227238251395
 42
-0.5773502686101053
 10
2.509635280472142
 20
3.459944969281844
 10
2.375678810163687
 20
3.325988498973389
 42
-0.5773502697691459
 10
2.323396541166013
 20
3.339997490778494
 10
2.274365070314803
 20
3.522985432437579
 42
-0.5773502691896258
  0
LWPOLYLINE
  5
152
330
2
100
AcDbEntity
  8
0
100
AcDbPolyline
 90
        6
 70
     1
 43
0.0
 10
8.559912169133675
 20
5.868594800594446
 10
8.376924227907473
 20
5.819563329177274
 42
0.5773502686101053
 10
8.362915236207325
 20
5.767281060207724
 10
8.49687170651578
 20
5.633324589899269
 42
0.5773502697691459
 10
8.549153975513455
 20
5.647333581704373
 10
8.598185446364663
 20
5.830321523363459
 42
0.5773502691896258
  0
LINE
  5
15D
330
2
100
AcDbEntity
  8
0
  6
HIDDEN
100
AcDbLine
 10
-9.473865329491506
 20
0.2167999999999992
 30
0.0
 11
-9.473865329491488
 21
7.701684364685248
 31
0.0
  0
LINE
  5
15E
330
2
100
AcDbEntity
  8
0
100
AcDbLine
 10
-8.120271758220703
 20
7.701831579229362
 30
0.0
 11
-8.120271758220707
 21
1.694653527535561
 31
0.0
  0
LINE
  5
15F
330
2
100
AcDbEntity
  8
0
100
AcDbLine
 10
-9.579821329491498
 20
0.2167999999999992
 30
0.0
 11
-9.579821329491509
 21
7.701672841090156
 31
0.0
  0
LINE
  5
160
330
2
100
AcDbEntity
  8
0
  6
HIDDEN
100
AcDbLine
 10
-6.982171329491496
 20
0.0830100000000016
 30
0.0
 11
-9.473865329491506
 21
0.0830100000000016
 31
0.0
  0
LINE
  5
161
330
2
100
AcDbEntity
  8
0
100
AcDbLine
 10
-6.982171329491496
 20
0.0205100000000016
 30
0.0
 11
-9.473865329491506
 21
0.0205100000000016
 31
0.0
  0
LINE
  5
162
330
2
100
AcDbEntity
  8
0
100
AcDbLine
 10
-6.982171329491496
 20
0.2167999999999992
 30
0.0
 11
-8.120271758220707
 21
1.694653527535561
 31
0.0
  0
LINE
  5
163
330
2
100
AcDbEntity
  8
0
100
AcDbLine
 10
-6.982171329491496
 20
0.0205100000000016
 30
0.0
 11
-6.982171329491496
 21
0.2167999999999992
 31
0.0
  0
CIRCLE
  5
164
330
2
100
AcDbEntity
  8
0
100
AcDbCircle
 10
-8.49527175822071
 20
1.540980238629116
 30
0.0
 40
0.0855
  0
CIRCLE
  5
169
330
2
100
AcDbEntity
  8
0
100
AcDbCircle
 10
-8.495271758220707
 20
2.739844915428275
 30
0.0
 40
0.0855
  0
LINE
  5
16A
330
2
100
AcDbEntity
  8
0
100
AcDbLine
 10
-9.47386532949151
 20
0.2167999999999992
 30
0.0
 11
-9.579821329491498
 21
0.2167999999999992
 31
0.0
  0
LINE
  5
16B
330
2
100
AcDbEntity
  8
0
100
AcDbLine
 10
-9.473865329491506
 20
0.0205100000000016
 30
0.0
 11
-9.473865329491506
 21
0.2167999999999992
 31
0.0
  0
LINE
  5
16C
330
2
100
AcDbEntity
  8
0
100
AcDbLine
 10
-8.120271758220707
 20
7.701831579229369
 30
0.0
 11
-9.579821329491505
 21
7.701672841090156
 31
0.0
  0
LWPOLYLINE
  5
16F
330
2
100
AcDbEntity
  8
0
100
AcDbPolyline
 90
        6
 70
     1
 43
0.0
 10
-8.564523466907772
 20
5.215967076734335
 10
-8.381535525681571
 20
5.166935605317164
 42
-0.5773502686101053
 10
-8.367526533981422
 20
5.114653336347613
 10
-8.501483004289877
 20
4.980696866039159
 42
-0.5773502697691459
 10
-8.553765273287553
 20
4.994705857844263
 10
-8.602796744138761
 20
5.177693799503349
 42
-0.5773502691896258
  0
CIRCLE
  5
170
330
2
100
AcDbEntity
  8
0
100
AcDbCircle
 10
-8.495271758220703
 20
6.674203855369258
 30
0.0
 40
0.0855
  0
ENDSEC
  0
SECTION
  2
OBJECTS
  0
DICTIONARY
  5
9
330
0
100
AcDbDictionary
281
     1
  3
ACAD_COLOR
350
176
  3
ACAD_GROUP
350
23
  3
ACAD_LAYOUT
350
D
  3
ACAD_MATERIAL
350
175
  3
ACAD_MLINESTYLE
350
24
  3
ACAD_PLOTSETTINGS
350
25
  3
ACAD_PLOTSTYLENAME
350
8
  3
ACAD_TABLESTYLE
350
177
  3
ACDBHEADERROUNDTRIPXREC
350
18F
  3
AcDbVariableDictionary
350
BF
  0
DICTIONARY
  5
176
102
{ACAD_REACTORS
330
9
102
}
330
9
100
AcDbDictionary
281
     1
  0
DICTIONARY
  5
23
102
{ACAD_REACTORS
330
9
102
}
330
9
100
AcDbDictionary
281
     1
  0
DICTIONARY
  5
D
102
{ACAD_REACTORS
330
9
102
}
330
9
100
AcDbDictionary
281
     1
  3
Layout1
350
13
  3
Model
350
C
  0
DICTIONARY
  5
175
102
{ACAD_REACTORS
330
9
102
}
330
9
100
AcDbDictionary
281
     1
  0
DICTIONARY
  5
24
102
{ACAD_REACTORS
330
9
102
}
330
9
100
AcDbDictionary
281
     1
  3
STANDARD
350
27
  0
DICTIONARY
  5
25
102
{ACAD_REACTORS
330
9
102
}
330
9
100
AcDbDictionary
281
     1
  0
ACDBDICTIONARYWDFLT
  5
8
102
{ACAD_REACTORS
330
9
102
}
330
9
100
AcDbDictionary
281
     1
  3
Normal
350
7
100
AcDbDictionaryWithDefault
340
7
  0
DICTIONARY
  5
177
102
{ACAD_REACTORS
330
9
102
}
330
9
100
AcDbDictionary
281
     1
  3
Standard
350
178
  0
DICTIONARY
  5
18F
102
{ACAD_REACTORS
330
9
102
}
330
9
100
AcDbDictionary
281
     1
  3
COLORDICT
350
190
  3
MATERIALDICT
350
191
  0
DICTIONARY
  5
BF
102
{ACAD_REACTORS
330
9
102
}
330
9
100
AcDbDictionary
281
     1
  3
CTABLESTYLE
350
18C
  3
HIDETEXT
350
18E
  0
LAYOUT
  5
13
102
{ACAD_REACTORS
330
D
102
}
102
{ACAD_XDICTIONARY
360
192
102
}
330
D
100
AcDbPlotSettings
  1

  2
C:\ACAD2000\plotters\HP LaserJet 2100 Series PS.pc3
  4

  6

 40
0.0
 41
0.0
 42
0.0
 43
0.0
 44
0.0
 45
0.0
 46
0.0
 47
0.0
 48
0.0
 49
0.0
140
0.0
141
0.0
142
1.0
143
1.0
 70
   688
 72
     0
 73
     0
 74
     5
  7

 75
    16
147
1.0
148
0.0
149
0.0
100
AcDbLayout
  1
Layout1
 70
     0
 71
     1
 10
0.0
 20
0.0
 11
12.0
 21
9.0
 12
0.0
 22
0.0
 32
0.0
 14
1.000000000000000E+20
 24
1.000000000000000E+20
 34
1.000000000000000E+20
 15
-1.000000000000000E+20
 25
-1.000000000000000E+20
 35
-1.000000000000000E+20
146
0.0
 13
0.0
 23
0.0
 33
0.0
 16
1.0
 26
0.0
 36
0.0
 17
0.0
 27
1.0
 37
0.0
 76
     0
330
E
  0
LAYOUT
  5
C
102
{ACAD_REACTORS
330
D
102
}
102
{ACAD_XDICTIONARY
360
194
102
}
330
D
100
AcDbPlotSettings
  1

  2
HP LaserJet 2100 Series PS
  4
Letter
  6

 40
5.365749835968018
 41
5.365735054016113
 42
3.175003051757813
 43
3.17498779296875
 44
210.4813232421875
 45
273.9813232421875
 46
0.0
 47
0.0
 48
0.0
 49
0.0
140
0.0
141
0.0
142
1.0
143
3.962056750635113
 70
 28336
 72
     0
 73
     1
 74
     2
  7

 75
     0
147
0.2523941636726181
148
0.0
149
0.0
100
AcDbLayout
  1
Model
 70
     1
 71
     0
 10
0.0
 20
0.0
 11
12.0
 21
9.0
 12
0.0
 22
0.0
 32
0.0
 14
0.0
 24
0.0
 34
0.0
 15
0.0
 25
0.0
 35
0.0
146
0.0
 13
0.0
 23
0.0
 33
0.0
 16
1.0
 26
0.0
 36
0.0
 17
0.0
 27
1.0
 37
0.0
 76
     0
330
2
  0
MLINESTYLE
  5
27
102
{ACAD_REACTORS
330
24
102
}
330
24
100
AcDbMlineStyle
  2
STANDARD
 70
     0
  3

 62
   256
 51
90.0
 52
90.0
 71
     2
 49
0.5
 62
   256
  6
BYLAYER
 49
-0.5
 62
   256
  6
BYLAYER
  0
ACDBPLACEHOLDER
  5
7
102
{ACAD_REACTORS
330
8
102
}
330
8
  0
ACAD_PROXY_OBJECT
  5
178
102
{ACAD_REACTORS
330
177
102
}
330
177
100
AcDbProxyObject
 90
      499
 91
      509
 95
   983063
 70
     0
 93
     1841
310
4214DD185B99185C9928B81E85EB51B8AE3F2E07A17AD46E2B8FC02B5E8DC0F42B1CFD028000000C1008070000C3001FDFF8000000C1003FBFF000000182007F7FE00000030400FEFFC00000060801FDFF8000000C1003FBFF00000018200000000000000681FA0B0000001820100E000186003FBFF000000182007F7FE000
310
00030400FEFFC00000060801FDFF8000000C1003FBFF000000182007F7FE000000304000AD7A3703D0AC73F4160000003040201C00030C007F7FE00000030400FEFFC00000060801FDFF8000000C1003FBFF000000182007F7FE00000030400FEFFC000000608000
340
16
340
16
340
16
 94
        0
  0
XRECORD
  5
190
102
{ACAD_REACTORS
330
18F
102
}
330
18F
100
AcDbXrecord
340
176
  0
XRECORD
  5
191
102
{ACAD_REACTORS
330
18F
102
}
330
18F
100
AcDbXrecord
340
175
  0
DICTIONARYVAR
  5
18C
102
{ACAD_REACTORS
330
BF
102
}
330
BF
100
DictionaryVariables
280
     0
  1
STANDARD
  0
DICTIONARYVAR
  5
18E
102
{ACAD_REACTORS
330
BF
102
}
330
BF
100
DictionaryVariables
280
     0
  1
0
  0
DICTIONARY
  5
192
330
13
100
AcDbDictionary
280
     1
281
     1
  3
ACAD_XREC_ROUNDTRIP
360
193
  0
DICTIONARY
  5
194
330
C
100
AcDbDictionary
280
     1
281
     1
  3
ACAD_XREC_ROUNDTRIP
360
195
  0
XRECORD
  5
193
102
{ACAD_REACTORS
330
192
102
}
330
192
100
AcDbXrecord
102
SHADEPLOT
 70
     0
102
SHADEPLOTRESLEVEL
 70
     2
102
SHADEPLOTCUSTOMDPI
 70
   300
  0
XRECORD
  5
195
102
{ACAD_REACTORS
330
194
102
}
330
194
100
AcDbXrecord
102
SHADEPLOT
 70
     0
102
SHADEPLOTRESLEVEL
 70
     2
102
SHADEPLOTCUSTOMDPI
 70
   300
  0
ENDSEC
  0
EOF
