  0
SECTION
  2
HEADER
  9
$ACADVER
  1
AC1015
  9
$ACADMAINTVER
 70
     6
  9
$DWGCODEPAGE
  3
ANSI_1252
  9
$INSBASE
 10
0.0
 20
0.0
 30
0.0
  9
$EXTMIN
 10
-8.825357831352719
 20
-0.0424796135876662
 30
-0.0000000000112498
  9
$EXTMAX
 10
8.830599688486373
 20
14.99828552671806
 30
0.0000000000002956
  9
$LIMMIN
 10
0.0
 20
0.0
  9
$LIMMAX
 10
31.5
 20
24.0
  9
$ORTHOMODE
 70
     1
  9
$REGENMODE
 70
     1
  9
$FILLMODE
 70
     1
  9
$QTEXTMODE
 70
     0
  9
$MIRRTEXT
 70
     0
  9
$LTSCALE
 40
1.0
  9
$ATTMODE
 70
     1
  9
$TEXTSIZE
 40
0.27
  9
$TRACEWID
 40
0.05
  9
$TEXTSTYLE
  7
STANDARD
  9
$CLAYER
  8
0
  9
$CELTYPE
  6
BYLAYER
  9
$CECOLOR
 62
   256
  9
$CELTSCALE
 40
1.0
  9
$DISPSILH
 70
     0
  9
$DIMSCALE
 40
1.0
  9
$DIMASZ
 40
0.375
  9
$DIMEXO
 40
0.0625
  9
$DIMDLI
 40
0.75
  9
$DIMRND
 40
0.0
  9
$DIMDLE
 40
0.0
  9
$DIMEXE
 40
0.18
  9
$DIMTP
 40
0.0
  9
$DIMTM
 40
0.0
  9
$DIMTXT
 40
0.27
  9
$DIMCEN
 40
-0.06
  9
$DIMTSZ
 40
0.0
  9
$DIMTOL
 70
     0
  9
$DIMLIM
 70
     0
  9
$DIMTIH
 70
     1
  9
$DIMTOH
 70
     1
  9
$DIMSE1
 70
     0
  9
$DIMSE2
 70
     0
  9
$DIMTAD
 70
     0
  9
$DIMZIN
 70
     0
  9
$DIMBLK
  1

  9
$DIMASO
 70
     0
  9
$DIMSHO
 70
     0
  9
$DIMPOST
  1

  9
$DIMAPOST
  1

  9
$DIMALT
 70
     0
  9
$DIMALTD
 70
     2
  9
$DIMALTF
 40
25.4
  9
$DIMLFAC
 40
1.0
  9
$DIMTOFL
 70
     0
  9
$DIMTVP
 40
0.0
  9
$DIMTIX
 70
     0
  9
$DIMSOXD
 70
     0
  9
$DIMSAH
 70
     0
  9
$DIMBLK1
  1

  9
$DIMBLK2
  1

  9
$DIMSTYLE
  2
STANDARD
  9
$DIMCLRD
 70
     0
  9
$DIMCLRE
 70
     0
  9
$DIMCLRT
 70
     0
  9
$DIMTFAC
 40
1.0
  9
$DIMGAP
 40
0.09
  9
$DIMJUST
 70
     0
  9
$DIMSD1
 70
     0
  9
$DIMSD2
 70
     0
  9
$DIMTOLJ
 70
     1
  9
$DIMTZIN
 70
     0
  9
$DIMALTZ
 70
     0
  9
$DIMALTTZ
 70
     0
  9
$DIMUPT
 70
     0
  9
$DIMDEC
 70
     4
  9
$DIMTDEC
 70
     4
  9
$DIMALTU
 70
     2
  9
$DIMALTTD
 70
     2
  9
$DIMTXSTY
  7
STANDARD
  9
$DIMAUNIT
 70
     0
  9
$DIMADEC
 70
     0
  9
$DIMALTRND
 40
0.0
  9
$DIMAZIN
 70
     0
  9
$DIMDSEP
 70
    46
  9
$DIMATFIT
 70
     3
  9
$DIMFRAC
 70
     0
  9
$DIMLDRBLK
  1

  9
$DIMLUNIT
 70
     2
  9
$DIMLWD
 70
    -2
  9
$DIMLWE
 70
    -2
  9
$DIMTMOVE
 70
     2
  9
$LUNITS
 70
     2
  9
$LUPREC
 70
     4
  9
$SKETCHINC
 40
0.1
  9
$FILLETRAD
 40
0.0
  9
$AUNITS
 70
     0
  9
$AUPREC
 70
     0
  9
$MENU
  1
ACAD
  9
$ELEVATION
 40
0.0
  9
$PELEVATION
 40
0.0
  9
$THICKNESS
 40
0.0
  9
$LIMCHECK
 70
     0
  9
$CHAMFERA
 40
0.0
  9
$CHAMFERB
 40
0.0
  9
$CHAMFERC
 40
0.0
  9
$CHAMFERD
 40
0.0
  9
$SKPOLY
 70
     0
  9
$TDCREATE
 40
2450305.786555208
  9
$TDUCREATE
 40
2450306.119888542
  9
$TDUPDATE
 40
2454165.882740533
  9
$TDUUPDATE
 40
2454166.216073866
  9
$TDINDWG
 40
0.0375515394
  9
$TDUSRTIMER
 40
0.0375515394
  9
$USRTIMER
 70
     1
  9
$ANGBASE
 50
0.0
  9
$ANGDIR
 70
     0
  9
$PDMODE
 70
     0
  9
$PDSIZE
 40
0.0
  9
$PLINEWID
 40
0.0
  9
$SPLFRAME
 70
     0
  9
$SPLINETYPE
 70
     6
  9
$SPLINESEGS
 70
     8
  9
$HANDSEED
  5
1A7
  9
$SURFTAB1
 70
     6
  9
$SURFTAB2
 70
     6
  9
$SURFTYPE
 70
     6
  9
$SURFU
 70
     6
  9
$SURFV
 70
     6
  9
$UCSBASE
  2

  9
$UCSNAME
  2

  9
$UCSORG
 10
0.0
 20
0.0
 30
0.0
  9
$UCSXDIR
 10
1.0
 20
0.0
 30
0.0
  9
$UCSYDIR
 10
0.0
 20
1.0
 30
0.0
  9
$UCSORTHOREF
  2

  9
$UCSORTHOVIEW
 70
     0
  9
$UCSORGTOP
 10
0.0
 20
0.0
 30
0.0
  9
$UCSORGBOTTOM
 10
0.0
 20
0.0
 30
0.0
  9
$UCSORGLEFT
 10
0.0
 20
0.0
 30
0.0
  9
$UCSORGRIGHT
 10
0.0
 20
0.0
 30
0.0
  9
$UCSORGFRONT
 10
0.0
 20
0.0
 30
0.0
  9
$UCSORGBACK
 10
0.0
 20
0.0
 30
0.0
  9
$PUCSBASE
  2

  9
$PUCSNAME
  2

  9
$PUCSORG
 10
0.0
 20
0.0
 30
0.0
  9
$PUCSXDIR
 10
1.0
 20
0.0
 30
0.0
  9
$PUCSYDIR
 10
0.0
 20
1.0
 30
0.0
  9
$PUCSORTHOREF
  2

  9
$PUCSORTHOVIEW
 70
     0
  9
$PUCSORGTOP
 10
0.0
 20
0.0
 30
0.0
  9
$PUCSORGBOTTOM
 10
0.0
 20
0.0
 30
0.0
  9
$PUCSORGLEFT
 10
0.0
 20
0.0
 30
0.0
  9
$PUCSORGRIGHT
 10
0.0
 20
0.0
 30
0.0
  9
$PUCSORGFRONT
 10
0.0
 20
0.0
 30
0.0
  9
$PUCSORGBACK
 10
0.0
 20
0.0
 30
0.0
  9
$USERI1
 70
     0
  9
$USERI2
 70
     0
  9
$USERI3
 70
     0
  9
$USERI4
 70
     0
  9
$USERI5
 70
     0
  9
$USERR1
 40
0.0
  9
$USERR2
 40
0.0
  9
$USERR3
 40
0.0
  9
$USERR4
 40
0.0
  9
$USERR5
 40
0.0
  9
$WORLDVIEW
 70
     1
  9
$SHADEDGE
 70
     3
  9
$SHADEDIF
 70
    70
  9
$TILEMODE
 70
     1
  9
$MAXACTVP
 70
    16
  9
$PINSBASE
 10
0.0
 20
0.0
 30
0.0
  9
$PLIMCHECK
 70
     0
  9
$PEXTMIN
 10
1.000000000000000E+20
 20
1.000000000000000E+20
 30
1.000000000000000E+20
  9
$PEXTMAX
 10
-1.000000000000000E+20
 20
-1.000000000000000E+20
 30
-1.000000000000000E+20
  9
$PLIMMIN
 10
0.0
 20
0.0
  9
$PLIMMAX
 10
12.0
 20
9.0
  9
$UNITMODE
 70
     0
  9
$VISRETAIN
 70
     0
  9
$PLINEGEN
 70
     0
  9
$PSLTSCALE
 70
     0
  9
$TREEDEPTH
 70
  3020
  9
$CMLSTYLE
  2
STANDARD
  9
$CMLJUST
 70
     0
  9
$CMLSCALE
 40
1.0
  9
$PROXYGRAPHICS
 70
     1
  9
$MEASUREMENT
 70
     0
  9
$CELWEIGHT
370
    -1
  9
$ENDCAPS
280
     0
  9
$JOINSTYLE
280
     0
  9
$LWDISPLAY
290
     0
  9
$INSUNITS
 70
     0
  9
$HYPERLINKBASE
  1

  9
$STYLESHEET
  1

  9
$XEDIT
290
     1
  9
$CEPSNTYPE
380
     0
  9
$PSTYLEMODE
290
     1
  9
$FINGERPRINTGUID
  2
{83BA6124-E854-4B1D-B523-F7B6A8A5E789}
  9
$VERSIONGUID
  2
{D53C7886-3074-4340-A98E-911552DF5600}
  9
$EXTNAMES
290
     1
  9
$PSVPSCALE
 40
0.0
  9
$OLESTARTUP
290
     0
  0
ENDSEC
  0
SECTION
  2
CLASSES
  0
CLASS
  1
DICTIONARYVAR
  2
AcDbDictionaryVar
  3
AutoCAD 2000
 90
        0
280
     0
281
     0
  0
CLASS
  1
LWPOLYLINE
  2
AcDbPolyline
  3
AutoCAD 2000
 90
        0
280
     0
281
     1
  0
CLASS
  1
ACDBDICTIONARYWDFLT
  2
AcDbDictionaryWithDefault
  3
AutoCAD 2000
 90
        0
280
     0
281
     0
  0
CLASS
  1
ACDBPLACEHOLDER
  2
AcDbPlaceHolder
  3
ObjectDBX Classes
 90
        0
280
     0
281
     0
  0
CLASS
  1
LAYOUT
  2
AcDbLayout
  3
ObjectDBX Classes
 90
        0
280
     0
281
     0
  0
CLASS
  1
LONG_TRANSACTION
  2
AcDbLongTransaction
  3
ObjectDBX Classes
 90
   -65536
280
     1
281
     0
  0
CLASS
  1
LWPOLYLINE
  2
AcDbPolyline
  3
AutoCAD 2000
 90
        0
280
     0
281
     1
  0
CLASS
  1
HATCH
  2
AcDbHatch
  3
AutoCAD 2000
 90
        0
280
     0
281
     1
  0
CLASS
  1
XRECORD
  2
AcDbXrecord
  3
AutoCAD 2000
 90
        0
280
     0
281
     0
  0
CLASS
  1
TABLESTYLE
  2
AcDbTableStyle
  3
ObjectDBX Classes
 90
     2047
280
     1
281
     0
  0
ENDSEC
  0
SECTION
  2
TABLES
  0
TABLE
  2
VPORT
  5
1D
330
0
100
AcDbSymbolTable
 70
     3
  0
VPORT
  5
197
330
1D
100
AcDbSymbolTableRecord
100
AcDbViewportTableRecord
  2
*Active
 70
     0
 10
0.0
 20
0.0
 11
1.0
 21
1.0
 12
11.33732108432364
 22
11.97876019320617
 13
0.0
 23
0.0
 14
0.0625
 24
0.0625
 15
0.5
 25
0.5
 16
0.0
 26
0.0
 36
1.0
 17
0.0
 27
0.0
 37
0.0
 40
24.34238580419375
 41
1.814583333333333
 42
50.0
 43
0.0
 44
0.0
 50
0.0
 51
0.0
 71
     0
 72
   100
 73
     1
 74
     0
 75
     0
 76
     0
 77
     0
 78
     0
281
     0
 65
     1
110
0.0
120
0.0
130
0.0
111
1.0
121
0.0
131
0.0
112
0.0
122
1.0
132
0.0
 79
     0
146
0.0
  0
ENDTAB
  0
TABLE
  2
LTYPE
  5
18
330
0
100
AcDbSymbolTable
 70
     2
  0
LTYPE
  5
19
330
18
100
AcDbSymbolTableRecord
100
AcDbLinetypeTableRecord
  2
BYBLOCK
 70
     0
  3

 72
    65
 73
     0
 40
0.0
  0
LTYPE
  5
1A
330
18
100
AcDbSymbolTableRecord
100
AcDbLinetypeTableRecord
  2
BYLAYER
 70
     0
  3

 72
    65
 73
     0
 40
0.0
  0
LTYPE
  5
A
330
18
100
AcDbSymbolTableRecord
100
AcDbLinetypeTableRecord
  2
CONTINUOUS
 70
     0
  3
Solid line
 72
    65
 73
     0
 40
0.0
  0
LTYPE
  5
196
330
18
100
AcDbSymbolTableRecord
100
AcDbLinetypeTableRecord
  2
HIDDEN
 70
     0
  3
Hidden __ __ __ __ __ __ __ __ __ __ __ __ __ _
 72
    65
 73
     2
 40
0.375
 49
0.25
 74
     0
 49
-0.125
 74
     0
  0
ENDTAB
  0
TABLE
  2
LAYER
  5
14
330
0
100
AcDbSymbolTable
 70
     2
  0
LAYER
  5
6
330
14
100
AcDbSymbolTableRecord
100
AcDbLayerTableRecord
  2
0
 70
     0
 62
     7
  6
CONTINUOUS
370
    -3
390
7
  0
ENDTAB
  0
TABLE
  2
STYLE
  5
15
330
0
100
AcDbSymbolTable
 70
     2
  0
STYLE
  5
16
330
15
100
AcDbSymbolTableRecord
100
AcDbTextStyleTableRecord
  2
STANDARD
 70
     0
 40
0.0
 41
1.0
 50
0.0
 71
     0
 42
0.27
  3
TXT
  4

  0
STYLE
  5
195
330
15
100
AcDbSymbolTableRecord
100
AcDbTextStyleTableRecord
  2

 70
     1
 40
0.0
 41
1.0
 50
0.0
 71
     0
 42
0.27
  3
ltypeshp.shx
  4

  0
ENDTAB
  0
TABLE
  2
VIEW
  5
1B
330
0
100
AcDbSymbolTable
 70
     0
  0
ENDTAB
  0
TABLE
  2
UCS
  5
1C
330
0
100
AcDbSymbolTable
 70
     0
  0
ENDTAB
  0
TABLE
  2
APPID
  5
1F
330
0
100
AcDbSymbolTable
 70
     1
  0
APPID
  5
20
330
1F
100
AcDbSymbolTableRecord
100
AcDbRegAppTableRecord
  2
ACAD
 70
     0
  0
ENDTAB
  0
TABLE
  2
DIMSTYLE
  5
21
330
0
100
AcDbSymbolTable
 70
     1
100
AcDbDimStyleTable
  0
DIMSTYLE
105
28
330
21
100
AcDbSymbolTableRecord
100
AcDbDimStyleTableRecord
  2
STANDARD
 70
     0
  3

  4

340
16
  0
ENDTAB
  0
TABLE
  2
BLOCK_RECORD
  5
1
330
0
100
AcDbSymbolTable
 70
     0
  0
BLOCK_RECORD
  5
2
330
1
100
AcDbSymbolTableRecord
100
AcDbBlockTableRecord
  2
*MODEL_SPACE
340
C
  0
BLOCK_RECORD
  5
E
330
1
100
AcDbSymbolTableRecord
100
AcDbBlockTableRecord
  2
*PAPER_SPACE
340
13
  0
ENDTAB
  0
ENDSEC
  0
SECTION
  2
BLOCKS
  0
BLOCK
  5
5
330
2
100
AcDbEntity
  8
0
100
AcDbBlockBegin
  2
*MODEL_SPACE
 70
     0
 10
0.0
 20
0.0
 30
0.0
  3
*MODEL_SPACE
  1

  4

  0
ENDBLK
  5
B
330
2
100
AcDbEntity
  8
0
100
AcDbBlockEnd
  0
BLOCK
  5
11
330
E
100
AcDbEntity
 67
     1
  8
0
100
AcDbBlockBegin
  2
*PAPER_SPACE
 70
     0
 10
0.0
 20
0.0
 30
0.0
  3
*PAPER_SPACE
  1

  4

  0
ENDBLK
  5
12
330
E
100
AcDbEntity
 67
     1
  8
0
100
AcDbBlockEnd
  0
ENDSEC
  0
SECTION
  2
ENTITIES
  0
LINE
  5
DD
330
2
100
AcDbEntity
  8
0
100
AcDbLine
 10
8.828026151226457
 20
0.4332599999999993
 30
0.0
 11
8.828026151226453
 21
9.452400020871103
 31
0.0
  0
LINE
  5
DE
330
2
100
AcDbEntity
  8
0
100
AcDbLine
 10
7.784566151226461
 20
9.452535440187432
 30
0.0
 11
7.784566151226461
 21
2.137840000000004
 31
0.0
  0
LINE
  5
DF
330
2
100
AcDbEntity
  8
0
  6
HIDDEN
100
AcDbLine
 10
8.722070151226458
 20
0.4332599999999993
 30
0.0
 11
8.722070151226458
 21
9.452413771747114
 31
0.0
  0
LINE
  5
E0
330
2
100
AcDbEntity
  8
0
100
AcDbLine
 10
7.784566151226461
 20
2.137840000000004
 30
0.0
 11
6.730376151226455
 21
0.3893200000000001
 31
0.0
  0
CIRCLE
  5
E1
330
2
100
AcDbEntity
  8
0
100
AcDbCircle
 10
8.128416151226464
 20
1.028571767075607
 30
0.0
 40
0.109
  0
LINE
  5
E2
330
2
100
AcDbEntity
  8
0
  6
HIDDEN
100
AcDbLine
 10
6.730376151226455
 20
0.0830100000000003
 30
0.0
 11
8.722070151226458
 21
0.0830100000000003
 31
0.0
  0
LINE
  5
E3
330
2
100
AcDbEntity
  8
0
100
AcDbLine
 10
6.730376151226455
 20
0.0205099999999985
 30
0.0
 11
8.722070151226458
 21
0.0205099999999985
 31
0.0
  0
LINE
  5
E4
330
2
100
AcDbEntity
  8
0
100
AcDbLine
 10
6.730376151226455
 20
0.0205099999999985
 30
0.0
 11
6.730376151226455
 21
0.3893200000000001
 31
0.0
  0
LINE
  5
E5
330
2
100
AcDbEntity
  8
0
100
AcDbLine
 10
8.722070151226458
 20
0.4332599999999993
 30
0.0
 11
8.722070151226458
 21
0.0203499999999974
 31
0.0
  0
LINE
  5
E6
330
2
100
AcDbEntity
  8
0
100
AcDbLine
 10
8.722070151226458
 20
0.4332599999999993
 30
0.0
 11
8.828026151226457
 21
0.4332599999999993
 31
0.0
  0
CIRCLE
  5
E7
330
2
100
AcDbEntity
  8
0
100
AcDbCircle
 10
8.128416151226464
 20
2.951720000000001
 30
0.0
 40
0.109
  0
CIRCLE
  5
F1
330
2
100
AcDbEntity
  8
0
100
AcDbCircle
 10
8.128416151226464
 20
6.398021043764892
 30
0.0
 40
0.109
  0
LINE
  5
F2
330
2
100
AcDbEntity
  8
0
100
AcDbLine
 10
7.784566151226454
 20
9.452535440187432
 30
0.0
 11
8.828026151226453
 21
9.452400020871103
 31
0.0
  0
LINE
  5
F3
330
2
100
AcDbEntity
  8
0
100
AcDbLine
 10
1.619553895782476
 20
9.453895830808239
 30
0.0
 11
1.619546757238036
 21
1.694653527535557
 31
0.0
  0
LINE
  5
F4
330
2
100
AcDbEntity
  8
0
100
AcDbLine
 10
2.755629999999997
 20
0.1821800000000011
 30
0.0
 11
2.755629999999997
 21
5.145110000000003
 31
0.0
  0
LINE
  5
F5
330
2
100
AcDbEntity
  8
0
100
AcDbLine
 10
-2.744410000000002
 20
9.454767565343786
 30
0.0
 11
-2.744410000000002
 21
1.1294
 31
0.0
  0
LINE
  5
F6
330
2
100
AcDbEntity
  8
0
100
AcDbLine
 10
-2.82302
 20
9.454767787444659
 30
0.0
 11
-2.82302
 21
1.1294
 31
0.0
  0
LINE
  5
F7
330
2
100
AcDbEntity
  8
0
100
AcDbLine
 10
2.834559999999996
 20
5.145110000000003
 30
0.0
 11
2.834559999999996
 21
0.1857700000000002
 31
0.0
  0
LINE
  5
F8
330
2
100
AcDbEntity
  8
0
100
AcDbLine
 10
-1.591318442733787
 20
9.454927636583864
 30
0.0
 11
-1.591311303297545
 21
1.694653527535557
 31
0.0
  0
LINE
  5
F9
330
2
100
AcDbEntity
  8
0
100
AcDbLine
 10
2.634560000000001
 20
0.0000000000000013
 30
0.0
 11
-2.634560000000001
 21
-0.0000000000000031
 31
0.0
  0
LINE
  5
FA
330
2
100
AcDbEntity
  8
0
100
AcDbLine
 10
2.630614073870616
 20
0.0790700010145664
 30
0.0
 11
-2.625959999999999
 21
0.0793699999999995
 31
0.0
  0
LINE
  5
FB
330
2
100
AcDbEntity
  8
0
100
AcDbLine
 10
-2.82302
 20
1.139220000000001
 30
0.0
 11
-2.82302
 21
0.1971900000000013
 31
0.0
  0
LINE
  5
FC
330
2
100
AcDbEntity
  8
0
100
AcDbLine
 10
-2.744410000000002
 20
1.139220000000001
 30
0.0
 11
-2.744410000000002
 21
0.2015099999999976
 31
0.0
  0
LINE
  5
FD
330
2
100
AcDbEntity
  8
0
100
AcDbLine
 10
-2.729411732026748
 20
0.2167999999999979
 30
0.0
 11
-1.591311303297545
 21
1.69465352753556
 31
0.0
  0
ARC
  5
FE
330
2
100
AcDbEntity
  8
0
100
AcDbCircle
 10
-2.623020000000004
 20
0.2000000000000015
 30
0.0
 40
0.2
100
AcDbArc
 50
180.0
 51
270.0
  0
ARC
  5
FF
330
2
100
AcDbEntity
  8
0
100
AcDbCircle
 10
-2.619410000000002
 20
0.2043699999999995
 30
0.0
 40
0.125
100
AcDbArc
 50
180.0
 51
269.9927
  0
LINE
  5
100
330
2
100
AcDbEntity
  8
0
100
AcDbLine
 10
-0.8827568190744977
 20
0.07927051330423
 30
0.0
 11
-0.8827568190744977
 21
-0.0000000000000022
 31
0.0
  0
LINE
  5
101
330
2
100
AcDbEntity
  8
0
100
AcDbLine
 10
-0.7911112910576392
 20
0.0793699999999995
 30
0.0
 11
-0.9086112910576389
 21
0.0793699999999995
 31
0.0
  0
LINE
  5
102
330
2
100
AcDbEntity
  8
0
100
AcDbLine
 10
-0.6327568190744994
 20
0.079256245504459
 30
0.0
 11
-0.6327568190744985
 21
-0.0000000000000031
 31
0.0
  0
LINE
  5
103
330
2
100
AcDbEntity
  8
0
100
AcDbLine
 10
0.9297431809255023
 20
0.0791670717559021
 30
0.0
 11
0.9297431809255015
 21
-0.0000000000000013
 31
0.0
  0
LINE
  5
104
330
2
100
AcDbEntity
  8
0
100
AcDbLine
 10
0.6797431809255032
 20
0.0791813395556713
 30
0.0
 11
0.6797431809255032
 21
-0.0000000000000004
 31
0.0
  0
CIRCLE
  5
105
330
2
100
AcDbEntity
  8
0
100
AcDbCircle
 10
-1.911812191070453
 20
3.897257273393158
 30
0.0
 40
0.109
  0
CIRCLE
  5
106
330
2
100
AcDbEntity
  8
0
100
AcDbCircle
 10
-1.911812191070453
 20
1.846385180369885
 30
0.0
 40
0.109
  0
CIRCLE
  5
108
330
2
100
AcDbEntity
  8
0
100
AcDbCircle
 10
-2.290571732026749
 20
2.970254468046139
 30
0.0
 40
0.109
  0
CIRCLE
  5
109
330
2
100
AcDbEntity
  8
0
100
AcDbCircle
 10
-2.353821732026745
 20
1.419746286394431
 30
0.0
 40
0.109
  0
LINE
  5
10E
330
2
100
AcDbEntity
  8
0
100
AcDbLine
 10
2.757647185967237
 20
0.2167999999999979
 30
0.0
 11
1.619546757238028
 21
1.69465352753556
 31
0.0
  0
ARC
  5
10F
330
2
100
AcDbEntity
  8
0
100
AcDbCircle
 10
2.634560000000001
 20
0.2000000000000015
 30
0.0
 40
0.2
100
AcDbArc
 50
270.0
 51
0.0
  0
ARC
  5
110
330
2
100
AcDbEntity
  8
0
100
AcDbCircle
 10
2.630629999999997
 20
0.2040700000000002
 30
0.0
 40
0.125
100
AcDbArc
 50
269.9927
 51
0.0
  0
CIRCLE
  5
111
330
2
100
AcDbEntity
  8
0
100
AcDbCircle
 10
2.318807185967232
 20
2.970254468046139
 30
0.0
 40
0.109
  0
CIRCLE
  5
112
330
2
100
AcDbEntity
  8
0
100
AcDbCircle
 10
2.382057185967236
 20
1.419746286394431
 30
0.0
 40
0.109
  0
CIRCLE
  5
113
330
2
100
AcDbEntity
  8
0
100
AcDbCircle
 10
1.940047645010937
 20
1.846385180369885
 30
0.0
 40
0.109
  0
CIRCLE
  5
115
330
2
100
AcDbEntity
  8
0
100
AcDbCircle
 10
1.940047645010937
 20
3.897257273393158
 30
0.0
 40
0.109
  0
CIRCLE
  5
117
330
2
100
AcDbEntity
  8
0
100
AcDbCircle
 10
-1.911812191070453
 20
5.474543942501377
 30
0.0
 40
0.109
  0
CIRCLE
  5
118
330
2
100
AcDbEntity
  8
0
100
AcDbCircle
 10
-1.911812191070453
 20
7.283438833546978
 30
0.0
 40
0.109
  0
CIRCLE
  5
119
330
2
100
AcDbEntity
  8
0
100
AcDbCircle
 10
-2.291161732026751
 20
6.696925650979672
 30
0.0
 40
0.109
  0
LINE
  5
11B
330
2
100
AcDbEntity
  8
0
100
AcDbLine
 10
-1.591318442733787
 20
9.454927636583861
 30
0.0
 11
-2.82302
 21
9.454767787444659
 31
0.0
  0
CIRCLE
  5
11C
330
2
100
AcDbEntity
  8
0
100
AcDbCircle
 10
-1.911812191070453
 20
8.763570677531583
 30
0.0
 40
0.109
  0
LINE
  5
11D
330
2
100
AcDbEntity
  8
0
100
AcDbLine
 10
2.834559999999996
 20
9.454053513226313
 30
0.0
 11
2.834559999999996
 21
8.501720000000002
 31
0.0
  0
LINE
  5
11E
330
2
100
AcDbEntity
  8
0
100
AcDbLine
 10
2.755629999999997
 20
5.139220000000002
 30
0.0
 11
2.755629999999997
 21
9.454053775014923
 31
0.0
  0
CIRCLE
  5
11F
330
2
100
AcDbEntity
  8
0
100
AcDbCircle
 10
2.319397185967235
 20
6.696925650979672
 30
0.0
 40
0.109
  0
LINE
  5
120
330
2
100
AcDbEntity
  8
0
100
AcDbLine
 10
2.834559999999996
 20
8.514220000000002
 30
0.0
 11
2.834559999999996
 21
5.139220000000002
 31
0.0
  0
CIRCLE
  5
121
330
2
100
AcDbEntity
  8
0
100
AcDbCircle
 10
1.940047645010937
 20
5.474543942501377
 30
0.0
 40
0.109
  0
CIRCLE
  5
122
330
2
100
AcDbEntity
  8
0
100
AcDbCircle
 10
1.940047645010937
 20
7.283438833546978
 30
0.0
 40
0.109
  0
LINE
  5
124
330
2
100
AcDbEntity
  8
0
100
AcDbLine
 10
2.834559999999996
 20
9.454053513226313
 30
0.0
 11
1.619553895782476
 21
9.453895830808239
 31
0.0
  0
CIRCLE
  5
125
330
2
100
AcDbEntity
  8
0
100
AcDbCircle
 10
1.940047645010937
 20
8.763570677531583
 30
0.0
 40
0.109
  0
LINE
  5
126
330
2
100
AcDbEntity
  8
0
100
AcDbLine
 10
0.9297431809255006
 20
14.83634476755132
 30
0.0
 11
2.755208510306034
 21
14.83634476755132
 31
0.0
  0
LINE
  5
127
330
2
100
AcDbEntity
  8
0
100
AcDbLine
 10
0.9297431809255023
 20
12.82503952796293
 30
0.0
 11
2.838277809404737
 21
12.82503952796292
 31
0.0
  0
LINE
  5
128
330
2
100
AcDbEntity
  8
0
100
AcDbLine
 10
-0.8827568190744994
 20
14.83634476755132
 30
0.0
 11
-2.718785192682788
 21
14.83634476755132
 31
0.0
  0
LINE
  5
129
330
2
100
AcDbEntity
  8
0
100
AcDbLine
 10
-2.819256190595262
 20
12.82503952796292
 30
0.0
 11
-0.8827568190744985
 21
12.82503952796293
 31
0.0
  0
LINE
  5
12A
330
2
100
AcDbEntity
  8
0
100
AcDbLine
 10
-1.575000226909161
 20
14.97165252796292
 30
0.0
 11
-2.689777241077373
 21
14.97165252796292
 31
0.0
  0
LINE
  5
12B
330
2
100
AcDbEntity
  8
0
100
AcDbLine
 10
-2.673904241077374
 20
14.89246752796292
 30
0.0
 11
-1.575000226909161
 21
14.89246752796292
 31
0.0
  0
LINE
  5
12C
330
2
100
AcDbEntity
  8
0
100
AcDbLine
 10
-2.74038319059526
 20
14.83046752796292
 30
0.0
 11
-2.74038319059526
 21
14.04488104879551
 31
0.0
  0
LINE
  5
12D
330
2
100
AcDbEntity
  8
0
100
AcDbLine
 10
-2.819256190595262
 20
14.83046752796292
 30
0.0
 11
-2.819256190595262
 21
14.09115627159287
 31
0.0
  0
LINE
  5
12E
330
2
100
AcDbEntity
  8
0
100
AcDbLine
 10
-2.74038319059526
 20
13.95372494017419
 30
0.0
 11
-2.74038319059526
 21
12.82503952796292
 31
0.0
  0
LINE
  5
12F
330
2
100
AcDbEntity
  8
0
100
AcDbLine
 10
-2.819256190595262
 20
13.99611574676171
 30
0.0
 11
-2.819256190595262
 21
12.82503952796292
 31
0.0
  0
SPLINE
  5
130
330
2
100
AcDbEntity
  8
0
100
AcDbSpline
210
0.0
220
0.0
230
1.0
 70
     8
 71
     3
 72
    10
 73
     6
 74
     4
 42
0.0000000001
 43
0.0000000001
 44
0.0000000001
 40
0.0
 40
0.0
 40
0.0
 40
0.0
 40
0.0923932037238946
 40
0.1588955845150431
 40
0.2301876951856931
 40
0.2301876951856931
 40
0.2301876951856931
 40
0.2301876951856931
 10
-2.902076559565373
 20
13.9722558012349
 30
0.0
 10
-2.870030854246546
 20
13.98971191573574
 30
0.0
 10
-2.814919429676312
 20
14.01973251687497
 30
0.0
 10
-2.761249981123624
 20
13.9278148184143
 30
0.0
 10
-2.719420542330189
 20
13.96622609676036
 30
0.0
 10
-2.697778828931973
 20
13.98609932614111
 30
0.0
 11
-2.902076559565373
 21
13.9722558012349
 31
0.0
 11
-2.812047073458501
 21
13.99302105407944
 31
0.0
 11
-2.760106934698271
 21
13.95149047936082
 31
0.0
 11
-2.697778828931973
 21
13.98609932614111
 31
0.0
  0
SPLINE
  5
131
330
2
100
AcDbEntity
  8
0
100
AcDbSpline
210
0.0
220
0.0
230
1.0
 70
     8
 71
     3
 72
    10
 73
     6
 74
     4
 42
0.0000000001
 43
0.0000000001
 44
0.0000000001
 40
0.0
 40
0.0
 40
0.0
 40
0.0
 40
0.0923932037238946
 40
0.1588955845150431
 40
0.2301876951856931
 40
0.2301876951856931
 40
0.2301876951856931
 40
0.2301876951856931
 10
-2.895151214480237
 20
14.06569968063869
 30
0.0
 10
-2.86310550916146
 20
14.08315579513886
 30
0.0
 10
-2.807994084591311
 20
14.11317639627694
 30
0.0
 10
-2.754324636038108
 20
14.02125869782322
 30
0.0
 10
-2.712495197245949
 20
14.05966997615206
 30
0.0
 10
-2.690853483846837
 20
14.0795432055449
 30
0.0
 11
-2.895151214480237
 21
14.06569968063869
 31
0.0
 11
-2.805121728373365
 21
14.08646493348324
 31
0.0
 11
-2.753181589613135
 21
14.04493435876461
 31
0.0
 11
-2.690853483846837
 21
14.0795432055449
 31
0.0
  0
ARC
  5
132
330
2
100
AcDbEntity
  8
0
100
AcDbCircle
 10
-2.689777241077373
 20
14.84665252796292
 30
0.0
 40
0.125
100
AcDbArc
 50
89.99999999999997
 51
180.0
  0
LINE
  5
133
330
2
100
AcDbEntity
  8
0
100
AcDbLine
 10
-2.814777241077373
 20
14.84665252796292
 30
0.0
 11
-2.814777241077373
 21
14.83046752796292
 31
0.0
  0
ARC
  5
134
330
2
100
AcDbEntity
  8
0
100
AcDbCircle
 10
-2.673904241077374
 20
14.83046752796292
 30
0.0
 40
0.062
100
AcDbArc
 50
89.99999999999997
 51
180.0
  0
LINE
  5
135
330
2
100
AcDbEntity
  8
0
100
AcDbLine
 10
-0.6327568190744985
 20
12.82503952796293
 30
0.0
 11
0.6797431809255023
 21
12.82503952796293
 31
0.0
  0
ARC
  5
136
330
2
100
AcDbEntity
  8
0
100
AcDbCircle
 10
-0.6952568190744985
 20
12.85628952796293
 30
0.0
 40
0.0625
100
AcDbArc
 50
359.9999999999989
 51
90.0
  0
ARC
  5
137
330
2
100
AcDbEntity
  8
0
100
AcDbCircle
 10
-0.8202568190744985
 20
12.85628952796293
 30
0.0
 40
0.0625
100
AcDbArc
 50
90.0
 51
179.9999999999994
  0
LINE
  5
138
330
2
100
AcDbEntity
  8
0
100
AcDbLine
 10
-0.8827568190744985
 20
12.85628952796293
 30
0.0
 11
-0.8827568190744985
 21
12.82503952796293
 31
0.0
  0
LINE
  5
139
330
2
100
AcDbEntity
  8
0
100
AcDbLine
 10
-0.8202568190744985
 20
12.91878952796293
 30
0.0
 11
-0.6952568190744985
 21
12.91878952796293
 31
0.0
  0
LINE
  5
13A
330
2
100
AcDbEntity
  8
0
100
AcDbLine
 10
-0.6327568190744985
 20
12.85628952796293
 30
0.0
 11
-0.6327568190744985
 21
12.82503952796293
 31
0.0
  0
ARC
  5
13B
330
2
100
AcDbEntity
  8
0
100
AcDbCircle
 10
0.7422431809255023
 20
12.85628952796293
 30
0.0
 40
0.0625
100
AcDbArc
 50
90.0
 51
179.9999999999989
  0
LINE
  5
13C
330
2
100
AcDbEntity
  8
0
100
AcDbLine
 10
0.6797431809255023
 20
12.85628952796293
 30
0.0
 11
0.6797431809255023
 21
12.82503952796293
 31
0.0
  0
ARC
  5
13D
330
2
100
AcDbEntity
  8
0
100
AcDbCircle
 10
0.8672431809255023
 20
12.85628952796293
 30
0.0
 40
0.0625
100
AcDbArc
 50
359.9999999999989
 51
90.0
  0
LINE
  5
13E
330
2
100
AcDbEntity
  8
0
100
AcDbLine
 10
0.9297431809255023
 20
12.85628952796293
 30
0.0
 11
0.9297431809255023
 21
12.82503952796293
 31
0.0
  0
LINE
  5
13F
330
2
100
AcDbEntity
  8
0
100
AcDbLine
 10
0.7422431809255023
 20
12.91878952796293
 30
0.0
 11
0.8672431809255023
 21
12.91878952796293
 31
0.0
  0
LINE
  5
140
330
2
100
AcDbEntity
  8
0
100
AcDbLine
 10
0.6797431809255006
 20
14.83634476755132
 30
0.0
 11
-0.6327568190744994
 21
14.83634476755132
 31
0.0
  0
LINE
  5
141
330
2
100
AcDbEntity
  8
0
100
AcDbLine
 10
-1.575000226909161
 20
14.89246752796292
 30
0.0
 11
-1.575000226909161
 21
14.97165252796292
 31
0.0
  0
ARC
  5
142
330
2
100
AcDbEntity
  8
0
100
AcDbCircle
 10
-0.6952568190744994
 20
14.80509476755132
 30
0.0
 40
0.0625
100
AcDbArc
 50
270.0
 51
0.0
  0
ARC
  5
143
330
2
100
AcDbEntity
  8
0
100
AcDbCircle
 10
-0.8202568190744959
 20
14.80509476755132
 30
0.0
 40
0.0625
100
AcDbArc
 50
180.0
 51
270.0
  0
LINE
  5
144
330
2
100
AcDbEntity
  8
0
100
AcDbLine
 10
-0.8827568190744994
 20
14.83634476755132
 30
0.0
 11
-0.8827568190744959
 21
14.80509476755132
 31
0.0
  0
LINE
  5
145
330
2
100
AcDbEntity
  8
0
100
AcDbLine
 10
-0.6952568190744994
 20
14.74259476755132
 30
0.0
 11
-0.8202568190744959
 21
14.74259476755132
 31
0.0
  0
LINE
  5
146
330
2
100
AcDbEntity
  8
0
100
AcDbLine
 10
-0.6327568190744994
 20
14.83634476755132
 30
0.0
 11
-0.6327568190744994
 21
14.80509476755132
 31
0.0
  0
ARC
  5
147
330
2
100
AcDbEntity
  8
0
100
AcDbCircle
 10
0.7422431809255006
 20
14.80509476755132
 30
0.0
 40
0.0625
100
AcDbArc
 50
180.0
 51
270.0
  0
LINE
  5
148
330
2
100
AcDbEntity
  8
0
100
AcDbLine
 10
0.6797431809255006
 20
14.83634476755132
 30
0.0
 11
0.6797431809255006
 21
14.80509476755132
 31
0.0
  0
ARC
  5
149
330
2
100
AcDbEntity
  8
0
100
AcDbCircle
 10
0.8672431809255006
 20
14.80509476755132
 30
0.0
 40
0.0625
100
AcDbArc
 50
270.0
 51
0.0
  0
LINE
  5
14A
330
2
100
AcDbEntity
  8
0
100
AcDbLine
 10
0.8672431809255006
 20
14.74259476755132
 30
0.0
 11
0.7422431809255006
 21
14.74259476755132
 31
0.0
  0
LINE
  5
14B
330
2
100
AcDbEntity
  8
0
100
AcDbLine
 10
0.9297431809255006
 20
14.83634476755132
 30
0.0
 11
0.9297431809255006
 21
14.80509476755132
 31
0.0
  0
LINE
  5
14C
330
2
100
AcDbEntity
  8
0
100
AcDbLine
 10
2.838277809404737
 20
14.04499295464035
 30
0.0
 11
2.838277809404737
 21
14.82980952796292
 31
0.0
  0
LINE
  5
14D
330
2
100
AcDbEntity
  8
0
100
AcDbLine
 10
2.759404809404735
 20
14.83046752796292
 30
0.0
 11
2.759404809404735
 21
14.09131508004501
 31
0.0
  0
LINE
  5
14E
330
2
100
AcDbEntity
  8
0
100
AcDbLine
 10
2.759404809404735
 20
13.99819556433707
 30
0.0
 11
2.759404809404735
 21
12.82503952796292
 31
0.0
  0
LINE
  5
14F
330
2
100
AcDbEntity
  8
0
100
AcDbLine
 10
2.838277809404737
 20
12.82503952796292
 30
0.0
 11
2.838277809404737
 21
13.95067292323779
 31
0.0
  0
SPLINE
  5
150
330
2
100
AcDbEntity
  8
0
100
AcDbSpline
210
0.0
220
0.0
230
1.0
 70
     8
 71
     3
 72
    10
 73
     6
 74
     4
 42
0.0000000001
 43
0.0000000001
 44
0.0000000001
 40
0.0
 40
0.0
 40
0.0
 40
0.0
 40
0.0923932037238946
 40
0.1588955845150431
 40
0.2301876951856931
 40
0.2301876951856931
 40
0.2301876951856931
 40
0.2301876951856931
 10
2.69652141714586
 20
14.06569968063869
 30
0.0
 10
2.72856712242452
 20
14.08315579513886
 30
0.0
 10
2.783678546925677
 20
14.11317639627694
 30
0.0
 10
2.837347995894589
 20
14.02125869782322
 30
0.0
 10
2.879177433656413
 20
14.05966997615206
 30
0.0
 10
2.900819147779259
 20
14.0795432055449
 30
0.0
 11
2.69652141714586
 21
14.06569968063869
 31
0.0
 11
2.786550903252731
 21
14.08646493348324
 31
0.0
 11
2.838491042012961
 21
14.04493435876461
 31
0.0
 11
2.900819147779259
 21
14.0795432055449
 31
0.0
  0
SPLINE
  5
151
330
2
100
AcDbEntity
  8
0
100
AcDbSpline
210
0.0
220
0.0
230
1.0
 70
     8
 71
     3
 72
    10
 73
     6
 74
     4
 42
0.0000000001
 43
0.0000000001
 44
0.0000000001
 40
0.0
 40
0.0
 40
0.0
 40
0.0
 40
0.0923932037238946
 40
0.1588955845150431
 40
0.2301876951856931
 40
0.2301876951856931
 40
0.2301876951856931
 40
0.2301876951856931
 10
2.689596072060724
 20
13.9722558012349
 30
0.0
 10
2.721641777339434
 20
13.98971191573574
 30
0.0
 10
2.776753201840677
 20
14.01973251687497
 30
0.0
 10
2.830422650809074
 20
13.9278148184143
 30
0.0
 10
2.872252088572173
 20
13.96622609676036
 30
0.0
 10
2.893893802694123
 20
13.98609932614111
 30
0.0
 11
2.689596072060724
 21
13.9722558012349
 31
0.0
 11
2.779625558167595
 21
13.99302105407944
 31
0.0
 11
2.831565696927825
 21
13.95149047936082
 31
0.0
 11
2.893893802694123
 21
13.98609932614111
 31
0.0
  0
LINE
  5
152
330
2
100
AcDbEntity
  8
0
100
AcDbLine
 10
1.639490983470815
 20
14.95480952796292
 30
0.0
 11
2.713277809404737
 21
14.95480952796292
 31
0.0
  0
LINE
  5
153
330
2
100
AcDbEntity
  8
0
100
AcDbLine
 10
2.697404809404738
 20
14.87562352796292
 30
0.0
 11
1.639490983470815
 21
14.87562352796292
 31
0.0
  0
LINE
  5
154
330
2
100
AcDbEntity
  8
0
100
AcDbLine
 10
1.639490983470815
 20
14.87562352796292
 30
0.0
 11
1.639490983470815
 21
14.95480952796292
 31
0.0
  0
ARC
  5
155
330
2
100
AcDbEntity
  8
0
100
AcDbCircle
 10
2.713277809404737
 20
14.82980952796292
 30
0.0
 40
0.125
100
AcDbArc
 50
359.9999999999999
 51
89.99999999999997
  0
ARC
  5
156
330
2
100
AcDbEntity
  8
0
100
AcDbCircle
 10
2.697404809404738
 20
14.81362352796292
 30
0.0
 40
0.062
100
AcDbArc
 50
359.9999999999999
 51
89.99999999999997
  0
LINE
  5
157
330
2
100
AcDbEntity
  8
0
100
AcDbLine
 10
2.838277809404737
 20
14.82980952796292
 30
0.0
 11
2.838277809404737
 21
14.81428152796292
 31
0.0
  0
LWPOLYLINE
  5
159
330
2
100
AcDbEntity
  8
0
100
AcDbPolyline
 90
        6
 70
     1
 43
0.0
 10
-2.185308522785449
 20
2.1993221112821
 10
-2.445632396508654
 20
2.269075683016765
 42
-0.5773502691896287
 10
-2.459618973874481
 20
2.321274300370003
 10
-2.269048671885956
 20
2.511844602358536
 42
-0.577350269189627
 10
-2.216850054532714
 20
2.497858024992719
 10
-2.147096482798035
 20
2.237534151269518
 42
-0.577350269189625
  0
LWPOLYLINE
  5
15A
330
2
100
AcDbEntity
  8
0
100
AcDbPolyline
 90
        6
 70
     1
 43
0.0
 10
-2.185308522785445
 20
3.382988106521089
 10
-2.445632396508651
 20
3.452741678255755
 42
-0.5773502691896287
 10
-2.459618973874478
 20
3.504940295608992
 10
-2.269048671885952
 20
3.695510597597525
 42
-0.577350269189627
 10
-2.216850054532711
 20
3.681524020231709
 10
-2.147096482798031
 20
3.421200146508507
 42
-0.577350269189625
  0
LWPOLYLINE
  5
15B
330
2
100
AcDbEntity
  8
0
100
AcDbPolyline
 90
        6
 70
     1
 43
0.0
 10
2.187277933628261
 20
2.421647881581776
 10
2.257031505362933
 20
2.161324007858574
 42
0.5773502691896287
 10
2.309230122716174
 20
2.147337430492747
 10
2.499800424704702
 20
2.337907732481277
 42
0.577350269189627
 10
2.485813847338882
 20
2.390106349834518
 10
2.225489973615678
 20
2.45985992156919
 42
0.577350269189625
  0
LWPOLYLINE
  5
15C
330
2
100
AcDbEntity
  8
0
100
AcDbPolyline
 90
        6
 70
     1
 43
0.0
 10
2.187277933628261
 20
3.605313876820762
 10
2.257031505362933
 20
3.34499000309756
 42
0.5773502691896287
 10
2.309230122716174
 20
3.331003425731733
 10
2.499800424704702
 20
3.521573727720262
 42
0.577350269189627
 10
2.485813847338882
 20
3.573772345073504
 10
2.225489973615678
 20
3.643525916808176
 42
0.577350269189625
  0
LWPOLYLINE
  5
15D
330
2
100
AcDbEntity
  8
0
100
AcDbPolyline
 90
        6
 70
     1
 43
0.0
 10
-2.185308522785445
 20
7.871817991157691
 10
-2.445632396508651
 20
7.941571562892356
 42
-0.5773502691896287
 10
-2.459618973874478
 20
7.993770180245594
 10
-2.269048671885952
 20
8.184340482234127
 42
-0.577350269189627
 10
-2.216850054532711
 20
8.170353904868311
 10
-2.147096482798031
 20
7.910030031145109
 42
-0.577350269189625
  0
LWPOLYLINE
  5
15E
330
2
100
AcDbEntity
  8
0
100
AcDbPolyline
 90
        6
 70
     1
 43
0.0
 10
2.187277933628261
 20
8.094143761457367
 10
2.257031505362933
 20
7.833819887734165
 42
0.5773502691896287
 10
2.309230122716174
 20
7.819833310368338
 10
2.499800424704702
 20
8.010403612356868
 42
0.577350269189627
 10
2.485813847338882
 20
8.062602229710109
 10
2.225489973615678
 20
8.132355801444781
 42
0.577350269189625
  0
LINE
  5
15F
330
2
100
AcDbEntity
  8
0
100
AcDbLine
 10
8.260495259868229
 20
3.663911203317745
 30
0.0
 11
8.190741688133556
 21
3.403587329594543
 31
0.0
  0
ARC
  5
160
330
2
100
AcDbEntity
  8
0
100
AcDbCircle
 10
8.160604802353333
 20
3.411662483801739
 30
0.0
 40
0.0312000000000034
100
AcDbArc
 50
225.0000000000069
 51
345.0000000000064
  0
LINE
  5
161
330
2
100
AcDbEntity
  8
0
100
AcDbLine
 10
8.138543070780315
 20
3.389600752228716
 30
0.0
 11
7.947972768791789
 21
3.580171054217245
 31
0.0
  0
ARC
  5
162
330
2
100
AcDbEntity
  8
0
100
AcDbCircle
 10
7.970034500364811
 20
3.602232785790267
 30
0.0
 40
0.0312000000000019
100
AcDbArc
 50
105.0000000000048
 51
225.0
  0
LINE
  5
163
330
2
100
AcDbEntity
  8
0
100
AcDbLine
 10
7.96195934615761
 20
3.632369671570487
 30
0.0
 11
8.222283219880815
 21
3.702123243305159
 31
0.0
  0
ARC
  5
164
330
2
100
AcDbEntity
  8
0
100
AcDbCircle
 10
8.230358374088013
 20
3.671986357524943
 30
0.0
 40
0.031199999999997
100
AcDbArc
 50
344.9999999999998
 51
105.0000000000002
  0
LINE
  5
169
330
2
100
AcDbEntity
  8
0
100
AcDbLine
 10
-8.82337207735584
 20
0.4332599999999993
 30
0.0
 11
-8.823372077355836
 21
9.452400020871103
 31
0.0
  0
LINE
  5
16A
330
2
100
AcDbEntity
  8
0
100
AcDbLine
 10
-7.779912077355844
 20
9.452535440187432
 30
0.0
 11
-7.779912077355844
 21
2.137840000000004
 31
0.0
  0
LINE
  5
16B
330
2
100
AcDbEntity
  8
0
  6
HIDDEN
100
AcDbLine
 10
-8.717416077355841
 20
0.4332599999999993
 30
0.0
 11
-8.717416077355841
 21
9.452413771747114
 31
0.0
  0
LINE
  5
16C
330
2
100
AcDbEntity
  8
0
100
AcDbLine
 10
-7.779912077355844
 20
2.137840000000004
 30
0.0
 11
-6.725722077355838
 21
0.3893200000000001
 31
0.0
  0
LINE
  5
16D
330
2
100
AcDbEntity
  8
0
  6
HIDDEN
100
AcDbLine
 10
-6.725722077355838
 20
0.0830100000000003
 30
0.0
 11
-8.717416077355841
 21
0.0830100000000003
 31
0.0
  0
LINE
  5
16E
330
2
100
AcDbEntity
  8
0
100
AcDbLine
 10
-6.725722077355838
 20
0.0205099999999985
 30
0.0
 11
-8.717416077355841
 21
0.0205099999999985
 31
0.0
  0
LINE
  5
16F
330
2
100
AcDbEntity
  8
0
100
AcDbLine
 10
-6.725722077355838
 20
0.0205099999999985
 30
0.0
 11
-6.725722077355838
 21
0.3893200000000001
 31
0.0
  0
LINE
  5
170
330
2
100
AcDbEntity
  8
0
100
AcDbLine
 10
-8.717416077355841
 20
0.4332599999999993
 30
0.0
 11
-8.717416077355841
 21
0.0203499999999974
 31
0.0
  0
LINE
  5
171
330
2
100
AcDbEntity
  8
0
100
AcDbLine
 10
-8.717416077355841
 20
0.4332599999999993
 30
0.0
 11
-8.82337207735584
 21
0.4332599999999993
 31
0.0
  0
CIRCLE
  5
173
330
2
100
AcDbEntity
  8
0
100
AcDbCircle
 10
-8.123762077355847
 20
1.625268800585903
 30
0.0
 40
0.109
  0
LINE
  5
177
330
2
100
AcDbEntity
  8
0
100
AcDbLine
 10
-8.255841185997612
 20
4.387084548223093
 30
0.0
 11
-8.18608761426294
 21
4.126760674499892
 31
0.0
  0
LINE
  5
178
330
2
100
AcDbEntity
  8
0
100
AcDbLine
 10
-8.133888996909699
 20
4.112774097134064
 30
0.0
 11
-7.943318694921173
 21
4.303344399122594
 31
0.0
  0
CIRCLE
  5
179
330
2
100
AcDbEntity
  8
0
100
AcDbCircle
 10
-8.123762077355847
 20
2.264712125984193
 30
0.0
 40
0.109
  0
ARC
  5
17A
330
2
100
AcDbEntity
  8
0
100
AcDbCircle
 10
-8.155950728482717
 20
4.134835828707088
 30
0.0
 40
0.0312000000000034
100
AcDbArc
 50
194.9999999999936
 51
314.9999999999931
  0
ARC
  5
17B
330
2
100
AcDbEntity
  8
0
100
AcDbCircle
 10
-8.225704300217396
 20
4.395159702430291
 30
0.0
 40
0.031199999999997
100
AcDbArc
 50
74.99999999999986
 51
195.0000000000002
  0
ARC
  5
17C
330
2
100
AcDbEntity
  8
0
100
AcDbCircle
 10
-7.965380426494194
 20
4.325406130695615
 30
0.0
 40
0.0312000000000019
100
AcDbArc
 50
315.0
 51
74.99999999999524
  0
LINE
  5
17D
330
2
100
AcDbEntity
  8
0
100
AcDbLine
 10
-7.957305272286993
 20
4.355543016475835
 30
0.0
 11
-8.217629146010198
 21
4.425296588210507
 31
0.0
  0
CIRCLE
  5
180
330
2
100
AcDbEntity
  8
0
100
AcDbCircle
 10
-8.12376207735584
 20
5.758577718366603
 30
0.0
 40
0.109
  0
LINE
  5
183
330
2
100
AcDbEntity
  8
0
100
AcDbLine
 10
-7.779912077355837
 20
9.452535440187432
 30
0.0
 11
-8.823372077355836
 21
9.452400020871103
 31
0.0
  0
ENDSEC
  0
SECTION
  2
OBJECTS
  0
DICTIONARY
  5
9
330
0
100
AcDbDictionary
281
     1
  3
ACAD_COLOR
350
187
  3
ACAD_GROUP
350
23
  3
ACAD_LAYOUT
350
D
  3
ACAD_MATERIAL
350
186
  3
ACAD_MLINESTYLE
350
24
  3
ACAD_PLOTSETTINGS
350
25
  3
ACAD_PLOTSTYLENAME
350
8
  3
ACAD_TABLESTYLE
350
188
  3
ACDBHEADERROUNDTRIPXREC
350
1A0
  3
AcDbVariableDictionary
350
D0
  0
DICTIONARY
  5
187
102
{ACAD_REACTORS
330
9
102
}
330
9
100
AcDbDictionary
281
     1
  0
DICTIONARY
  5
23
102
{ACAD_REACTORS
330
9
102
}
330
9
100
AcDbDictionary
281
     1
  0
DICTIONARY
  5
D
102
{ACAD_REACTORS
330
9
102
}
330
9
100
AcDbDictionary
281
     1
  3
Layout1
350
13
  3
Model
350
C
  0
DICTIONARY
  5
186
102
{ACAD_REACTORS
330
9
102
}
330
9
100
AcDbDictionary
281
     1
  0
DICTIONARY
  5
24
102
{ACAD_REACTORS
330
9
102
}
330
9
100
AcDbDictionary
281
     1
  3
STANDARD
350
27
  0
DICTIONARY
  5
25
102
{ACAD_REACTORS
330
9
102
}
330
9
100
AcDbDictionary
281
     1
  0
ACDBDICTIONARYWDFLT
  5
8
102
{ACAD_REACTORS
330
9
102
}
330
9
100
AcDbDictionary
281
     1
  3
Normal
350
7
100
AcDbDictionaryWithDefault
340
7
  0
DICTIONARY
  5
188
102
{ACAD_REACTORS
330
9
102
}
330
9
100
AcDbDictionary
281
     1
  3
Standard
350
189
  0
DICTIONARY
  5
1A0
102
{ACAD_REACTORS
330
9
102
}
330
9
100
AcDbDictionary
281
     1
  3
COLORDICT
350
1A1
  3
MATERIALDICT
350
1A2
  0
DICTIONARY
  5
D0
102
{ACAD_REACTORS
330
9
102
}
330
9
100
AcDbDictionary
281
     1
  3
CTABLESTYLE
350
19D
  3
HIDETEXT
350
19F
  0
LAYOUT
  5
13
102
{ACAD_REACTORS
330
D
102
}
102
{ACAD_XDICTIONARY
360
1A3
102
}
330
D
100
AcDbPlotSettings
  1

  2
C:\ACAD2000\plotters\HP LaserJet 2100 Series PS.pc3
  4

  6

 40
0.0
 41
0.0
 42
0.0
 43
0.0
 44
0.0
 45
0.0
 46
0.0
 47
0.0
 48
0.0
 49
0.0
140
0.0
141
0.0
142
1.0
143
1.0
 70
   688
 72
     0
 73
     0
 74
     5
  7

 75
    16
147
1.0
148
0.0
149
0.0
100
AcDbLayout
  1
Layout1
 70
     0
 71
     1
 10
0.0
 20
0.0
 11
12.0
 21
9.0
 12
0.0
 22
0.0
 32
0.0
 14
1.000000000000000E+20
 24
1.000000000000000E+20
 34
1.000000000000000E+20
 15
-1.000000000000000E+20
 25
-1.000000000000000E+20
 35
-1.000000000000000E+20
146
0.0
 13
0.0
 23
0.0
 33
0.0
 16
1.0
 26
0.0
 36
0.0
 17
0.0
 27
1.0
 37
0.0
 76
     0
330
E
  0
LAYOUT
  5
C
102
{ACAD_REACTORS
330
D
102
}
102
{ACAD_XDICTIONARY
360
1A5
102
}
330
D
100
AcDbPlotSettings
  1

  2
HP LaserJet 2100 Series PS
  4
Letter
  6

 40
5.365749835968018
 41
5.365735054016113
 42
3.175003051757813
 43
3.17498779296875
 44
210.4813232421875
 45
273.9813232421875
 46
0.0
 47
0.0
 48
0.0
 49
0.0
140
0.0
141
0.0
142
1.0
143
3.962056750635113
 70
 28336
 72
     0
 73
     1
 74
     2
  7

 75
     0
147
0.2523941636726181
148
0.0
149
0.0
100
AcDbLayout
  1
Model
 70
     1
 71
     0
 10
0.0
 20
0.0
 11
12.0
 21
9.0
 12
0.0
 22
0.0
 32
0.0
 14
0.0
 24
0.0
 34
0.0
 15
0.0
 25
0.0
 35
0.0
146
0.0
 13
0.0
 23
0.0
 33
0.0
 16
1.0
 26
0.0
 36
0.0
 17
0.0
 27
1.0
 37
0.0
 76
     0
330
2
  0
MLINESTYLE
  5
27
102
{ACAD_REACTORS
330
24
102
}
330
24
100
AcDbMlineStyle
  2
STANDARD
 70
     0
  3

 62
   256
 51
90.0
 52
90.0
 71
     2
 49
0.5
 62
   256
  6
BYLAYER
 49
-0.5
 62
   256
  6
BYLAYER
  0
ACDBPLACEHOLDER
  5
7
102
{ACAD_REACTORS
330
8
102
}
330
8
  0
ACAD_PROXY_OBJECT
  5
189
102
{ACAD_REACTORS
330
188
102
}
330
188
100
AcDbProxyObject
 90
      499
 91
      509
 95
   983063
 70
     0
 93
     1841
310
4214DD185B99185C9928B81E85EB51B8AE3F2E07A17AD46E2B8FC02B5E8DC0F42B1CFD028000000C1008070000C3001FDFF8000000C1003FBFF000000182007F7FE00000030400FEFFC00000060801FDFF8000000C1003FBFF00000018200000000000000681FA0B0000001820100E000186003FBFF000000182007F7FE000
310
00030400FEFFC00000060801FDFF8000000C1003FBFF000000182007F7FE000000304000AD7A3703D0AC73F4160000003040201C00030C007F7FE00000030400FEFFC00000060801FDFF8000000C1003FBFF000000182007F7FE00000030400FEFFC000000608000
340
16
340
16
340
16
 94
        0
  0
XRECORD
  5
1A1
102
{ACAD_REACTORS
330
1A0
102
}
330
1A0
100
AcDbXrecord
340
187
  0
XRECORD
  5
1A2
102
{ACAD_REACTORS
330
1A0
102
}
330
1A0
100
AcDbXrecord
340
186
  0
DICTIONARYVAR
  5
19D
102
{ACAD_REACTORS
330
D0
102
}
330
D0
100
DictionaryVariables
280
     0
  1
STANDARD
  0
DICTIONARYVAR
  5
19F
102
{ACAD_REACTORS
330
D0
102
}
330
D0
100
DictionaryVariables
280
     0
  1
0
  0
DICTIONARY
  5
1A3
330
13
100
AcDbDictionary
280
     1
281
     1
  3
ACAD_XREC_ROUNDTRIP
360
1A4
  0
DICTIONARY
  5
1A5
330
C
100
AcDbDictionary
280
     1
281
     1
  3
ACAD_XREC_ROUNDTRIP
360
1A6
  0
XRECORD
  5
1A4
102
{ACAD_REACTORS
330
1A3
102
}
330
1A3
100
AcDbXrecord
102
SHADEPLOT
 70
     0
102
SHADEPLOTRESLEVEL
 70
     2
102
SHADEPLOTCUSTOMDPI
 70
   300
  0
XRECORD
  5
1A6
102
{ACAD_REACTORS
330
1A5
102
}
330
1A5
100
AcDbXrecord
102
SHADEPLOT
 70
     0
102
SHADEPLOTRESLEVEL
 70
     2
102
SHADEPLOTCUSTOMDPI
 70
   300
  0
ENDSEC
  0
EOF
