  0
SECTION
  2
HEADER
  9
$ACADVER
  1
AC1015
  9
$ACADMAINTVER
 70
     6
  9
$DWGCODEPAGE
  3
ANSI_1252
  9
$INSBASE
 10
0.0
 20
0.0
 30
0.0
  9
$EXTMIN
 10
-10.66420810176909
 20
-0.1005841265164094
 30
-0.0000000000112498
  9
$EXTMAX
 10
10.66410105368929
 20
18.08817954116012
 30
0.0000000000002956
  9
$LIMMIN
 10
0.0
 20
0.0
  9
$LIMMAX
 10
42.0
 20
32.0
  9
$ORTHOMODE
 70
     1
  9
$REGENMODE
 70
     1
  9
$FILLMODE
 70
     1
  9
$QTEXTMODE
 70
     0
  9
$MIRRTEXT
 70
     0
  9
$LTSCALE
 40
0.5
  9
$ATTMODE
 70
     1
  9
$TEXTSIZE
 40
0.36
  9
$TRACEWID
 40
0.05
  9
$TEXTSTYLE
  7
STANDARD
  9
$CLAYER
  8
0
  9
$CELTYPE
  6
BYLAYER
  9
$CECOLOR
 62
   256
  9
$CELTSCALE
 40
1.0
  9
$DISPSILH
 70
     0
  9
$DIMSCALE
 40
4.0
  9
$DIMASZ
 40
0.125
  9
$DIMEXO
 40
0.062
  9
$DIMDLI
 40
0.375
  9
$DIMRND
 40
0.0
  9
$DIMDLE
 40
0.0
  9
$DIMEXE
 40
0.08
  9
$DIMTP
 40
0.0
  9
$DIMTM
 40
0.0
  9
$DIMTXT
 40
0.09
  9
$DIMCEN
 40
-0.03125
  9
$DIMTSZ
 40
0.0
  9
$DIMTOL
 70
     0
  9
$DIMLIM
 70
     0
  9
$DIMTIH
 70
     1
  9
$DIMTOH
 70
     1
  9
$DIMSE1
 70
     0
  9
$DIMSE2
 70
     0
  9
$DIMTAD
 70
     0
  9
$DIMZIN
 70
     0
  9
$DIMBLK
  1

  9
$DIMASO
 70
     0
  9
$DIMSHO
 70
     0
  9
$DIMPOST
  1

  9
$DIMAPOST
  1

  9
$DIMALT
 70
     0
  9
$DIMALTD
 70
     2
  9
$DIMALTF
 40
25.4
  9
$DIMLFAC
 40
1.0
  9
$DIMTOFL
 70
     0
  9
$DIMTVP
 40
0.0
  9
$DIMTIX
 70
     0
  9
$DIMSOXD
 70
     0
  9
$DIMSAH
 70
     0
  9
$DIMBLK1
  1

  9
$DIMBLK2
  1

  9
$DIMSTYLE
  2
STANDARD
  9
$DIMCLRD
 70
     0
  9
$DIMCLRE
 70
     0
  9
$DIMCLRT
 70
     0
  9
$DIMTFAC
 40
1.0
  9
$DIMGAP
 40
0.09
  9
$DIMJUST
 70
     0
  9
$DIMSD1
 70
     0
  9
$DIMSD2
 70
     0
  9
$DIMTOLJ
 70
     1
  9
$DIMTZIN
 70
     0
  9
$DIMALTZ
 70
     0
  9
$DIMALTTZ
 70
     0
  9
$DIMUPT
 70
     0
  9
$DIMDEC
 70
     5
  9
$DIMTDEC
 70
     5
  9
$DIMALTU
 70
     2
  9
$DIMALTTD
 70
     2
  9
$DIMTXSTY
  7
STANDARD
  9
$DIMAUNIT
 70
     0
  9
$DIMADEC
 70
     0
  9
$DIMALTRND
 40
0.0
  9
$DIMAZIN
 70
     0
  9
$DIMDSEP
 70
    46
  9
$DIMATFIT
 70
     3
  9
$DIMFRAC
 70
     2
  9
$DIMLDRBLK
  1

  9
$DIMLUNIT
 70
     5
  9
$DIMLWD
 70
    -2
  9
$DIMLWE
 70
    -2
  9
$DIMTMOVE
 70
     2
  9
$LUNITS
 70
     2
  9
$LUPREC
 70
     4
  9
$SKETCHINC
 40
0.1
  9
$FILLETRAD
 40
0.0
  9
$AUNITS
 70
     0
  9
$AUPREC
 70
     0
  9
$MENU
  1
acad
  9
$ELEVATION
 40
0.0
  9
$PELEVATION
 40
0.0
  9
$THICKNESS
 40
0.0
  9
$LIMCHECK
 70
     0
  9
$CHAMFERA
 40
0.0
  9
$CHAMFERB
 40
0.0
  9
$CHAMFERC
 40
0.0
  9
$CHAMFERD
 40
0.0
  9
$SKPOLY
 70
     0
  9
$TDCREATE
 40
2450513.78013287
  9
$TDUCREATE
 40
2450514.113466204
  9
$TDUPDATE
 40
2454166.00647794
  9
$TDUUPDATE
 40
2454166.339811273
  9
$TDINDWG
 40
0.3994427315
  9
$TDUSRTIMER
 40
0.3994427315
  9
$USRTIMER
 70
     1
  9
$ANGBASE
 50
0.0
  9
$ANGDIR
 70
     0
  9
$PDMODE
 70
     0
  9
$PDSIZE
 40
0.0
  9
$PLINEWID
 40
0.0
  9
$SPLFRAME
 70
     0
  9
$SPLINETYPE
 70
     6
  9
$SPLINESEGS
 70
     8
  9
$HANDSEED
  5
172
  9
$SURFTAB1
 70
     6
  9
$SURFTAB2
 70
     6
  9
$SURFTYPE
 70
     6
  9
$SURFU
 70
     6
  9
$SURFV
 70
     6
  9
$UCSBASE
  2

  9
$UCSNAME
  2

  9
$UCSORG
 10
0.0
 20
0.0
 30
0.0
  9
$UCSXDIR
 10
1.0
 20
0.0
 30
0.0
  9
$UCSYDIR
 10
0.0
 20
1.0
 30
0.0
  9
$UCSORTHOREF
  2

  9
$UCSORTHOVIEW
 70
     0
  9
$UCSORGTOP
 10
0.0
 20
0.0
 30
0.0
  9
$UCSORGBOTTOM
 10
0.0
 20
0.0
 30
0.0
  9
$UCSORGLEFT
 10
0.0
 20
0.0
 30
0.0
  9
$UCSORGRIGHT
 10
0.0
 20
0.0
 30
0.0
  9
$UCSORGFRONT
 10
0.0
 20
0.0
 30
0.0
  9
$UCSORGBACK
 10
0.0
 20
0.0
 30
0.0
  9
$PUCSBASE
  2

  9
$PUCSNAME
  2

  9
$PUCSORG
 10
0.0
 20
0.0
 30
0.0
  9
$PUCSXDIR
 10
1.0
 20
0.0
 30
0.0
  9
$PUCSYDIR
 10
0.0
 20
1.0
 30
0.0
  9
$PUCSORTHOREF
  2

  9
$PUCSORTHOVIEW
 70
     0
  9
$PUCSORGTOP
 10
0.0
 20
0.0
 30
0.0
  9
$PUCSORGBOTTOM
 10
0.0
 20
0.0
 30
0.0
  9
$PUCSORGLEFT
 10
0.0
 20
0.0
 30
0.0
  9
$PUCSORGRIGHT
 10
0.0
 20
0.0
 30
0.0
  9
$PUCSORGFRONT
 10
0.0
 20
0.0
 30
0.0
  9
$PUCSORGBACK
 10
0.0
 20
0.0
 30
0.0
  9
$USERI1
 70
     0
  9
$USERI2
 70
     0
  9
$USERI3
 70
     0
  9
$USERI4
 70
     0
  9
$USERI5
 70
     0
  9
$USERR1
 40
0.0
  9
$USERR2
 40
0.0
  9
$USERR3
 40
0.0
  9
$USERR4
 40
0.0
  9
$USERR5
 40
0.0
  9
$WORLDVIEW
 70
     1
  9
$SHADEDGE
 70
     3
  9
$SHADEDIF
 70
    70
  9
$TILEMODE
 70
     1
  9
$MAXACTVP
 70
    16
  9
$PINSBASE
 10
0.0
 20
0.0
 30
0.0
  9
$PLIMCHECK
 70
     0
  9
$PEXTMIN
 10
1.000000000000000E+20
 20
1.000000000000000E+20
 30
1.000000000000000E+20
  9
$PEXTMAX
 10
-1.000000000000000E+20
 20
-1.000000000000000E+20
 30
-1.000000000000000E+20
  9
$PLIMMIN
 10
0.0
 20
0.0
  9
$PLIMMAX
 10
12.0
 20
9.0
  9
$UNITMODE
 70
     0
  9
$VISRETAIN
 70
     0
  9
$PLINEGEN
 70
     0
  9
$PSLTSCALE
 70
     0
  9
$TREEDEPTH
 70
  3020
  9
$CMLSTYLE
  2
STANDARD
  9
$CMLJUST
 70
     0
  9
$CMLSCALE
 40
1.0
  9
$PROXYGRAPHICS
 70
     1
  9
$MEASUREMENT
 70
     0
  9
$CELWEIGHT
370
    -1
  9
$ENDCAPS
280
     0
  9
$JOINSTYLE
280
     0
  9
$LWDISPLAY
290
     0
  9
$INSUNITS
 70
     0
  9
$HYPERLINKBASE
  1

  9
$STYLESHEET
  1

  9
$XEDIT
290
     1
  9
$CEPSNTYPE
380
     0
  9
$PSTYLEMODE
290
     1
  9
$FINGERPRINTGUID
  2
{4A3893E9-8CC7-11D5-BE3F-00508B5FCD51}
  9
$VERSIONGUID
  2
{645EF886-98B8-4F65-AF73-0FB0D5E7472F}
  9
$EXTNAMES
290
     1
  9
$PSVPSCALE
 40
0.0
  9
$OLESTARTUP
290
     0
  0
ENDSEC
  0
SECTION
  2
CLASSES
  0
CLASS
  1
DICTIONARYVAR
  2
AcDbDictionaryVar
  3
AutoCAD 2000
 90
        0
280
     0
281
     0
  0
CLASS
  1
LWPOLYLINE
  2
AcDbPolyline
  3
AutoCAD 2000
 90
        0
280
     0
281
     1
  0
CLASS
  1
ACDBDICTIONARYWDFLT
  2
AcDbDictionaryWithDefault
  3
AutoCAD 2000
 90
        0
280
     0
281
     0
  0
CLASS
  1
ACDBPLACEHOLDER
  2
AcDbPlaceHolder
  3
ObjectDBX Classes
 90
        0
280
     0
281
     0
  0
CLASS
  1
LAYOUT
  2
AcDbLayout
  3
ObjectDBX Classes
 90
        0
280
     0
281
     0
  0
CLASS
  1
LONG_TRANSACTION
  2
AcDbLongTransaction
  3
ObjectDBX Classes
 90
   -65536
280
     1
281
     0
  0
CLASS
  1
LWPOLYLINE
  2
AcDbPolyline
  3
AutoCAD 2000
 90
        0
280
     0
281
     1
  0
CLASS
  1
HATCH
  2
AcDbHatch
  3
AutoCAD 2000
 90
        0
280
     0
281
     1
  0
CLASS
  1
XRECORD
  2
AcDbXrecord
  3
AutoCAD 2000
 90
        0
280
     0
281
     0
  0
CLASS
  1
LONG_TRANSACTION
  2
AcDbLongTransaction
  3
ObjectDBX Classes
 90
   -65536
280
     1
281
     0
  0
CLASS
  1
LWPOLYLINE
  2
AcDbPolyline
  3
AutoCAD 2000
 90
        0
280
     0
281
     1
  0
CLASS
  1
HATCH
  2
AcDbHatch
  3
AutoCAD 2000
 90
        0
280
     0
281
     1
  0
CLASS
  1
XRECORD
  2
AcDbXrecord
  3
AutoCAD 2000
 90
        0
280
     0
281
     0
  0
CLASS
  1
LONG_TRANSACTION
  2
AcDbLongTransaction
  3
ObjectDBX Classes
 90
   -65536
280
     1
281
     0
  0
CLASS
  1
LWPOLYLINE
  2
AcDbPolyline
  3
AutoCAD 2000
 90
        0
280
     0
281
     1
  0
CLASS
  1
HATCH
  2
AcDbHatch
  3
AutoCAD 2000
 90
        0
280
     0
281
     1
  0
CLASS
  1
XRECORD
  2
AcDbXrecord
  3
AutoCAD 2000
 90
        0
280
     0
281
     0
  0
CLASS
  1
LONG_TRANSACTION
  2
AcDbLongTransaction
  3
ObjectDBX Classes
 90
   -65536
280
     1
281
     0
  0
CLASS
  1
LWPOLYLINE
  2
AcDbPolyline
  3
AutoCAD 2000
 90
        0
280
     0
281
     1
  0
CLASS
  1
HATCH
  2
AcDbHatch
  3
AutoCAD 2000
 90
        0
280
     0
281
     1
  0
CLASS
  1
XRECORD
  2
AcDbXrecord
  3
AutoCAD 2000
 90
        0
280
     0
281
     0
  0
CLASS
  1
LONG_TRANSACTION
  2
AcDbLongTransaction
  3
ObjectDBX Classes
 90
   -65536
280
     1
281
     0
  0
CLASS
  1
LWPOLYLINE
  2
AcDbPolyline
  3
AutoCAD 2000
 90
        0
280
     0
281
     1
  0
CLASS
  1
HATCH
  2
AcDbHatch
  3
AutoCAD 2000
 90
        0
280
     0
281
     1
  0
CLASS
  1
XRECORD
  2
AcDbXrecord
  3
AutoCAD 2000
 90
        0
280
     0
281
     0
  0
CLASS
  1
LONG_TRANSACTION
  2
AcDbLongTransaction
  3
ObjectDBX Classes
 90
   -65536
280
     1
281
     0
  0
CLASS
  1
LWPOLYLINE
  2
AcDbPolyline
  3
AutoCAD 2000
 90
        0
280
     0
281
     1
  0
CLASS
  1
HATCH
  2
AcDbHatch
  3
AutoCAD 2000
 90
        0
280
     0
281
     1
  0
CLASS
  1
XRECORD
  2
AcDbXrecord
  3
AutoCAD 2000
 90
        0
280
     0
281
     0
  0
CLASS
  1
LONG_TRANSACTION
  2
AcDbLongTransaction
  3
ObjectDBX Classes
 90
   -65536
280
     1
281
     0
  0
CLASS
  1
LWPOLYLINE
  2
AcDbPolyline
  3
AutoCAD 2000
 90
        0
280
     0
281
     1
  0
CLASS
  1
HATCH
  2
AcDbHatch
  3
AutoCAD 2000
 90
        0
280
     0
281
     1
  0
CLASS
  1
XRECORD
  2
AcDbXrecord
  3
AutoCAD 2000
 90
        0
280
     0
281
     0
  0
CLASS
  1
LONG_TRANSACTION
  2
AcDbLongTransaction
  3
ObjectDBX Classes
 90
   -65536
280
     1
281
     0
  0
CLASS
  1
LWPOLYLINE
  2
AcDbPolyline
  3
AutoCAD 2000
 90
        0
280
     0
281
     1
  0
CLASS
  1
HATCH
  2
AcDbHatch
  3
AutoCAD 2000
 90
        0
280
     0
281
     1
  0
CLASS
  1
XRECORD
  2
AcDbXrecord
  3
AutoCAD 2000
 90
        0
280
     0
281
     0
  0
CLASS
  1
LONG_TRANSACTION
  2
AcDbLongTransaction
  3
ObjectDBX Classes
 90
   -65536
280
     1
281
     0
  0
CLASS
  1
LWPOLYLINE
  2
AcDbPolyline
  3
AutoCAD 2000
 90
        0
280
     0
281
     1
  0
CLASS
  1
HATCH
  2
AcDbHatch
  3
AutoCAD 2000
 90
        0
280
     0
281
     1
  0
CLASS
  1
XRECORD
  2
AcDbXrecord
  3
AutoCAD 2000
 90
        0
280
     0
281
     0
  0
CLASS
  1
LONG_TRANSACTION
  2
AcDbLongTransaction
  3
ObjectDBX Classes
 90
   -65536
280
     1
281
     0
  0
CLASS
  1
LWPOLYLINE
  2
AcDbPolyline
  3
AutoCAD 2000
 90
        0
280
     0
281
     1
  0
CLASS
  1
HATCH
  2
AcDbHatch
  3
AutoCAD 2000
 90
        0
280
     0
281
     1
  0
CLASS
  1
XRECORD
  2
AcDbXrecord
  3
AutoCAD 2000
 90
        0
280
     0
281
     0
  0
CLASS
  1
LONG_TRANSACTION
  2
AcDbLongTransaction
  3
ObjectDBX Classes
 90
   -65536
280
     1
281
     0
  0
CLASS
  1
LWPOLYLINE
  2
AcDbPolyline
  3
AutoCAD 2000
 90
        0
280
     0
281
     1
  0
CLASS
  1
HATCH
  2
AcDbHatch
  3
AutoCAD 2000
 90
        0
280
     0
281
     1
  0
CLASS
  1
XRECORD
  2
AcDbXrecord
  3
AutoCAD 2000
 90
        0
280
     0
281
     0
  0
CLASS
  1
LONG_TRANSACTION
  2
AcDbLongTransaction
  3
ObjectDBX Classes
 90
   -65536
280
     1
281
     0
  0
CLASS
  1
LWPOLYLINE
  2
AcDbPolyline
  3
AutoCAD 2000
 90
        0
280
     0
281
     1
  0
CLASS
  1
HATCH
  2
AcDbHatch
  3
AutoCAD 2000
 90
        0
280
     0
281
     1
  0
CLASS
  1
XRECORD
  2
AcDbXrecord
  3
AutoCAD 2000
 90
        0
280
     0
281
     0
  0
CLASS
  1
LONG_TRANSACTION
  2
AcDbLongTransaction
  3
ObjectDBX Classes
 90
   -65536
280
     1
281
     0
  0
CLASS
  1
LWPOLYLINE
  2
AcDbPolyline
  3
AutoCAD 2000
 90
        0
280
     0
281
     1
  0
CLASS
  1
HATCH
  2
AcDbHatch
  3
AutoCAD 2000
 90
        0
280
     0
281
     1
  0
CLASS
  1
XRECORD
  2
AcDbXrecord
  3
AutoCAD 2000
 90
        0
280
     0
281
     0
  0
CLASS
  1
LONG_TRANSACTION
  2
AcDbLongTransaction
  3
ObjectDBX Classes
 90
   -65536
280
     1
281
     0
  0
CLASS
  1
LWPOLYLINE
  2
AcDbPolyline
  3
AutoCAD 2000
 90
        0
280
     0
281
     1
  0
CLASS
  1
HATCH
  2
AcDbHatch
  3
AutoCAD 2000
 90
        0
280
     0
281
     1
  0
CLASS
  1
XRECORD
  2
AcDbXrecord
  3
AutoCAD 2000
 90
        0
280
     0
281
     0
  0
CLASS
  1
LONG_TRANSACTION
  2
AcDbLongTransaction
  3
ObjectDBX Classes
 90
   -65536
280
     1
281
     0
  0
CLASS
  1
LWPOLYLINE
  2
AcDbPolyline
  3
AutoCAD 2000
 90
        0
280
     0
281
     1
  0
CLASS
  1
HATCH
  2
AcDbHatch
  3
AutoCAD 2000
 90
        0
280
     0
281
     1
  0
CLASS
  1
XRECORD
  2
AcDbXrecord
  3
AutoCAD 2000
 90
        0
280
     0
281
     0
  0
CLASS
  1
LONG_TRANSACTION
  2
AcDbLongTransaction
  3
ObjectDBX Classes
 90
   -65536
280
     1
281
     0
  0
CLASS
  1
LWPOLYLINE
  2
AcDbPolyline
  3
AutoCAD 2000
 90
        0
280
     0
281
     1
  0
CLASS
  1
HATCH
  2
AcDbHatch
  3
AutoCAD 2000
 90
        0
280
     0
281
     1
  0
CLASS
  1
XRECORD
  2
AcDbXrecord
  3
AutoCAD 2000
 90
        0
280
     0
281
     0
  0
CLASS
  1
LONG_TRANSACTION
  2
AcDbLongTransaction
  3
ObjectDBX Classes
 90
   -65536
280
     1
281
     0
  0
CLASS
  1
LWPOLYLINE
  2
AcDbPolyline
  3
AutoCAD 2000
 90
        0
280
     0
281
     1
  0
CLASS
  1
HATCH
  2
AcDbHatch
  3
AutoCAD 2000
 90
        0
280
     0
281
     1
  0
CLASS
  1
XRECORD
  2
AcDbXrecord
  3
AutoCAD 2000
 90
        0
280
     0
281
     0
  0
CLASS
  1
TABLESTYLE
  2
AcDbTableStyle
  3
ObjectDBX Classes
 90
     2047
280
     1
281
     0
  0
ENDSEC
  0
SECTION
  2
TABLES
  0
TABLE
  2
VPORT
  5
1D
330
0
100
AcDbSymbolTable
 70
     3
  0
VPORT
  5
162
330
1D
100
AcDbSymbolTableRecord
100
AcDbViewportTableRecord
  2
*Active
 70
     0
 10
0.0
 20
0.0
 11
1.0
 21
1.0
 12
15.66789594911546
 22
15.9497079367418
 13
0.0
 23
0.0
 14
0.03125
 24
0.03125
 15
0.25
 25
0.25
 16
0.0
 26
0.0
 36
1.0
 17
0.0
 27
0.0
 37
0.0
 40
32.50100721333367
 41
1.814583333333333
 42
50.0
 43
0.0
 44
0.0
 50
0.0
 51
0.0
 71
     0
 72
   100
 73
     1
 74
     0
 75
     0
 76
     0
 77
     0
 78
     0
281
     0
 65
     1
110
0.0
120
0.0
130
0.0
111
1.0
121
0.0
131
0.0
112
0.0
122
1.0
132
0.0
 79
     0
146
0.0
  0
ENDTAB
  0
TABLE
  2
LTYPE
  5
18
330
0
100
AcDbSymbolTable
 70
     2
  0
LTYPE
  5
19
330
18
100
AcDbSymbolTableRecord
100
AcDbLinetypeTableRecord
  2
BYBLOCK
 70
     0
  3

 72
    65
 73
     0
 40
0.0
  0
LTYPE
  5
1A
330
18
100
AcDbSymbolTableRecord
100
AcDbLinetypeTableRecord
  2
BYLAYER
 70
     0
  3

 72
    65
 73
     0
 40
0.0
  0
LTYPE
  5
A
330
18
100
AcDbSymbolTableRecord
100
AcDbLinetypeTableRecord
  2
CONTINUOUS
 70
     0
  3
Solid line
 72
    65
 73
     0
 40
0.0
  0
LTYPE
  5
161
330
18
100
AcDbSymbolTableRecord
100
AcDbLinetypeTableRecord
  2
HIDDEN
 70
     0
  3
Hidden __ __ __ __ __ __ __ __ __ __ __ __ __ _
 72
    65
 73
     2
 40
0.375
 49
0.25
 74
     0
 49
-0.125
 74
     0
  0
ENDTAB
  0
TABLE
  2
LAYER
  5
14
330
0
100
AcDbSymbolTable
 70
     2
  0
LAYER
  5
6
330
14
100
AcDbSymbolTableRecord
100
AcDbLayerTableRecord
  2
0
 70
     0
 62
     7
  6
CONTINUOUS
370
    -3
390
7
  0
ENDTAB
  0
TABLE
  2
STYLE
  5
15
330
0
100
AcDbSymbolTable
 70
     2
  0
STYLE
  5
16
330
15
100
AcDbSymbolTableRecord
100
AcDbTextStyleTableRecord
  2
STANDARD
 70
     0
 40
0.0
 41
1.0
 50
0.0
 71
     0
 42
0.36
  3
TXT
  4

  0
STYLE
  5
160
330
15
100
AcDbSymbolTableRecord
100
AcDbTextStyleTableRecord
  2

 70
     1
 40
0.0
 41
1.0
 50
0.0
 71
     0
 42
0.36
  3
ltypeshp.shx
  4

  0
ENDTAB
  0
TABLE
  2
VIEW
  5
1B
330
0
100
AcDbSymbolTable
 70
     0
  0
ENDTAB
  0
TABLE
  2
UCS
  5
1C
330
0
100
AcDbSymbolTable
 70
     0
  0
ENDTAB
  0
TABLE
  2
APPID
  5
1F
330
0
100
AcDbSymbolTable
 70
     1
  0
APPID
  5
20
330
1F
100
AcDbSymbolTableRecord
100
AcDbRegAppTableRecord
  2
ACAD
 70
     0
  0
ENDTAB
  0
TABLE
  2
DIMSTYLE
  5
21
330
0
100
AcDbSymbolTable
 70
     1
100
AcDbDimStyleTable
  0
DIMSTYLE
105
28
330
21
100
AcDbSymbolTableRecord
100
AcDbDimStyleTableRecord
  2
STANDARD
 70
     0
  3

  4

340
16
  0
ENDTAB
  0
TABLE
  2
BLOCK_RECORD
  5
1
330
0
100
AcDbSymbolTable
 70
     0
  0
BLOCK_RECORD
  5
2
330
1
100
AcDbSymbolTableRecord
100
AcDbBlockTableRecord
  2
*MODEL_SPACE
340
C
  0
BLOCK_RECORD
  5
E
330
1
100
AcDbSymbolTableRecord
100
AcDbBlockTableRecord
  2
*PAPER_SPACE
340
13
  0
ENDTAB
  0
ENDSEC
  0
SECTION
  2
BLOCKS
  0
BLOCK
  5
5
330
2
100
AcDbEntity
  8
0
100
AcDbBlockBegin
  2
*MODEL_SPACE
 70
     0
 10
0.0
 20
0.0
 30
0.0
  3
*MODEL_SPACE
  1

  4

  0
ENDBLK
  5
B
330
2
100
AcDbEntity
  8
0
100
AcDbBlockEnd
  0
BLOCK
  5
11
330
E
100
AcDbEntity
 67
     1
  8
0
100
AcDbBlockBegin
  2
*PAPER_SPACE
 70
     0
 10
0.0
 20
0.0
 30
0.0
  3
*PAPER_SPACE
  1

  4

  0
ENDBLK
  5
12
330
E
100
AcDbEntity
 67
     1
  8
0
100
AcDbBlockEnd
  0
ENDSEC
  0
SECTION
  2
ENTITIES
  0
LINE
  5
D0
330
2
100
AcDbEntity
  8
0
100
AcDbLine
 10
2.78125
 20
14.61212849914502
 30
0.0
 11
2.781249999999957
 21
17.91712849914504
 31
0.0
  0
LINE
  5
D1
330
2
100
AcDbEntity
  8
0
100
AcDbLine
 10
2.851249999999979
 20
14.61212849914501
 30
0.0
 11
2.851249999999951
 21
17.91712849914504
 31
0.0
  0
LINE
  5
D2
330
2
100
AcDbEntity
  8
0
100
AcDbLine
 10
-2.851250000000007
 20
14.61212849914501
 30
0.0
 11
-2.851249999999979
 21
17.91712849914504
 31
0.0
  0
LINE
  5
D3
330
2
100
AcDbEntity
  8
0
100
AcDbLine
 10
-2.781250000000028
 20
14.61212849914502
 30
0.0
 11
-2.781249999999986
 21
17.91712849914504
 31
0.0
  0
LINE
  5
D4
330
2
100
AcDbEntity
  8
0
100
AcDbLine
 10
-2.703249999993375
 20
14.61212849914501
 30
0.0
 11
2.703249999993375
 21
14.61212849914501
 31
0.0
  0
ARC
  5
D5
330
2
100
AcDbEntity
  8
0
100
AcDbCircle
 10
-2.781249999996931
 20
14.61212849914106
 30
0.0
 40
0.078
100
AcDbArc
 50
0.0000000029124721
 51
90.00000000225538
  0
LINE
  5
D6
330
2
100
AcDbEntity
  8
0
100
AcDbLine
 10
-2.781250000000028
 20
14.61212849914502
 30
0.0
 11
-2.851250000000007
 21
14.61212849914501
 31
0.0
  0
ARC
  5
D7
330
2
100
AcDbEntity
  8
0
100
AcDbCircle
 10
2.781249999996931
 20
14.61212849914106
 30
0.0
 40
0.078
100
AcDbArc
 50
89.99999999774461
 51
179.9999999970981
  0
LINE
  5
D8
330
2
100
AcDbEntity
  8
0
100
AcDbLine
 10
2.78125
 20
14.61212849914502
 30
0.0
 11
2.851249999999979
 21
14.61212849914501
 31
0.0
  0
LINE
  5
D9
330
2
100
AcDbEntity
  8
0
100
AcDbLine
 10
-2.703249999996928
 20
17.61212849914501
 30
0.0
 11
2.703249999993375
 21
17.61212849914501
 31
0.0
  0
ARC
  5
DA
330
2
100
AcDbEntity
  8
0
100
AcDbCircle
 10
-2.781249999996931
 20
17.61212849914896
 30
0.0
 40
0.078
100
AcDbArc
 50
269.9999999977446
 51
359.9999999970981
  0
ARC
  5
DB
330
2
100
AcDbEntity
  8
0
100
AcDbCircle
 10
-2.711249999999993
 20
17.91712849914504
 30
0.0
 40
0.14
100
AcDbArc
 50
89.99999999999919
 51
179.9999999999992
  0
ARC
  5
DC
330
2
100
AcDbEntity
  8
0
100
AcDbCircle
 10
-2.711249999999993
 20
17.91712849914504
 30
0.0
 40
0.07
100
AcDbArc
 50
89.99999999999919
 51
179.9999999999992
  0
LINE
  5
DD
330
2
100
AcDbEntity
  8
0
100
AcDbLine
 10
-2.711249999999993
 20
18.05712849914506
 30
0.0
 11
-1.281249999999986
 21
18.05712849914504
 31
0.0
  0
LINE
  5
DE
330
2
100
AcDbEntity
  8
0
100
AcDbLine
 10
-2.711249999999993
 20
17.98712849914504
 30
0.0
 11
-1.28125
 21
17.98712849914504
 31
0.0
  0
LINE
  5
DF
330
2
100
AcDbEntity
  8
0
100
AcDbLine
 10
-1.28125
 20
17.98712849914504
 30
0.0
 11
-1.281249999999986
 21
18.05712849914504
 31
0.0
  0
LINE
  5
E0
330
2
100
AcDbEntity
  8
0
100
AcDbLine
 10
2.711249999999964
 20
17.98712849914504
 30
0.0
 11
1.281249999999972
 21
17.98712849914504
 31
0.0
  0
LINE
  5
E1
330
2
100
AcDbEntity
  8
0
100
AcDbLine
 10
2.711249999999964
 20
18.05712849914506
 30
0.0
 11
1.281249999999957
 21
18.05712849914504
 31
0.0
  0
LINE
  5
E2
330
2
100
AcDbEntity
  8
0
100
AcDbLine
 10
1.281249999999972
 20
17.98712849914504
 30
0.0
 11
1.281249999999957
 21
18.05712849914504
 31
0.0
  0
ARC
  5
E3
330
2
100
AcDbEntity
  8
0
100
AcDbCircle
 10
2.711249999999964
 20
17.91712849914504
 30
0.0
 40
0.07
100
AcDbArc
 50
0.0000000000008142
 51
90.0
  0
ARC
  5
E4
330
2
100
AcDbEntity
  8
0
100
AcDbCircle
 10
2.711249999999964
 20
17.91712849914504
 30
0.0
 40
0.14
100
AcDbArc
 50
0.0000000000008142
 51
90.0
  0
ARC
  5
E5
330
2
100
AcDbEntity
  8
0
100
AcDbCircle
 10
2.781249999996931
 20
17.61212849914896
 30
0.0
 40
0.078
100
AcDbArc
 50
180.000000002897
 51
270.0000000022546
  0
LINE
  5
E7
330
2
100
AcDbEntity
  8
0
100
AcDbLine
 10
2.781250000000018
 20
8.999999999999989
 30
0.0
 11
2.7812500000001
 21
0.0700000000000145
 31
0.0
  0
LINE
  5
E8
330
2
100
AcDbEntity
  8
0
100
AcDbLine
 10
-2.781250000000043
 20
8.999999999999996
 30
0.0
 11
-2.7812500000001
 21
0.0699999999999719
 31
0.0
  0
LINE
  5
E9
330
2
100
AcDbEntity
  8
0
100
AcDbLine
 10
-1.281250000000071
 20
8.999999999999993
 30
0.0
 11
-1.281250000000071
 21
2.543098198565438
 31
0.0
  0
LINE
  5
EA
330
2
100
AcDbEntity
  8
0
100
AcDbLine
 10
1.281250000000028
 20
8.999999999999993
 30
0.0
 11
1.281250000000028
 21
2.543098198565438
 31
0.0
  0
LINE
  5
EB
330
2
100
AcDbEntity
  8
0
100
AcDbLine
 10
-2.851250000000036
 20
8.999999999999993
 30
0.0
 11
-2.851250000000107
 21
0.0699999999999719
 31
0.0
  0
LINE
  5
EC
330
2
100
AcDbEntity
  8
0
100
AcDbLine
 10
2.851250000000007
 20
8.999999999999989
 30
0.0
 11
2.851250000000093
 21
0.0700000000000145
 31
0.0
  0
ARC
  5
ED
330
2
100
AcDbEntity
  8
0
100
AcDbCircle
 10
-2.781250000000057
 20
5.999999999999936
 30
0.0
 40
0.1875
100
AcDbArc
 50
270.0
 51
90.0
  0
ARC
  5
EE
330
2
100
AcDbEntity
  8
0
100
AcDbCircle
 10
2.781250000000057
 20
5.999999999999936
 30
0.0
 40
0.1875
100
AcDbArc
 50
90.0
 51
270.0
  0
LINE
  5
EF
330
2
100
AcDbEntity
  8
0
100
AcDbLine
 10
-2.7812500000001
 20
0.8359914173788567
 30
0.0
 11
-1.427696609406794
 21
2.189544807972162
 31
0.0
  0
LINE
  5
F0
330
2
100
AcDbEntity
  8
0
100
AcDbLine
 10
2.781250000000085
 20
0.8359914173788141
 30
0.0
 11
1.427696609406752
 21
2.189544807972162
 31
0.0
  0
LINE
  5
F1
330
2
100
AcDbEntity
  8
0
100
AcDbLine
 10
-2.711250000000106
 20
-0.0000000000000213
 30
0.0
 11
2.711250000000106
 21
0.0000000000000213
 31
0.0
  0
LINE
  5
F2
330
2
100
AcDbEntity
  8
0
100
AcDbLine
 10
-2.711250000000106
 20
-0.0700000000000145
 30
0.0
 11
2.711250000000106
 21
-0.0700000000000003
 31
0.0
  0
LINE
  5
F3
330
2
100
AcDbEntity
  8
0
100
AcDbLine
 10
-2.7812500000001
 20
0.1931923180961164
 30
0.0
 11
-2.851250000000107
 21
0.1931923180961164
 31
0.0
  0
ARC
  5
F4
330
2
100
AcDbEntity
  8
0
100
AcDbCircle
 10
-2.711250000000106
 20
0.0699999999999719
 30
0.0
 40
0.07
100
AcDbArc
 50
179.9999999999992
 51
270.0
  0
ARC
  5
F5
330
2
100
AcDbEntity
  8
0
100
AcDbCircle
 10
-2.711250000000106
 20
0.0699999999999719
 30
0.0
 40
0.14
100
AcDbArc
 50
179.9999999999992
 51
270.0
  0
LINE
  5
F6
330
2
100
AcDbEntity
  8
0
100
AcDbLine
 10
2.851250000000089
 20
0.1931923180961164
 30
0.0
 11
2.7812500000001
 21
0.1931923180961164
 31
0.0
  0
ARC
  5
F7
330
2
100
AcDbEntity
  8
0
100
AcDbCircle
 10
2.711250000000106
 20
0.0700000000000145
 30
0.0
 40
0.07
100
AcDbArc
 50
270.0
 51
0.0000000000008142
  0
ARC
  5
F8
330
2
100
AcDbEntity
  8
0
100
AcDbCircle
 10
2.711250000000106
 20
0.0700000000000145
 30
0.0
 40
0.14
100
AcDbArc
 50
270.0
 51
0.0000000000008142
  0
ARC
  5
F9
330
2
100
AcDbEntity
  8
0
100
AcDbCircle
 10
-1.781250000000071
 20
2.543098198565438
 30
0.0
 40
0.5
100
AcDbArc
 50
315.0000000000005
 51
0.0
  0
CIRCLE
  5
FA
330
2
100
AcDbEntity
  8
0
100
AcDbCircle
 10
-1.687500000000071
 20
2.875000000000021
 30
0.0
 40
0.1325
  0
ARC
  5
FB
330
2
100
AcDbEntity
  8
0
100
AcDbCircle
 10
1.781250000000043
 20
2.543098198565438
 30
0.0
 40
0.5
100
AcDbArc
 50
180.0
 51
224.9999999999995
  0
CIRCLE
  5
FC
330
2
100
AcDbEntity
  8
0
100
AcDbCircle
 10
-1.687500000000071
 20
4.750000000000021
 30
0.0
 40
0.1325
  0
CIRCLE
  5
FD
330
2
100
AcDbEntity
  8
0
100
AcDbCircle
 10
-2.312500000000071
 20
3.812500000000021
 30
0.0
 40
0.1325
  0
CIRCLE
  5
FF
330
2
100
AcDbEntity
  8
0
100
AcDbCircle
 10
1.687500000000043
 20
2.499999999999993
 30
0.0
 40
0.1325
  0
CIRCLE
  5
100
330
2
100
AcDbEntity
  8
0
100
AcDbCircle
 10
2.312500000000043
 20
3.437499999999993
 30
0.0
 40
0.1325
  0
CIRCLE
  5
101
330
2
100
AcDbEntity
  8
0
100
AcDbCircle
 10
1.687500000000043
 20
4.374999999999993
 30
0.0
 40
0.1325
  0
LINE
  5
103
330
2
100
AcDbEntity
  8
0
100
AcDbLine
 10
1.281250000000028
 20
8.999999999999993
 30
0.0
 11
2.851249999999993
 21
8.999999999999993
 31
0.0
  0
CIRCLE
  5
104
330
2
100
AcDbEntity
  8
0
100
AcDbCircle
 10
-1.687500000000071
 20
8.500000000000021
 30
0.0
 40
0.1325
  0
CIRCLE
  5
105
330
2
100
AcDbEntity
  8
0
100
AcDbCircle
 10
-1.687500000000071
 20
6.625000000000021
 30
0.0
 40
0.1325
  0
CIRCLE
  5
106
330
2
100
AcDbEntity
  8
0
100
AcDbCircle
 10
-2.312500000000085
 20
7.562500000000021
 30
0.0
 40
0.1325
  0
LINE
  5
107
330
2
100
AcDbEntity
  8
0
100
AcDbLine
 10
-1.281250000000071
 20
8.999999999999993
 30
0.0
 11
-2.851250000000022
 21
9.000000000000007
 31
0.0
  0
CIRCLE
  5
108
330
2
100
AcDbEntity
  8
0
100
AcDbCircle
 10
1.687500000000043
 20
6.249999999999993
 30
0.0
 40
0.1325
  0
CIRCLE
  5
109
330
2
100
AcDbEntity
  8
0
100
AcDbCircle
 10
2.312500000000043
 20
7.187499999999993
 30
0.0
 40
0.1325
  0
CIRCLE
  5
10A
330
2
100
AcDbEntity
  8
0
100
AcDbCircle
 10
1.687500000000043
 20
8.124999999999993
 30
0.0
 40
0.1325
  0
LINE
  5
10B
330
2
100
AcDbEntity
  8
0
100
AcDbLine
 10
10.47632266736292
 20
6.187499999999993
 30
0.0
 11
10.47632266736292
 21
5.812499999999993
 31
0.0
  0
LINE
  5
10C
330
2
100
AcDbEntity
  8
0
100
AcDbLine
 10
10.54632266736294
 20
8.999999999999993
 30
0.0
 11
10.54632266736287
 21
0.9059914173787789
 31
0.0
  0
LINE
  5
10D
330
2
100
AcDbEntity
  8
0
100
AcDbLine
 10
8.97632266736295
 20
8.999999999999993
 30
0.0
 11
8.97632266736295
 21
2.543098198565424
 31
0.0
  0
LINE
  5
10E
330
2
100
AcDbEntity
  8
0
  6
HIDDEN
100
AcDbLine
 10
10.47632266736295
 20
8.999999999999993
 30
0.0
 11
10.47632266736288
 21
0.8359914173787857
 31
0.0
  0
ARC
  5
10F
330
2
100
AcDbEntity
  8
0
100
AcDbCircle
 10
10.47632266736292
 20
5.999999999999993
 30
0.0
 40
0.1875
100
AcDbArc
 50
68.07865993845664
 51
291.9213400615374
  0
LINE
  5
110
330
2
100
AcDbEntity
  8
0
100
AcDbLine
 10
7.247769276769603
 20
0.6074380267855091
 30
0.0
 11
8.829876057956213
 21
2.189544807972148
 31
0.0
  0
LINE
  5
111
330
2
100
AcDbEntity
  8
0
100
AcDbLine
 10
7.101322667362865
 20
-0.0700000000000145
 30
0.0
 11
10.10132266736288
 21
-0.0700000000000145
 31
0.0
  0
LINE
  5
112
330
2
100
AcDbEntity
  8
0
  6
HIDDEN
100
AcDbLine
 10
7.233822667362865
 20
0.0000000000000213
 30
0.0
 11
9.968822667362879
 21
-0.0000000000000213
 31
0.0
  0
ARC
  5
113
330
2
100
AcDbEntity
  8
0
100
AcDbCircle
 10
7.601322667362879
 20
0.2538846361922325
 30
0.0
 40
0.5
100
AcDbArc
 50
135.0000000000005
 51
180.0
  0
LINE
  5
114
330
2
100
AcDbEntity
  8
0
100
AcDbLine
 10
7.101322667362865
 20
-0.0000000000000213
 30
0.0
 11
7.233822667362865
 21
0.0000000000000213
 31
0.0
  0
ARC
  5
115
330
2
100
AcDbEntity
  8
0
100
AcDbCircle
 10
7.101322667362865
 20
0.0000000000000071
 30
0.0
 40
0.1325
100
AcDbArc
 50
0.0000000000065138
 51
90.0
  0
LINE
  5
116
330
2
100
AcDbEntity
  8
0
100
AcDbLine
 10
7.101322667362865
 20
-0.0000000000000213
 30
0.0
 11
7.101322667362865
 21
-0.0700000000000145
 31
0.0
  0
LINE
  5
117
330
2
100
AcDbEntity
  8
0
100
AcDbLine
 10
7.101322667362879
 20
0.2538846361922325
 30
0.0
 11
7.101322667362879
 21
0.1325000000000003
 31
0.0
  0
LINE
  5
118
330
2
100
AcDbEntity
  8
0
100
AcDbLine
 10
10.10132266736288
 20
-0.0000000000000213
 30
0.0
 11
9.968822667362879
 21
-0.0000000000000213
 31
0.0
  0
ARC
  5
119
330
2
100
AcDbEntity
  8
0
100
AcDbCircle
 10
10.10132266736288
 20
-0.0000000000000213
 30
0.0
 40
0.1325
100
AcDbArc
 50
90.0
 51
180.0
  0
ARC
  5
11A
330
2
100
AcDbEntity
  8
0
100
AcDbCircle
 10
10.60132266736288
 20
0.2538846361922325
 30
0.0
 40
0.5
100
AcDbArc
 50
135.0000000000005
 51
180.0
  0
LINE
  5
11B
330
2
100
AcDbEntity
  8
0
100
AcDbLine
 10
10.10132266736288
 20
-0.0000000000000213
 30
0.0
 11
10.10132266736288
 21
-0.0700000000000145
 31
0.0
  0
LINE
  5
11C
330
2
100
AcDbEntity
  8
0
100
AcDbLine
 10
10.10132266736288
 20
0.2538846361922325
 30
0.0
 11
10.10132266736288
 21
0.1324999999999719
 31
0.0
  0
LINE
  5
11D
330
2
100
AcDbEntity
  8
0
100
AcDbLine
 10
10.2477692767696
 20
0.6074380267855091
 30
0.0
 11
10.54632266736287
 21
0.9059914173787931
 31
0.0
  0
ARC
  5
120
330
2
100
AcDbEntity
  8
0
100
AcDbCircle
 10
8.476322667362936
 20
2.543098198565424
 30
0.0
 40
0.5
100
AcDbArc
 50
315.0000000000005
 51
0.0
  0
CIRCLE
  5
121
330
2
100
AcDbEntity
  8
0
100
AcDbCircle
 10
9.38257266736295
 20
2.062499999999993
 30
0.0
 40
0.1325
  0
CIRCLE
  5
128
330
2
100
AcDbEntity
  8
0
100
AcDbCircle
 10
9.382572667362965
 20
4.437499999999993
 30
0.0
 40
0.1325
  0
CIRCLE
  5
129
330
2
100
AcDbEntity
  8
0
100
AcDbCircle
 10
9.38257266736295
 20
7.937499996742865
 30
0.0
 40
0.1325
  0
LINE
  5
12A
330
2
100
AcDbEntity
  8
0
100
AcDbLine
 10
10.54632266736296
 20
8.999999999999979
 30
0.0
 11
8.97632266736295
 21
8.999999999999993
 31
0.0
  0
LINE
  5
12B
330
2
100
AcDbEntity
  8
0
100
AcDbLine
 10
-1.687500000000071
 20
5.808415259582908
 30
0.0
 11
-1.808415259582972
 21
5.687500000000021
 31
0.0
  0
LINE
  5
12C
330
2
100
AcDbEntity
  8
0
100
AcDbLine
 10
-1.808415259582972
 20
5.687500000000021
 30
0.0
 11
-1.687500000000071
 21
5.56658474041712
 31
0.0
  0
LINE
  5
12D
330
2
100
AcDbEntity
  8
0
100
AcDbLine
 10
-1.687500000000071
 20
5.56658474041712
 30
0.0
 11
-1.566584740417156
 21
5.687500000000007
 31
0.0
  0
LINE
  5
12E
330
2
100
AcDbEntity
  8
0
100
AcDbLine
 10
-1.566584740417156
 20
5.687500000000007
 30
0.0
 11
-1.687500000000071
 21
5.808415259582908
 31
0.0
  0
LINE
  5
12F
330
2
100
AcDbEntity
  8
0
100
AcDbLine
 10
1.687500000000043
 20
5.191584740417092
 30
0.0
 11
1.808415259582944
 21
5.312499999999965
 31
0.0
  0
LINE
  5
130
330
2
100
AcDbEntity
  8
0
100
AcDbLine
 10
1.808415259582944
 20
5.312499999999965
 30
0.0
 11
1.687500000000043
 21
5.43341525958288
 31
0.0
  0
LINE
  5
131
330
2
100
AcDbEntity
  8
0
100
AcDbLine
 10
1.687500000000043
 20
5.43341525958288
 30
0.0
 11
1.566584740417127
 21
5.312499999999993
 31
0.0
  0
LINE
  5
132
330
2
100
AcDbEntity
  8
0
100
AcDbLine
 10
1.566584740417127
 20
5.312499999999993
 30
0.0
 11
1.687500000000043
 21
5.191584740417092
 31
0.0
  0
LINE
  5
137
330
2
100
AcDbEntity
  8
0
100
AcDbLine
 10
-10.47632266736292
 20
6.187499999999993
 30
0.0
 11
-10.47632266736292
 21
5.812499999999993
 31
0.0
  0
LINE
  5
138
330
2
100
AcDbEntity
  8
0
100
AcDbLine
 10
-10.54632266736294
 20
8.999999999999993
 30
0.0
 11
-10.54632266736287
 21
0.9059914173787789
 31
0.0
  0
LINE
  5
139
330
2
100
AcDbEntity
  8
0
100
AcDbLine
 10
-8.97632266736295
 20
8.999999999999993
 30
0.0
 11
-8.97632266736295
 21
2.543098198565424
 31
0.0
  0
LINE
  5
13A
330
2
100
AcDbEntity
  8
0
  6
HIDDEN
100
AcDbLine
 10
-10.47632266736295
 20
8.999999999999993
 30
0.0
 11
-10.47632266736288
 21
0.8359914173787857
 31
0.0
  0
ARC
  5
13B
330
2
100
AcDbEntity
  8
0
100
AcDbCircle
 10
-10.47632266736292
 20
5.999999999999993
 30
0.0
 40
0.1875
100
AcDbArc
 50
248.0786599384626
 51
111.9213400615434
  0
LINE
  5
13C
330
2
100
AcDbEntity
  8
0
100
AcDbLine
 10
-10.2477692767696
 20
0.6074380267855091
 30
0.0
 11
-10.54632266736287
 21
0.9059914173787931
 31
0.0
  0
LINE
  5
13D
330
2
100
AcDbEntity
  8
0
100
AcDbLine
 10
-7.247769276769603
 20
0.6074380267855091
 30
0.0
 11
-8.829876057956213
 21
2.189544807972148
 31
0.0
  0
LINE
  5
13E
330
2
100
AcDbEntity
  8
0
100
AcDbLine
 10
-7.101322667362865
 20
-0.0700000000000145
 30
0.0
 11
-10.10132266736288
 21
-0.0700000000000145
 31
0.0
  0
LINE
  5
13F
330
2
100
AcDbEntity
  8
0
  6
HIDDEN
100
AcDbLine
 10
-7.233822667362865
 20
0.0000000000000213
 30
0.0
 11
-9.968822667362879
 21
-0.0000000000000213
 31
0.0
  0
ARC
  5
140
330
2
100
AcDbEntity
  8
0
100
AcDbCircle
 10
-7.601322667362879
 20
0.2538846361922325
 30
0.0
 40
0.5
100
AcDbArc
 50
0.000000000000007
 51
44.9999999999995
  0
LINE
  5
141
330
2
100
AcDbEntity
  8
0
100
AcDbLine
 10
-7.101322667362865
 20
-0.0000000000000213
 30
0.0
 11
-7.233822667362865
 21
0.0000000000000213
 31
0.0
  0
ARC
  5
142
330
2
100
AcDbEntity
  8
0
100
AcDbCircle
 10
-7.101322667362865
 20
0.0000000000000071
 30
0.0
 40
0.1325
100
AcDbArc
 50
90.0
 51
179.9999999999935
  0
LINE
  5
143
330
2
100
AcDbEntity
  8
0
100
AcDbLine
 10
-7.101322667362865
 20
-0.0000000000000213
 30
0.0
 11
-7.101322667362865
 21
-0.0700000000000145
 31
0.0
  0
LINE
  5
144
330
2
100
AcDbEntity
  8
0
100
AcDbLine
 10
-7.101322667362879
 20
0.2538846361922325
 30
0.0
 11
-7.101322667362879
 21
0.1325000000000003
 31
0.0
  0
ARC
  5
145
330
2
100
AcDbEntity
  8
0
100
AcDbCircle
 10
-10.60132266736288
 20
0.2538846361922325
 30
0.0
 40
0.5
100
AcDbArc
 50
0.000000000000007
 51
44.9999999999995
  0
LINE
  5
146
330
2
100
AcDbEntity
  8
0
100
AcDbLine
 10
-10.10132266736288
 20
-0.0000000000000213
 30
0.0
 11
-9.968822667362879
 21
-0.0000000000000213
 31
0.0
  0
ARC
  5
147
330
2
100
AcDbEntity
  8
0
100
AcDbCircle
 10
-10.10132266736288
 20
-0.0000000000000213
 30
0.0
 40
0.1325
100
AcDbArc
 50
0.000000000000007
 51
90.0
  0
LINE
  5
148
330
2
100
AcDbEntity
  8
0
100
AcDbLine
 10
-10.10132266736288
 20
-0.0000000000000213
 30
0.0
 11
-10.10132266736288
 21
-0.0700000000000145
 31
0.0
  0
LINE
  5
149
330
2
100
AcDbEntity
  8
0
100
AcDbLine
 10
-10.10132266736288
 20
0.2538846361922325
 30
0.0
 11
-10.10132266736288
 21
0.1324999999999719
 31
0.0
  0
ARC
  5
14A
330
2
100
AcDbEntity
  8
0
100
AcDbCircle
 10
-8.476322667362936
 20
2.543098198565424
 30
0.0
 40
0.5
100
AcDbArc
 50
180.0
 51
224.9999999999995
  0
CIRCLE
  5
14B
330
2
100
AcDbEntity
  8
0
100
AcDbCircle
 10
-9.38257266736295
 20
1.562499999999993
 30
0.0
 40
0.1325
  0
CIRCLE
  5
14C
330
2
100
AcDbEntity
  8
0
100
AcDbCircle
 10
-9.382572667362965
 20
3.937499999999993
 30
0.0
 40
0.1325
  0
LINE
  5
14D
330
2
100
AcDbEntity
  8
0
100
AcDbLine
 10
-10.54632266736296
 20
8.999999999999979
 30
0.0
 11
-8.97632266736295
 21
8.999999999999993
 31
0.0
  0
CIRCLE
  5
14E
330
2
100
AcDbEntity
  8
0
100
AcDbCircle
 10
-9.38257266736295
 20
7.437499996742865
 30
0.0
 40
0.1325
  0
ENDSEC
  0
SECTION
  2
OBJECTS
  0
DICTIONARY
  5
9
330
0
100
AcDbDictionary
281
     1
  3
ACAD_COLOR
350
152
  3
ACAD_GROUP
350
23
  3
ACAD_LAYOUT
350
D
  3
ACAD_MATERIAL
350
151
  3
ACAD_MLINESTYLE
350
24
  3
ACAD_PLOTSETTINGS
350
25
  3
ACAD_PLOTSTYLENAME
350
8
  3
ACAD_TABLESTYLE
350
153
  3
ACDBHEADERROUNDTRIPXREC
350
16B
  3
AcDbVariableDictionary
350
8E
  0
DICTIONARY
  5
152
102
{ACAD_REACTORS
330
9
102
}
330
9
100
AcDbDictionary
281
     1
  0
DICTIONARY
  5
23
102
{ACAD_REACTORS
330
9
102
}
330
9
100
AcDbDictionary
281
     1
  0
DICTIONARY
  5
D
102
{ACAD_REACTORS
330
9
102
}
330
9
100
AcDbDictionary
281
     1
  3
Layout1
350
13
  3
Model
350
C
  0
DICTIONARY
  5
151
102
{ACAD_REACTORS
330
9
102
}
330
9
100
AcDbDictionary
281
     1
  0
DICTIONARY
  5
24
102
{ACAD_REACTORS
330
9
102
}
330
9
100
AcDbDictionary
281
     1
  3
STANDARD
350
27
  0
DICTIONARY
  5
25
102
{ACAD_REACTORS
330
9
102
}
330
9
100
AcDbDictionary
281
     1
  0
ACDBDICTIONARYWDFLT
  5
8
102
{ACAD_REACTORS
330
9
102
}
330
9
100
AcDbDictionary
281
     1
  3
Normal
350
7
100
AcDbDictionaryWithDefault
340
7
  0
DICTIONARY
  5
153
102
{ACAD_REACTORS
330
9
102
}
330
9
100
AcDbDictionary
281
     1
  3
Standard
350
154
  0
DICTIONARY
  5
16B
102
{ACAD_REACTORS
330
9
102
}
330
9
100
AcDbDictionary
281
     1
  3
COLORDICT
350
16C
  3
MATERIALDICT
350
16D
  0
DICTIONARY
  5
8E
102
{ACAD_REACTORS
330
9
102
}
330
9
100
AcDbDictionary
281
     1
  3
CTABLESTYLE
350
168
  3
HIDETEXT
350
16A
  0
LAYOUT
  5
13
102
{ACAD_REACTORS
330
D
102
}
102
{ACAD_XDICTIONARY
360
16E
102
}
330
D
100
AcDbPlotSettings
  1

  2
HP LaserJet 2100 Series PS
  4

  6

 40
0.0
 41
0.0
 42
0.0
 43
0.0
 44
0.0
 45
0.0
 46
0.0
 47
0.0
 48
0.0
 49
0.0
140
0.0
141
0.0
142
1.0
143
1.0
 70
   688
 72
     0
 73
     0
 74
     5
  7

 75
    16
147
1.0
148
0.0
149
0.0
100
AcDbLayout
  1
Layout1
 70
     0
 71
     1
 10
0.0
 20
0.0
 11
12.0
 21
9.0
 12
0.0
 22
0.0
 32
0.0
 14
1.000000000000000E+20
 24
1.000000000000000E+20
 34
1.000000000000000E+20
 15
-1.000000000000000E+20
 25
-1.000000000000000E+20
 35
-1.000000000000000E+20
146
0.0
 13
0.0
 23
0.0
 33
0.0
 16
1.0
 26
0.0
 36
0.0
 17
0.0
 27
1.0
 37
0.0
 76
     0
330
E
  0
LAYOUT
  5
C
102
{ACAD_REACTORS
330
D
102
}
102
{ACAD_XDICTIONARY
360
170
102
}
330
D
100
AcDbPlotSettings
  1

  2
HP LaserJet 2100 Series PS
  4
Letter
  6

 40
5.365749835968018
 41
5.408084392547607
 42
5.4080810546875
 43
5.365753173828125
 44
215.8999938964844
 45
279.3999938964844
 46
0.0
 47
0.0
 48
0.0
 49
0.0
140
0.0
141
0.0
142
1.0
143
3.971318409846261
 70
 11952
 72
     0
 73
     1
 74
     2
  7

 75
     0
147
0.2518055458662435
148
0.0
149
0.0
100
AcDbLayout
  1
Model
 70
     1
 71
     0
 10
0.0
 20
0.0
 11
12.0
 21
9.0
 12
0.0
 22
0.0
 32
0.0
 14
0.0
 24
0.0
 34
0.0
 15
0.0
 25
0.0
 35
0.0
146
0.0
 13
0.0
 23
0.0
 33
0.0
 16
1.0
 26
0.0
 36
0.0
 17
0.0
 27
1.0
 37
0.0
 76
     0
330
2
  0
MLINESTYLE
  5
27
102
{ACAD_REACTORS
330
24
102
}
330
24
100
AcDbMlineStyle
  2
STANDARD
 70
     0
  3

 62
   256
 51
90.0
 52
90.0
 71
     2
 49
0.5
 62
   256
  6
BYLAYER
 49
-0.5
 62
   256
  6
BYLAYER
  0
ACDBPLACEHOLDER
  5
7
102
{ACAD_REACTORS
330
8
102
}
330
8
  0
ACAD_PROXY_OBJECT
  5
154
102
{ACAD_REACTORS
330
153
102
}
330
153
100
AcDbProxyObject
 90
      499
 91
      573
 95
   983063
 70
     0
 93
     1841
310
4214DD185B99185C9928B81E85EB51B8AE3F2E07A17AD46E2B8FC02B5E8DC0F42B1CFD028000000C1008070000C3001FDFF8000000C1003FBFF000000182007F7FE00000030400FEFFC00000060801FDFF8000000C1003FBFF00000018200000000000000681FA0B0000001820100E000186003FBFF000000182007F7FE000
310
00030400FEFFC00000060801FDFF8000000C1003FBFF000000182007F7FE000000304000AD7A3703D0AC73F4160000003040201C00030C007F7FE00000030400FEFFC00000060801FDFF8000000C1003FBFF000000182007F7FE00000030400FEFFC000000608000
340
16
340
16
340
16
 94
        0
  0
XRECORD
  5
16C
102
{ACAD_REACTORS
330
16B
102
}
330
16B
100
AcDbXrecord
340
152
  0
XRECORD
  5
16D
102
{ACAD_REACTORS
330
16B
102
}
330
16B
100
AcDbXrecord
340
151
  0
DICTIONARYVAR
  5
168
102
{ACAD_REACTORS
330
8E
102
}
330
8E
100
DictionaryVariables
280
     0
  1
STANDARD
  0
DICTIONARYVAR
  5
16A
102
{ACAD_REACTORS
330
8E
102
}
330
8E
100
DictionaryVariables
280
     0
  1
0
  0
DICTIONARY
  5
16E
330
13
100
AcDbDictionary
280
     1
281
     1
  3
ACAD_XREC_ROUNDTRIP
360
16F
  0
DICTIONARY
  5
170
330
C
100
AcDbDictionary
280
     1
281
     1
  3
ACAD_XREC_ROUNDTRIP
360
171
  0
XRECORD
  5
16F
102
{ACAD_REACTORS
330
16E
102
}
330
16E
100
AcDbXrecord
102
SHADEPLOT
 70
     0
102
SHADEPLOTRESLEVEL
 70
     2
102
SHADEPLOTCUSTOMDPI
 70
   300
  0
XRECORD
  5
171
102
{ACAD_REACTORS
330
170
102
}
330
170
100
AcDbXrecord
102
SHADEPLOT
 70
     0
102
SHADEPLOTRESLEVEL
 70
     2
102
SHADEPLOTCUSTOMDPI
 70
   300
  0
ENDSEC
  0
EOF
