  0
SECTION
  2
HEADER
  9
$ACADVER
  1
AC1015
  9
$ACADMAINTVER
 70
     6
  9
$DWGCODEPAGE
  3
ANSI_1252
  9
$INSBASE
 10
0.0
 20
0.0
 30
0.0
  9
$EXTMIN
 10
-14.37617641531681
 20
0.543410860253244
 30
0.0
  9
$EXTMAX
 10
11.18636869870155
 20
20.59056125754085
 30
0.0
  9
$LIMMIN
 10
0.0
 20
0.0
  9
$LIMMAX
 10
31.660835
 20
23.350013
  9
$ORTHOMODE
 70
     1
  9
$REGENMODE
 70
     1
  9
$FILLMODE
 70
     1
  9
$QTEXTMODE
 70
     0
  9
$MIRRTEXT
 70
     0
  9
$LTSCALE
 40
1.0
  9
$ATTMODE
 70
     1
  9
$TEXTSIZE
 40
0.27
  9
$TRACEWID
 40
0.05
  9
$TEXTSTYLE
  7
STANDARD
  9
$CLAYER
  8
0
  9
$CELTYPE
  6
BYLAYER
  9
$CECOLOR
 62
   256
  9
$CELTSCALE
 40
1.0
  9
$DISPSILH
 70
     0
  9
$DIMSCALE
 40
1.0
  9
$DIMASZ
 40
0.375
  9
$DIMEXO
 40
0.0625
  9
$DIMDLI
 40
0.75
  9
$DIMRND
 40
0.0
  9
$DIMDLE
 40
0.0
  9
$DIMEXE
 40
0.18
  9
$DIMTP
 40
0.0
  9
$DIMTM
 40
0.0
  9
$DIMTXT
 40
0.27
  9
$DIMCEN
 40
-0.06
  9
$DIMTSZ
 40
0.0
  9
$DIMTOL
 70
     0
  9
$DIMLIM
 70
     0
  9
$DIMTIH
 70
     1
  9
$DIMTOH
 70
     1
  9
$DIMSE1
 70
     0
  9
$DIMSE2
 70
     0
  9
$DIMTAD
 70
     0
  9
$DIMZIN
 70
     0
  9
$DIMBLK
  1

  9
$DIMASO
 70
     0
  9
$DIMSHO
 70
     0
  9
$DIMPOST
  1

  9
$DIMAPOST
  1

  9
$DIMALT
 70
     0
  9
$DIMALTD
 70
     2
  9
$DIMALTF
 40
25.4
  9
$DIMLFAC
 40
1.0
  9
$DIMTOFL
 70
     0
  9
$DIMTVP
 40
0.0
  9
$DIMTIX
 70
     0
  9
$DIMSOXD
 70
     0
  9
$DIMSAH
 70
     0
  9
$DIMBLK1
  1

  9
$DIMBLK2
  1

  9
$DIMSTYLE
  2
STANDARD
  9
$DIMCLRD
 70
     0
  9
$DIMCLRE
 70
     0
  9
$DIMCLRT
 70
     0
  9
$DIMTFAC
 40
1.0
  9
$DIMGAP
 40
0.09
  9
$DIMJUST
 70
     0
  9
$DIMSD1
 70
     0
  9
$DIMSD2
 70
     0
  9
$DIMTOLJ
 70
     1
  9
$DIMTZIN
 70
     0
  9
$DIMALTZ
 70
     0
  9
$DIMALTTZ
 70
     0
  9
$DIMUPT
 70
     0
  9
$DIMDEC
 70
     4
  9
$DIMTDEC
 70
     4
  9
$DIMALTU
 70
     2
  9
$DIMALTTD
 70
     2
  9
$DIMTXSTY
  7
STANDARD
  9
$DIMAUNIT
 70
     0
  9
$DIMADEC
 70
     0
  9
$DIMALTRND
 40
0.0
  9
$DIMAZIN
 70
     0
  9
$DIMDSEP
 70
    46
  9
$DIMATFIT
 70
     3
  9
$DIMFRAC
 70
     0
  9
$DIMLDRBLK
  1

  9
$DIMLUNIT
 70
     2
  9
$DIMLWD
 70
    -2
  9
$DIMLWE
 70
    -2
  9
$DIMTMOVE
 70
     2
  9
$LUNITS
 70
     2
  9
$LUPREC
 70
     4
  9
$SKETCHINC
 40
0.1
  9
$FILLETRAD
 40
0.03125
  9
$AUNITS
 70
     0
  9
$AUPREC
 70
     0
  9
$MENU
  1
ACAD
  9
$ELEVATION
 40
0.0
  9
$PELEVATION
 40
0.0
  9
$THICKNESS
 40
0.0
  9
$LIMCHECK
 70
     0
  9
$CHAMFERA
 40
0.0
  9
$CHAMFERB
 40
0.0
  9
$CHAMFERC
 40
0.0
  9
$CHAMFERD
 40
0.0
  9
$SKPOLY
 70
     0
  9
$TDCREATE
 40
2450646.944463889
  9
$TDUCREATE
 40
2450647.277797222
  9
$TDUPDATE
 40
2454160.711440046
  9
$TDUUPDATE
 40
2454161.04477338
  9
$TDINDWG
 40
0.0537218403
  9
$TDUSRTIMER
 40
0.0537218403
  9
$USRTIMER
 70
     1
  9
$ANGBASE
 50
0.0
  9
$ANGDIR
 70
     0
  9
$PDMODE
 70
     0
  9
$PDSIZE
 40
0.0
  9
$PLINEWID
 40
0.0
  9
$SPLFRAME
 70
     0
  9
$SPLINETYPE
 70
     6
  9
$SPLINESEGS
 70
     8
  9
$HANDSEED
  5
465
  9
$SURFTAB1
 70
     6
  9
$SURFTAB2
 70
     6
  9
$SURFTYPE
 70
     6
  9
$SURFU
 70
     6
  9
$SURFV
 70
     6
  9
$UCSBASE
  2

  9
$UCSNAME
  2

  9
$UCSORG
 10
0.0
 20
0.0
 30
0.0
  9
$UCSXDIR
 10
1.0
 20
0.0
 30
0.0
  9
$UCSYDIR
 10
0.0
 20
1.0
 30
0.0
  9
$UCSORTHOREF
  2

  9
$UCSORTHOVIEW
 70
     0
  9
$UCSORGTOP
 10
0.0
 20
0.0
 30
0.0
  9
$UCSORGBOTTOM
 10
0.0
 20
0.0
 30
0.0
  9
$UCSORGLEFT
 10
0.0
 20
0.0
 30
0.0
  9
$UCSORGRIGHT
 10
0.0
 20
0.0
 30
0.0
  9
$UCSORGFRONT
 10
0.0
 20
0.0
 30
0.0
  9
$UCSORGBACK
 10
0.0
 20
0.0
 30
0.0
  9
$PUCSBASE
  2

  9
$PUCSNAME
  2

  9
$PUCSORG
 10
0.0
 20
0.0
 30
0.0
  9
$PUCSXDIR
 10
1.0
 20
0.0
 30
0.0
  9
$PUCSYDIR
 10
0.0
 20
1.0
 30
0.0
  9
$PUCSORTHOREF
  2

  9
$PUCSORTHOVIEW
 70
     0
  9
$PUCSORGTOP
 10
0.0
 20
0.0
 30
0.0
  9
$PUCSORGBOTTOM
 10
0.0
 20
0.0
 30
0.0
  9
$PUCSORGLEFT
 10
0.0
 20
0.0
 30
0.0
  9
$PUCSORGRIGHT
 10
0.0
 20
0.0
 30
0.0
  9
$PUCSORGFRONT
 10
0.0
 20
0.0
 30
0.0
  9
$PUCSORGBACK
 10
0.0
 20
0.0
 30
0.0
  9
$USERI1
 70
     0
  9
$USERI2
 70
     0
  9
$USERI3
 70
     0
  9
$USERI4
 70
     0
  9
$USERI5
 70
     0
  9
$USERR1
 40
0.0
  9
$USERR2
 40
0.0
  9
$USERR3
 40
0.0
  9
$USERR4
 40
0.0
  9
$USERR5
 40
0.0
  9
$WORLDVIEW
 70
     1
  9
$SHADEDGE
 70
     3
  9
$SHADEDIF
 70
    70
  9
$TILEMODE
 70
     1
  9
$MAXACTVP
 70
    16
  9
$PINSBASE
 10
0.0
 20
0.0
 30
0.0
  9
$PLIMCHECK
 70
     0
  9
$PEXTMIN
 10
1.000000000000000E+20
 20
1.000000000000000E+20
 30
1.000000000000000E+20
  9
$PEXTMAX
 10
-1.000000000000000E+20
 20
-1.000000000000000E+20
 30
-1.000000000000000E+20
  9
$PLIMMIN
 10
0.0
 20
0.0
  9
$PLIMMAX
 10
12.0
 20
9.0
  9
$UNITMODE
 70
     0
  9
$VISRETAIN
 70
     0
  9
$PLINEGEN
 70
     0
  9
$PSLTSCALE
 70
     0
  9
$TREEDEPTH
 70
  3020
  9
$CMLSTYLE
  2
STANDARD
  9
$CMLJUST
 70
     0
  9
$CMLSCALE
 40
1.0
  9
$PROXYGRAPHICS
 70
     1
  9
$MEASUREMENT
 70
     0
  9
$CELWEIGHT
370
    -1
  9
$ENDCAPS
280
     0
  9
$JOINSTYLE
280
     0
  9
$LWDISPLAY
290
     0
  9
$INSUNITS
 70
     0
  9
$HYPERLINKBASE
  1

  9
$STYLESHEET
  1

  9
$XEDIT
290
     1
  9
$CEPSNTYPE
380
     0
  9
$PSTYLEMODE
290
     1
  9
$FINGERPRINTGUID
  2
{2AAC8CE3-C73E-4B97-A15C-ADD2038070F6}
  9
$VERSIONGUID
  2
{9A569F98-D42E-479F-B622-CDA98F80DA25}
  9
$EXTNAMES
290
     1
  9
$PSVPSCALE
 40
0.0
  9
$OLESTARTUP
290
     0
  0
ENDSEC
  0
SECTION
  2
CLASSES
  0
CLASS
  1
DICTIONARYVAR
  2
AcDbDictionaryVar
  3
AutoCAD 2000
 90
        0
280
     0
281
     0
  0
CLASS
  1
ACDBDICTIONARYWDFLT
  2
AcDbDictionaryWithDefault
  3
AutoCAD 2000
 90
        0
280
     0
281
     0
  0
CLASS
  1
ACDBPLACEHOLDER
  2
AcDbPlaceHolder
  3
ObjectDBX Classes
 90
        0
280
     0
281
     0
  0
CLASS
  1
LAYOUT
  2
AcDbLayout
  3
ObjectDBX Classes
 90
        0
280
     0
281
     0
  0
CLASS
  1
TABLESTYLE
  2
AcDbTableStyle
  3
ObjectDBX Classes
 90
     2047
280
     1
281
     0
  0
ENDSEC
  0
SECTION
  2
TABLES
  0
TABLE
  2
VPORT
  5
19
330
0
100
AcDbSymbolTable
 70
     2
  0
VPORT
  5
455
330
19
100
AcDbSymbolTableRecord
100
AcDbViewportTableRecord
  2
*Active
 70
     0
 10
0.0
 20
0.0
 11
1.0
 21
1.0
 12
8.642230697226317
 22
14.25011558016329
 13
0.0
 23
0.0
 14
0.0625
 24
0.0625
 15
0.5
 25
0.5
 16
0.0
 26
0.0
 36
1.0
 17
0.0
 27
0.0
 37
0.0
 40
29.96941497926107
 41
1.55012853470437
 42
50.0
 43
0.0
 44
0.0
 50
0.0
 51
0.0
 71
     0
 72
   100
 73
     1
 74
     0
 75
     0
 76
     0
 77
     0
 78
     0
281
     0
 65
     1
110
0.0
120
0.0
130
0.0
111
1.0
121
0.0
131
0.0
112
0.0
122
1.0
132
0.0
 79
     0
146
0.0
  0
ENDTAB
  0
TABLE
  2
LTYPE
  5
14
330
0
100
AcDbSymbolTable
 70
     3
  0
LTYPE
  5
15
330
14
100
AcDbSymbolTableRecord
100
AcDbLinetypeTableRecord
  2
BYBLOCK
 70
     0
  3

 72
    65
 73
     0
 40
0.0
  0
LTYPE
  5
16
330
14
100
AcDbSymbolTableRecord
100
AcDbLinetypeTableRecord
  2
BYLAYER
 70
     0
  3

 72
    65
 73
     0
 40
0.0
  0
LTYPE
  5
8
330
14
100
AcDbSymbolTableRecord
100
AcDbLinetypeTableRecord
  2
CONTINUOUS
 70
     0
  3
Solid line
 72
    65
 73
     0
 40
0.0
  0
LTYPE
  5
27C
330
14
100
AcDbSymbolTableRecord
100
AcDbLinetypeTableRecord
  2
DASHED
 70
     0
  3
__ __ __ __ __ __ __ __ __ __ __ __ __ __ __
 72
    65
 73
     2
 40
0.75
 49
0.5
 74
     0
 49
-0.25
 74
     0
  0
ENDTAB
  0
TABLE
  2
LAYER
  5
10
330
0
100
AcDbSymbolTable
 70
     2
  0
LAYER
  5
4
330
10
100
AcDbSymbolTableRecord
100
AcDbLayerTableRecord
  2
0
 70
     0
 62
     7
  6
CONTINUOUS
370
    -3
390
5
  0
ENDTAB
  0
TABLE
  2
STYLE
  5
11
330
0
100
AcDbSymbolTable
 70
     1
  0
STYLE
  5
12
330
11
100
AcDbSymbolTableRecord
100
AcDbTextStyleTableRecord
  2
STANDARD
 70
     0
 40
0.0
 41
1.0
 50
0.0
 71
     0
 42
0.27
  3
TXT
  4

  0
ENDTAB
  0
TABLE
  2
VIEW
  5
17
330
0
100
AcDbSymbolTable
 70
     0
  0
ENDTAB
  0
TABLE
  2
UCS
  5
18
330
0
100
AcDbSymbolTable
 70
     0
  0
ENDTAB
  0
TABLE
  2
APPID
  5
1B
330
0
100
AcDbSymbolTable
 70
     1
  0
APPID
  5
1C
330
1B
100
AcDbSymbolTableRecord
100
AcDbRegAppTableRecord
  2
ACAD
 70
     0
  0
ENDTAB
  0
TABLE
  2
DIMSTYLE
  5
1D
330
0
100
AcDbSymbolTable
 70
     1
100
AcDbDimStyleTable
  0
DIMSTYLE
105
24
330
1D
100
AcDbSymbolTableRecord
100
AcDbDimStyleTableRecord
  2
STANDARD
 70
     0
  3

  4

340
12
  0
ENDTAB
  0
TABLE
  2
BLOCK_RECORD
  5
1
330
0
100
AcDbSymbolTable
 70
     0
  0
BLOCK_RECORD
  5
2
330
1
100
AcDbSymbolTableRecord
100
AcDbBlockTableRecord
  2
*MODEL_SPACE
340
A
  0
BLOCK_RECORD
  5
C
330
1
100
AcDbSymbolTableRecord
100
AcDbBlockTableRecord
  2
*PAPER_SPACE
340
F
  0
ENDTAB
  0
ENDSEC
  0
SECTION
  2
BLOCKS
  0
BLOCK
  5
3
330
2
100
AcDbEntity
  8
0
100
AcDbBlockBegin
  2
*MODEL_SPACE
 70
     0
 10
0.0
 20
0.0
 30
0.0
  3
*MODEL_SPACE
  1

  4

  0
ENDBLK
  5
9
330
2
100
AcDbEntity
  8
0
100
AcDbBlockEnd
  0
BLOCK
  5
D
330
C
100
AcDbEntity
 67
     1
  8
0
100
AcDbBlockBegin
  2
*PAPER_SPACE
 70
     0
 10
0.0
 20
0.0
 30
0.0
  3
*PAPER_SPACE
  1

  4

  0
ENDBLK
  5
E
330
C
100
AcDbEntity
 67
     1
  8
0
100
AcDbBlockEnd
  0
ENDSEC
  0
SECTION
  2
ENTITIES
  0
LINE
  5
360
330
2
100
AcDbEntity
  8
0
100
AcDbLine
 10
-2.813653858307635
 20
13.84523755554988
 30
0.0
 11
-2.813653858307635
 21
2.782637555549881
 31
0.0
  0
LINE
  5
361
330
2
100
AcDbEntity
  8
0
100
AcDbLine
 10
-4.063653858307632
 20
12.97018755554988
 30
0.0
 11
-4.063653858307632
 21
0.8451875555498809
 31
0.0
  0
LINE
  5
362
330
2
100
AcDbEntity
  8
0
100
AcDbLine
 10
0.8738461416923684
 20
0.8451875555498809
 30
0.0
 11
0.8738461416923684
 21
12.97018755554988
 31
0.0
  0
LINE
  5
363
330
2
100
AcDbEntity
  8
0
100
AcDbLine
 10
0.7488461416923684
 20
1.845087555549881
 30
0.0
 11
0.7488461416923684
 21
13.84523755554988
 31
0.0
  0
LINE
  5
364
330
2
100
AcDbEntity
  8
0
100
AcDbLine
 10
-3.938653858307632
 20
13.84523755554988
 30
0.0
 11
-3.938653858307632
 21
0.8451875555498809
 31
0.0
  0
LINE
  5
365
330
2
100
AcDbEntity
  8
0
100
AcDbLine
 10
-0.3761538583076316
 20
13.84523755554988
 30
0.0
 11
-0.3761538583076316
 21
2.782637555549881
 31
0.0
  0
LINE
  5
366
330
2
100
AcDbEntity
  8
0
100
AcDbLine
 10
0.6238461416923684
 20
0.5951875555498809
 30
0.0
 11
-3.813653858307632
 21
0.5951875555498809
 31
0.0
  0
LINE
  5
367
330
2
100
AcDbEntity
  8
0
100
AcDbLine
 10
0.6238461416923684
 20
0.7201875555498809
 30
0.0
 11
-3.813653858307632
 21
0.7201875555498809
 31
0.0
  0
LINE
  5
368
330
2
100
AcDbEntity
  8
0
100
AcDbLine
 10
-2.813653858307635
 20
2.782637555549881
 30
0.0
 11
-3.813653858307635
 21
1.032637555549881
 31
0.0
  0
LINE
  5
369
330
2
100
AcDbEntity
  8
0
100
AcDbLine
 10
-4.063653858307632
 20
2.220087555549881
 30
0.0
 11
-4.063653858307632
 21
0.8451875555498809
 31
0.0
  0
ARC
  5
36A
330
2
100
AcDbEntity
  8
0
100
AcDbCircle
 10
-3.813653858307632
 20
0.8451875555498809
 30
0.0
 40
0.25
100
AcDbArc
 50
180.0
 51
270.0
  0
ARC
  5
36C
330
2
100
AcDbEntity
  8
0
100
AcDbCircle
 10
-3.813653858307632
 20
0.8451875555498809
 30
0.0
 40
0.125
100
AcDbArc
 50
180.0
 51
270.0
  0
LINE
  5
36D
330
2
100
AcDbEntity
  8
0
100
AcDbLine
 10
-3.813653858307635
 20
1.032637555549881
 30
0.0
 11
-3.938653858307635
 21
1.032637555549881
 31
0.0
  0
CIRCLE
  5
36E
330
2
100
AcDbEntity
  8
0
100
AcDbCircle
 10
-3.126153858307635
 20
3.720187555549881
 30
0.0
 40
0.109375
  0
CIRCLE
  5
36F
330
2
100
AcDbEntity
  8
0
100
AcDbCircle
 10
-3.126153858307635
 20
5.470187555549881
 30
0.0
 40
0.109375
  0
CIRCLE
  5
370
330
2
100
AcDbEntity
  8
0
100
AcDbCircle
 10
-3.126153858307635
 20
7.220187555549881
 30
0.0
 40
0.109375
  0
CIRCLE
  5
371
330
2
100
AcDbEntity
  8
0
100
AcDbCircle
 10
-3.126153858307635
 20
8.970187555549881
 30
0.0
 40
0.109375
  0
ARC
  5
374
330
2
100
AcDbEntity
  8
0
100
AcDbCircle
 10
0.6238461416923684
 20
0.8451875555498809
 30
0.0
 40
0.25
100
AcDbArc
 50
270.0
 51
0.0
  0
LINE
  5
375
330
2
100
AcDbEntity
  8
0
100
AcDbLine
 10
-0.3761538583076316
 20
2.782637555549881
 30
0.0
 11
0.6238461416923684
 21
1.032637555549881
 31
0.0
  0
ARC
  5
377
330
2
100
AcDbEntity
  8
0
100
AcDbCircle
 10
0.6238461416923684
 20
0.8451875555498809
 30
0.0
 40
0.125
100
AcDbArc
 50
270.0
 51
0.0
  0
LINE
  5
378
330
2
100
AcDbEntity
  8
0
100
AcDbLine
 10
0.7488461416923684
 20
1.845087555549881
 30
0.0
 11
0.7488461416923684
 21
0.8451875555498809
 31
0.0
  0
LINE
  5
379
330
2
100
AcDbEntity
  8
0
100
AcDbLine
 10
0.6238461416923684
 20
1.032637555549881
 30
0.0
 11
0.7488461416923684
 21
1.032637555549881
 31
0.0
  0
CIRCLE
  5
37A
330
2
100
AcDbEntity
  8
0
100
AcDbCircle
 10
-0.0636538583076316
 20
3.720187555549881
 30
0.0
 40
0.109375
  0
CIRCLE
  5
382
330
2
100
AcDbEntity
  8
0
100
AcDbCircle
 10
-0.0636538583076316
 20
5.470187555549881
 30
0.0
 40
0.109375
  0
CIRCLE
  5
384
330
2
100
AcDbEntity
  8
0
100
AcDbCircle
 10
-0.0636538583076316
 20
7.220187555549881
 30
0.0
 40
0.109375
  0
CIRCLE
  5
386
330
2
100
AcDbEntity
  8
0
100
AcDbCircle
 10
-0.0636538583076316
 20
8.970187555549881
 30
0.0
 40
0.109375
  0
LINE
  5
38A
330
2
100
AcDbEntity
  8
0
100
AcDbLine
 10
-2.810510200344863
 20
20.59056125754085
 30
0.0
 11
-2.810510200344863
 21
17.96556125754085
 31
0.0
  0
LINE
  5
38B
330
2
100
AcDbEntity
  8
0
100
AcDbLine
 10
-3.935510200344863
 20
20.59056125754085
 30
0.0
 11
-3.935510200344863
 21
17.96556125754085
 31
0.0
  0
LINE
  5
38C
330
2
100
AcDbEntity
  8
0
100
AcDbLine
 10
-0.3731643074257356
 20
20.59056125754085
 30
0.0
 11
-0.3731643074257356
 21
17.96556125754085
 31
0.0
  0
LINE
  5
38D
330
2
100
AcDbEntity
  8
0
100
AcDbLine
 10
0.7518356925742644
 20
20.59056125754085
 30
0.0
 11
0.7518356925742644
 21
17.96556125754085
 31
0.0
  0
LINE
  5
38E
330
2
100
AcDbEntity
  8
0
100
AcDbLine
 10
-4.063703858307633
 20
15.46556125754085
 30
0.0
 11
0.8738461416923684
 21
15.46556125754085
 31
0.0
  0
LINE
  5
38F
330
2
100
AcDbEntity
  8
0
100
AcDbLine
 10
-3.935460200344862
 20
17.96556125754085
 30
0.0
 11
0.7518356925742644
 21
17.96556125754085
 31
0.0
  0
CIRCLE
  5
391
330
2
100
AcDbEntity
  8
0
100
AcDbCircle
 10
-3.126153858307635
 20
10.72018755554988
 30
0.0
 40
0.109375
  0
CIRCLE
  5
392
330
2
100
AcDbEntity
  8
0
100
AcDbCircle
 10
-3.376153858307632
 20
11.59518755554988
 30
0.0
 40
0.109375
  0
CIRCLE
  5
393
330
2
100
AcDbEntity
  8
0
100
AcDbCircle
 10
-3.376153858307632
 20
11.59518755554988
 30
0.0
 40
0.109375
  0
LINE
  5
394
330
2
100
AcDbEntity
  8
0
100
AcDbLine
 10
-4.063653858307632
 20
12.97018755554988
 30
0.0
 11
-3.938653858307633
 21
12.97018755554988
 31
0.0
  0
CIRCLE
  5
395
330
2
100
AcDbEntity
  8
0
100
AcDbCircle
 10
-3.126153858307635
 20
12.47018755554988
 30
0.0
 40
0.109375
  0
CIRCLE
  5
396
330
2
100
AcDbEntity
  8
0
100
AcDbCircle
 10
-3.126153858307635
 20
12.47018755554988
 30
0.0
 40
0.109375
  0
LINE
  5
397
330
2
100
AcDbEntity
  8
0
  6
DASHED
100
AcDbLine
 10
-2.813653858307635
 20
13.72023755554988
 30
0.0
 11
-3.938653858307635
 21
13.72023755554988
 31
0.0
  0
LINE
  5
398
330
2
100
AcDbEntity
  8
0
100
AcDbLine
 10
-2.813653858307635
 20
13.84523755554988
 30
0.0
 11
-3.938653858307635
 21
13.84523755554988
 31
0.0
  0
LINE
  5
39B
330
2
100
AcDbEntity
  8
0
100
AcDbLine
 10
-4.063703858307633
 20
17.84056125754085
 30
0.0
 11
-4.063703858307633
 21
15.46556125754085
 31
0.0
  0
LINE
  5
39C
330
2
100
AcDbEntity
  8
0
100
AcDbLine
 10
-3.938703858307633
 20
17.84056125754085
 30
0.0
 11
-3.938703858307633
 21
15.46556125754085
 31
0.0
  0
ARC
  5
39D
330
2
100
AcDbEntity
  8
0
100
AcDbCircle
 10
-3.810460200344862
 20
17.84056125754085
 30
0.0
 40
0.25
100
AcDbArc
 50
90.0
 51
180.0
  0
LINE
  5
39E
330
2
100
AcDbEntity
  8
0
100
AcDbLine
 10
-2.810510200344863
 20
17.96556125754085
 30
0.0
 11
-3.935460200344862
 21
17.96556125754085
 31
0.0
  0
LINE
  5
39F
330
2
100
AcDbEntity
  8
0
  6
DASHED
100
AcDbLine
 10
-2.810510200344863
 20
18.09056125754085
 30
0.0
 11
-3.810460200344862
 21
18.09056125754085
 31
0.0
  0
ARC
  5
3A0
330
2
100
AcDbEntity
  8
0
100
AcDbCircle
 10
-3.810460200344862
 20
17.84056125754085
 30
0.0
 40
0.125
100
AcDbArc
 50
90.0
 51
180.0
  0
CIRCLE
  5
3A1
330
2
100
AcDbEntity
  8
0
100
AcDbCircle
 10
-3.560510200344863
 20
19.02806125754085
 30
0.0
 40
0.109375
  0
LINE
  5
3A4
330
2
100
AcDbEntity
  8
0
100
AcDbLine
 10
0.7488461416923684
 20
12.97018755554988
 30
0.0
 11
0.8738461416923684
 21
12.97018755554988
 31
0.0
  0
CIRCLE
  5
3A6
330
2
100
AcDbEntity
  8
0
100
AcDbCircle
 10
-0.0636538583076316
 20
10.72018755554988
 30
0.0
 40
0.109375
  0
CIRCLE
  5
3A7
330
2
100
AcDbEntity
  8
0
100
AcDbCircle
 10
0.1863461416923684
 20
11.59518755554988
 30
0.0
 40
0.109375
  0
CIRCLE
  5
3A8
330
2
100
AcDbEntity
  8
0
100
AcDbCircle
 10
0.1863461416923684
 20
11.59518755554988
 30
0.0
 40
0.109375
  0
CIRCLE
  5
3AA
330
2
100
AcDbEntity
  8
0
100
AcDbCircle
 10
-0.0636538583076316
 20
12.47018755554988
 30
0.0
 40
0.109375
  0
CIRCLE
  5
3AB
330
2
100
AcDbEntity
  8
0
100
AcDbCircle
 10
-0.0636538583076316
 20
12.47018755554988
 30
0.0
 40
0.109375
  0
LINE
  5
3AC
330
2
100
AcDbEntity
  8
0
100
AcDbLine
 10
-0.3761538583076316
 20
13.84523755554988
 30
0.0
 11
0.7488461416923684
 21
13.84523755554988
 31
0.0
  0
LINE
  5
3AD
330
2
100
AcDbEntity
  8
0
  6
DASHED
100
AcDbLine
 10
-0.3761538583076316
 20
13.72023755554988
 30
0.0
 11
0.7488461416923684
 21
13.72023755554988
 31
0.0
  0
LINE
  5
3B0
330
2
100
AcDbEntity
  8
0
100
AcDbLine
 10
0.8738461416923684
 20
12.97018755554988
 30
0.0
 11
0.8738461416923684
 21
12.90763755554988
 31
0.0
  0
ARC
  5
3B3
330
2
100
AcDbEntity
  8
0
100
AcDbCircle
 10
0.6268356925742644
 20
17.84056125754085
 30
0.0
 40
0.25
100
AcDbArc
 50
0.0
 51
90.0
  0
LINE
  5
3B4
330
2
100
AcDbEntity
  8
0
100
AcDbLine
 10
0.7488461416923684
 20
17.84056125754085
 30
0.0
 11
0.7488461416923684
 21
15.46556125754085
 31
0.0
  0
LINE
  5
3B5
330
2
100
AcDbEntity
  8
0
  6
DASHED
100
AcDbLine
 10
-0.3731643074257356
 20
18.09056125754085
 30
0.0
 11
0.6268356925742644
 21
18.09056125754085
 31
0.0
  0
LINE
  5
3B6
330
2
100
AcDbEntity
  8
0
100
AcDbLine
 10
-0.3731643074257356
 20
17.96556125754085
 30
0.0
 11
0.7518356925742644
 21
17.96556125754085
 31
0.0
  0
ARC
  5
3B7
330
2
100
AcDbEntity
  8
0
100
AcDbCircle
 10
0.6268356925742644
 20
17.84056125754085
 30
0.0
 40
0.125
100
AcDbArc
 50
0.0
 51
90.0
  0
CIRCLE
  5
3B8
330
2
100
AcDbEntity
  8
0
100
AcDbCircle
 10
0.3768356925742644
 20
19.02806125754085
 30
0.0
 40
0.109375
  0
LINE
  5
3BA
330
2
100
AcDbEntity
  8
0
100
AcDbLine
 10
0.8738461416923684
 20
17.84056125754085
 30
0.0
 11
0.8738461416923684
 21
15.46556125754085
 31
0.0
  0
LINE
  5
3C8
330
2
100
AcDbEntity
  8
0
100
AcDbLine
 10
-2.810510200344863
 20
20.59056125754085
 30
0.0
 11
-3.935510200344863
 21
20.59056125754085
 31
0.0
  0
CIRCLE
  5
3C9
330
2
100
AcDbEntity
  8
0
100
AcDbCircle
 10
-3.185510200344863
 20
20.15306125754085
 30
0.0
 40
0.109375
  0
LINE
  5
3D1
330
2
100
AcDbEntity
  8
0
100
AcDbLine
 10
-0.3731643074257356
 20
20.59056125754085
 30
0.0
 11
0.7518356925742644
 21
20.59056125754085
 31
0.0
  0
CIRCLE
  5
3D2
330
2
100
AcDbEntity
  8
0
100
AcDbCircle
 10
0.0018356925742644
 20
20.15306125754085
 30
0.0
 40
0.109375
  0
LINE
  5
3E0
330
2
100
AcDbEntity
  8
0
100
AcDbLine
 10
8.56136869870155
 20
13.03476858034839
 30
0.0
 11
8.56136869870155
 21
1.032687555549881
 31
0.0
  0
LINE
  5
3E1
330
2
100
AcDbEntity
  8
0
100
AcDbLine
 10
8.68636869870155
 20
13.47023755554988
 30
0.0
 11
8.68636869870155
 21
1.032687555549881
 31
0.0
  0
LINE
  5
3E2
330
2
100
AcDbEntity
  8
0
100
AcDbLine
 10
7.18636869870155
 20
12.97018755554988
 30
0.0
 11
7.186368698701546
 21
2.981244714064863
 31
0.0
  0
LINE
  5
3E4
330
2
100
AcDbEntity
  8
0
100
AcDbLine
 10
6.06136869870155
 20
1.032687555549881
 30
0.0
 11
7.186368698701546
 21
2.981244714064863
 31
0.0
  0
LINE
  5
3E5
330
2
100
AcDbEntity
  8
0
100
AcDbLine
 10
8.56136869870155
 20
0.5951875555498809
 30
0.0
 11
6.06136869870155
 21
0.5951875555498809
 31
0.0
  0
LINE
  5
3E6
330
2
100
AcDbEntity
  8
0
  6
DASHED
100
AcDbLine
 10
8.56136869870155
 20
0.7201875555498809
 30
0.0
 11
6.06136869870155
 21
0.7201875555498809
 31
0.0
  0
LINE
  5
3EC
330
2
100
AcDbEntity
  8
0
100
AcDbLine
 10
6.06136869870155
 20
0.5951875555498809
 30
0.0
 11
6.06136869870155
 21
1.032687555549881
 31
0.0
  0
LINE
  5
3F0
330
2
100
AcDbEntity
  8
0
100
AcDbLine
 10
8.56136869870155
 20
1.032687555549881
 30
0.0
 11
8.68636869870155
 21
1.032687555549881
 31
0.0
  0
LINE
  5
3F1
330
2
100
AcDbEntity
  8
0
100
AcDbLine
 10
8.56136869870155
 20
0.5951875555498809
 30
0.0
 11
8.56136869870155
 21
1.032687555549881
 31
0.0
  0
CIRCLE
  5
3F3
330
2
100
AcDbEntity
  8
0
100
AcDbCircle
 10
7.53011869870155
 20
3.220187555549883
 30
0.0
 40
0.078
  0
CIRCLE
  5
3FB
330
2
100
AcDbEntity
  8
0
100
AcDbCircle
 10
7.53011869870155
 20
6.698026017347676
 30
0.0
 40
0.078
  0
LINE
  5
414
330
2
100
AcDbEntity
  8
0
100
AcDbLine
 10
8.81136869870155
 20
13.72023755554988
 30
0.0
 11
11.18636869870155
 21
13.72023755554988
 31
0.0
  0
LINE
  5
415
330
2
100
AcDbEntity
  8
0
100
AcDbLine
 10
8.81136869870155
 20
13.84523755554988
 30
0.0
 11
11.18636869870155
 21
13.84523755554988
 31
0.0
  0
CIRCLE
  5
417
330
2
100
AcDbEntity
  8
0
100
AcDbCircle
 10
7.53011869870155
 20
9.595148191624993
 30
0.0
 40
0.078
  0
ARC
  5
419
330
2
100
AcDbEntity
  8
0
100
AcDbCircle
 10
8.971070895701551
 20
13.48413645754988
 30
0.0
 40
0.285041261
100
AcDbArc
 50
124.074988905
 51
182.794908741
  0
ARC
  5
41A
330
2
100
AcDbEntity
  8
0
100
AcDbCircle
 10
8.944424448701547
 20
13.48570038854988
 30
0.0
 40
0.3833677170000001
100
AcDbArc
 50
110.3082579629999
 51
182.311606985
  0
LINE
  5
41B
330
2
100
AcDbEntity
  8
0
100
AcDbLine
 10
8.56136869870155
 20
13.47023755554988
 30
0.0
 11
8.56136869870155
 21
13.03476858034839
 31
0.0
  0
LINE
  5
41C
330
2
100
AcDbEntity
  8
0
100
AcDbLine
 10
8.56136869870155
 20
12.97018755554988
 30
0.0
 11
7.18636869870155
 21
12.97018755554988
 31
0.0
  0
CIRCLE
  5
41D
330
2
100
AcDbEntity
  8
0
100
AcDbCircle
 10
7.53011869870155
 20
12.47023755554988
 30
0.0
 40
0.078
  0
LINE
  5
420
330
2
100
AcDbEntity
  8
0
100
AcDbLine
 10
11.18636869870155
 20
13.84523755554988
 30
0.0
 11
11.18636869870155
 21
13.72023755554988
 31
0.0
  0
LINE
  5
430
330
2
100
AcDbEntity
  8
0
100
AcDbLine
 10
-11.75117641531681
 20
13.03476858034839
 30
0.0
 11
-11.75117641531681
 21
1.032687555549881
 31
0.0
  0
LINE
  5
431
330
2
100
AcDbEntity
  8
0
100
AcDbLine
 10
-11.87617641531681
 20
13.47023755554988
 30
0.0
 11
-11.87617641531681
 21
1.032687555549881
 31
0.0
  0
LINE
  5
432
330
2
100
AcDbEntity
  8
0
100
AcDbLine
 10
-10.37617641531681
 20
12.97018755554988
 30
0.0
 11
-10.37617641531681
 21
2.981244714064863
 31
0.0
  0
LINE
  5
433
330
2
100
AcDbEntity
  8
0
  6
DASHED
100
AcDbLine
 10
-11.75117641531681
 20
0.7201875555498809
 30
0.0
 11
-9.251176415316813
 21
0.7201875555498809
 31
0.0
  0
LINE
  5
434
330
2
100
AcDbEntity
  8
0
100
AcDbLine
 10
-9.251176415316813
 20
1.032687555549881
 30
0.0
 11
-10.37617641531681
 21
2.981244714064863
 31
0.0
  0
LINE
  5
435
330
2
100
AcDbEntity
  8
0
100
AcDbLine
 10
-11.75117641531681
 20
0.5951875555498809
 30
0.0
 11
-9.251176415316813
 21
0.5951875555498809
 31
0.0
  0
LINE
  5
436
330
2
100
AcDbEntity
  8
0
100
AcDbLine
 10
-9.251176415316813
 20
0.5951875555498809
 30
0.0
 11
-9.251176415316813
 21
1.032687555549881
 31
0.0
  0
LINE
  5
437
330
2
100
AcDbEntity
  8
0
100
AcDbLine
 10
-11.75117641531681
 20
0.5951875555498809
 30
0.0
 11
-11.75117641531681
 21
1.032687555549881
 31
0.0
  0
LINE
  5
438
330
2
100
AcDbEntity
  8
0
100
AcDbLine
 10
-11.75117641531681
 20
1.032687555549881
 30
0.0
 11
-11.87617641531681
 21
1.032687555549881
 31
0.0
  0
CIRCLE
  5
439
330
2
100
AcDbEntity
  8
0
100
AcDbCircle
 10
-10.71992641531681
 20
3.720187555549883
 30
0.0
 40
0.078
  0
CIRCLE
  5
43E
330
2
100
AcDbEntity
  8
0
100
AcDbCircle
 10
-10.71992641531681
 20
6.198101017347668
 30
0.0
 40
0.078
  0
CIRCLE
  5
441
330
2
100
AcDbEntity
  8
0
100
AcDbCircle
 10
-10.71992641531681
 20
9.095223191624983
 30
0.0
 40
0.078
  0
LINE
  5
442
330
2
100
AcDbEntity
  8
0
100
AcDbLine
 10
-12.00117641531681
 20
13.72023755554988
 30
0.0
 11
-14.37617641531681
 21
13.72023755554988
 31
0.0
  0
LINE
  5
443
330
2
100
AcDbEntity
  8
0
100
AcDbLine
 10
-12.00117641531681
 20
13.84523755554988
 30
0.0
 11
-14.37617641531681
 21
13.84523755554988
 31
0.0
  0
LINE
  5
444
330
2
100
AcDbEntity
  8
0
100
AcDbLine
 10
-11.75117641531681
 20
13.47023755554988
 30
0.0
 11
-11.75117641531681
 21
13.03476858034839
 31
0.0
  0
LINE
  5
445
330
2
100
AcDbEntity
  8
0
100
AcDbLine
 10
-11.75117641531681
 20
12.97018755554988
 30
0.0
 11
-10.37617641531681
 21
12.97018755554988
 31
0.0
  0
CIRCLE
  5
446
330
2
100
AcDbEntity
  8
0
100
AcDbCircle
 10
-10.71992641531681
 20
11.97031255554987
 30
0.0
 40
0.078
  0
ARC
  5
449
330
2
100
AcDbEntity
  8
0
100
AcDbCircle
 10
-12.16087861231681
 20
13.48413645754988
 30
0.0
 40
0.285041261
100
AcDbArc
 50
357.205091259
 51
55.92501109500002
  0
ARC
  5
44A
330
2
100
AcDbEntity
  8
0
100
AcDbCircle
 10
-12.13423216531681
 20
13.48570038854988
 30
0.0
 40
0.3833677170000001
100
AcDbArc
 50
357.688393015
 51
69.69174203700007
  0
LINE
  5
44B
330
2
100
AcDbEntity
  8
0
100
AcDbLine
 10
-14.37617641531681
 20
13.84523755554988
 30
0.0
 11
-14.37617641531681
 21
13.72023755554988
 31
0.0
  0
ENDSEC
  0
SECTION
  2
OBJECTS
  0
DICTIONARY
  5
7
330
0
100
AcDbDictionary
281
     1
  3
ACAD_COLOR
350
450
  3
ACAD_GROUP
350
1F
  3
ACAD_LAYOUT
350
B
  3
ACAD_MATERIAL
350
44F
  3
ACAD_MLINESTYLE
350
20
  3
ACAD_PLOTSETTINGS
350
21
  3
ACAD_PLOTSTYLENAME
350
6
  3
ACAD_TABLESTYLE
350
451
  3
ACDBHEADERROUNDTRIPXREC
350
45E
  3
AcDbVariableDictionary
350
96
  0
DICTIONARY
  5
450
102
{ACAD_REACTORS
330
7
102
}
330
7
100
AcDbDictionary
281
     1
  0
DICTIONARY
  5
1F
102
{ACAD_REACTORS
330
7
102
}
330
7
100
AcDbDictionary
281
     1
  0
DICTIONARY
  5
B
102
{ACAD_REACTORS
330
7
102
}
330
7
100
AcDbDictionary
281
     1
  3
Layout1
350
F
  3
Model
350
A
  0
DICTIONARY
  5
44F
102
{ACAD_REACTORS
330
7
102
}
330
7
100
AcDbDictionary
281
     1
  0
DICTIONARY
  5
20
102
{ACAD_REACTORS
330
7
102
}
330
7
100
AcDbDictionary
281
     1
  3
STANDARD
350
23
  0
DICTIONARY
  5
21
102
{ACAD_REACTORS
330
7
102
}
330
7
100
AcDbDictionary
281
     1
  0
ACDBDICTIONARYWDFLT
  5
6
102
{ACAD_REACTORS
330
7
102
}
330
7
100
AcDbDictionary
281
     1
  3
Normal
350
5
100
AcDbDictionaryWithDefault
340
5
  0
DICTIONARY
  5
451
102
{ACAD_REACTORS
330
7
102
}
330
7
100
AcDbDictionary
281
     1
  3
Standard
350
452
  0
DICTIONARY
  5
45E
102
{ACAD_REACTORS
330
7
102
}
330
7
100
AcDbDictionary
281
     1
  3
COLORDICT
350
45F
  3
MATERIALDICT
350
460
  0
DICTIONARY
  5
96
102
{ACAD_REACTORS
330
7
102
}
330
7
100
AcDbDictionary
281
     1
  3
CTABLESTYLE
350
45B
  3
HIDETEXT
350
45D
  0
LAYOUT
  5
F
102
{ACAD_REACTORS
330
B
102
}
102
{ACAD_XDICTIONARY
360
461
102
}
330
B
100
AcDbPlotSettings
  1

  2
Client\ssd-helder#\hp psc 2100 series [UPD:PCL4]
  4

  6

 40
0.0
 41
0.0
 42
0.0
 43
0.0
 44
0.0
 45
0.0
 46
0.0
 47
0.0
 48
0.0
 49
0.0
140
0.0
141
0.0
142
1.0
143
1.0
 70
   688
 72
     0
 73
     0
 74
     5
  7

 75
    16
147
1.0
148
0.0
149
0.0
100
AcDbLayout
  1
Layout1
 70
     0
 71
     1
 10
0.0
 20
0.0
 11
12.0
 21
9.0
 12
0.0
 22
0.0
 32
0.0
 14
1.000000000000000E+20
 24
1.000000000000000E+20
 34
1.000000000000000E+20
 15
-1.000000000000000E+20
 25
-1.000000000000000E+20
 35
-1.000000000000000E+20
146
0.0
 13
0.0
 23
0.0
 33
0.0
 16
1.0
 26
0.0
 36
0.0
 17
0.0
 27
1.0
 37
0.0
 76
     0
330
C
  0
LAYOUT
  5
A
102
{ACAD_REACTORS
330
B
102
}
102
{ACAD_XDICTIONARY
360
463
102
}
330
B
100
AcDbPlotSettings
  1

  2
Client\ssd-helder#\hp psc 2100 series [UPD:PCL4]
  4

  6

 40
0.0
 41
0.0
 42
0.0
 43
0.0
 44
0.0
 45
0.0
 46
0.0
 47
0.0
 48
0.0
 49
0.0
140
0.0
141
0.0
142
1.0
143
1.0
 70
  1712
 72
     0
 73
     0
 74
     0
  7

 75
     0
147
1.0
148
0.0
149
0.0
100
AcDbLayout
  1
Model
 70
     1
 71
     0
 10
0.0
 20
0.0
 11
12.0
 21
9.0
 12
0.0
 22
0.0
 32
0.0
 14
0.0
 24
0.0
 34
0.0
 15
0.0
 25
0.0
 35
0.0
146
0.0
 13
0.0
 23
0.0
 33
0.0
 16
1.0
 26
0.0
 36
0.0
 17
0.0
 27
1.0
 37
0.0
 76
     0
330
2
  0
MLINESTYLE
  5
23
102
{ACAD_REACTORS
330
20
102
}
330
20
100
AcDbMlineStyle
  2
STANDARD
 70
     0
  3

 62
   256
 51
90.0
 52
90.0
 71
     2
 49
0.5
 62
   256
  6
BYLAYER
 49
-0.5
 62
   256
  6
BYLAYER
  0
ACDBPLACEHOLDER
  5
5
102
{ACAD_REACTORS
330
6
102
}
330
6
  0
ACAD_PROXY_OBJECT
  5
452
102
{ACAD_REACTORS
330
451
102
}
330
451
100
AcDbProxyObject
 90
      499
 91
      504
 95
   983063
 70
     0
 93
     1841
310
4214DD185B99185C9928B81E85EB51B8AE3F2E07A17AD46E2B8FC02B5E8DC0F42B1CFD028000000C1008070000C3001FDFF8000000C1003FBFF000000182007F7FE00000030400FEFFC00000060801FDFF8000000C1003FBFF00000018200000000000000681FA0B0000001820100E000186003FBFF000000182007F7FE000
310
00030400FEFFC00000060801FDFF8000000C1003FBFF000000182007F7FE000000304000AD7A3703D0AC73F4160000003040201C00030C007F7FE00000030400FEFFC00000060801FDFF8000000C1003FBFF000000182007F7FE00000030400FEFFC000000608000
340
12
340
12
340
12
 94
        0
  0
XRECORD
  5
45F
102
{ACAD_REACTORS
330
45E
102
}
330
45E
100
AcDbXrecord
340
450
  0
XRECORD
  5
460
102
{ACAD_REACTORS
330
45E
102
}
330
45E
100
AcDbXrecord
340
44F
  0
DICTIONARYVAR
  5
45B
102
{ACAD_REACTORS
330
96
102
}
330
96
100
DictionaryVariables
280
     0
  1
STANDARD
  0
DICTIONARYVAR
  5
45D
102
{ACAD_REACTORS
330
96
102
}
330
96
100
DictionaryVariables
280
     0
  1
0
  0
DICTIONARY
  5
461
330
F
100
AcDbDictionary
280
     1
281
     1
  3
ACAD_XREC_ROUNDTRIP
360
462
  0
DICTIONARY
  5
463
330
A
100
AcDbDictionary
280
     1
281
     1
  3
ACAD_XREC_ROUNDTRIP
360
464
  0
XRECORD
  5
462
102
{ACAD_REACTORS
330
461
102
}
330
461
100
AcDbXrecord
102
SHADEPLOT
 70
     0
102
SHADEPLOTRESLEVEL
 70
     2
102
SHADEPLOTCUSTOMDPI
 70
   300
  0
XRECORD
  5
464
102
{ACAD_REACTORS
330
463
102
}
330
463
100
AcDbXrecord
102
SHADEPLOT
 70
     0
102
SHADEPLOTRESLEVEL
 70
     2
102
SHADEPLOTCUSTOMDPI
 70
   300
  0
ENDSEC
  0
EOF
