  0
SECTION
  2
HEADER
  9
$ACADVER
  1
AC1015
  9
$ACADMAINTVER
 70
     6
  9
$DWGCODEPAGE
  3
ANSI_1252
  9
$INSBASE
 10
0.0
 20
0.0
 30
0.0
  9
$EXTMIN
 10
-9.48102489125715
 20
-0.0268541646096452
 30
-0.000000000000013
  9
$EXTMAX
 10
9.482732929805778
 20
18.39519685560885
 30
0.0000000000000023
  9
$LIMMIN
 10
0.0
 20
0.0
  9
$LIMMAX
 10
42.0
 20
32.0
  9
$ORTHOMODE
 70
     1
  9
$REGENMODE
 70
     1
  9
$FILLMODE
 70
     1
  9
$QTEXTMODE
 70
     0
  9
$MIRRTEXT
 70
     1
  9
$LTSCALE
 40
0.5
  9
$ATTMODE
 70
     1
  9
$TEXTSIZE
 40
0.36
  9
$TRACEWID
 40
0.05
  9
$TEXTSTYLE
  7
STANDARD
  9
$CLAYER
  8
0
  9
$CELTYPE
  6
BYLAYER
  9
$CECOLOR
 62
   256
  9
$CELTSCALE
 40
1.0
  9
$DISPSILH
 70
     0
  9
$DIMSCALE
 40
4.0
  9
$DIMASZ
 40
0.125
  9
$DIMEXO
 40
0.062
  9
$DIMDLI
 40
0.375
  9
$DIMRND
 40
0.0
  9
$DIMDLE
 40
0.0
  9
$DIMEXE
 40
0.08
  9
$DIMTP
 40
0.0
  9
$DIMTM
 40
0.0
  9
$DIMTXT
 40
0.09
  9
$DIMCEN
 40
-0.06
  9
$DIMTSZ
 40
0.0
  9
$DIMTOL
 70
     0
  9
$DIMLIM
 70
     0
  9
$DIMTIH
 70
     1
  9
$DIMTOH
 70
     1
  9
$DIMSE1
 70
     0
  9
$DIMSE2
 70
     0
  9
$DIMTAD
 70
     0
  9
$DIMZIN
 70
     0
  9
$DIMBLK
  1

  9
$DIMASO
 70
     0
  9
$DIMSHO
 70
     0
  9
$DIMPOST
  1

  9
$DIMAPOST
  1

  9
$DIMALT
 70
     0
  9
$DIMALTD
 70
     2
  9
$DIMALTF
 40
25.4
  9
$DIMLFAC
 40
1.0
  9
$DIMTOFL
 70
     0
  9
$DIMTVP
 40
0.0
  9
$DIMTIX
 70
     0
  9
$DIMSOXD
 70
     0
  9
$DIMSAH
 70
     0
  9
$DIMBLK1
  1

  9
$DIMBLK2
  1

  9
$DIMSTYLE
  2
STANDARD
  9
$DIMCLRD
 70
     0
  9
$DIMCLRE
 70
     0
  9
$DIMCLRT
 70
     0
  9
$DIMTFAC
 40
1.0
  9
$DIMGAP
 40
0.09
  9
$DIMJUST
 70
     0
  9
$DIMSD1
 70
     0
  9
$DIMSD2
 70
     0
  9
$DIMTOLJ
 70
     1
  9
$DIMTZIN
 70
     0
  9
$DIMALTZ
 70
     0
  9
$DIMALTTZ
 70
     0
  9
$DIMUPT
 70
     0
  9
$DIMDEC
 70
     5
  9
$DIMTDEC
 70
     4
  9
$DIMALTU
 70
     2
  9
$DIMALTTD
 70
     2
  9
$DIMTXSTY
  7
STANDARD
  9
$DIMAUNIT
 70
     0
  9
$DIMADEC
 70
     0
  9
$DIMALTRND
 40
0.0
  9
$DIMAZIN
 70
     0
  9
$DIMDSEP
 70
    46
  9
$DIMATFIT
 70
     3
  9
$DIMFRAC
 70
     2
  9
$DIMLDRBLK
  1

  9
$DIMLUNIT
 70
     5
  9
$DIMLWD
 70
    -2
  9
$DIMLWE
 70
    -2
  9
$DIMTMOVE
 70
     2
  9
$LUNITS
 70
     2
  9
$LUPREC
 70
     4
  9
$SKETCHINC
 40
0.1
  9
$FILLETRAD
 40
0.0625
  9
$AUNITS
 70
     0
  9
$AUPREC
 70
     0
  9
$MENU
  1
acad
  9
$ELEVATION
 40
0.0
  9
$PELEVATION
 40
0.0
  9
$THICKNESS
 40
0.0
  9
$LIMCHECK
 70
     0
  9
$CHAMFERA
 40
0.0
  9
$CHAMFERB
 40
0.0
  9
$CHAMFERC
 40
0.0
  9
$CHAMFERD
 40
0.0
  9
$SKPOLY
 70
     0
  9
$TDCREATE
 40
2450826.849677431
  9
$TDUCREATE
 40
2450827.183010764
  9
$TDUPDATE
 40
2454166.015715382
  9
$TDUUPDATE
 40
2454166.349048715
  9
$TDINDWG
 40
0.3239752199
  9
$TDUSRTIMER
 40
0.3239752199
  9
$USRTIMER
 70
     1
  9
$ANGBASE
 50
0.0
  9
$ANGDIR
 70
     0
  9
$PDMODE
 70
     0
  9
$PDSIZE
 40
0.0
  9
$PLINEWID
 40
0.0
  9
$SPLFRAME
 70
     0
  9
$SPLINETYPE
 70
     6
  9
$SPLINESEGS
 70
     8
  9
$HANDSEED
  5
28C
  9
$SURFTAB1
 70
     6
  9
$SURFTAB2
 70
     6
  9
$SURFTYPE
 70
     6
  9
$SURFU
 70
     6
  9
$SURFV
 70
     6
  9
$UCSBASE
  2

  9
$UCSNAME
  2

  9
$UCSORG
 10
0.0
 20
0.0
 30
0.0
  9
$UCSXDIR
 10
1.0
 20
0.0
 30
0.0
  9
$UCSYDIR
 10
0.0
 20
1.0
 30
0.0
  9
$UCSORTHOREF
  2

  9
$UCSORTHOVIEW
 70
     0
  9
$UCSORGTOP
 10
0.0
 20
0.0
 30
0.0
  9
$UCSORGBOTTOM
 10
0.0
 20
0.0
 30
0.0
  9
$UCSORGLEFT
 10
0.0
 20
0.0
 30
0.0
  9
$UCSORGRIGHT
 10
0.0
 20
0.0
 30
0.0
  9
$UCSORGFRONT
 10
0.0
 20
0.0
 30
0.0
  9
$UCSORGBACK
 10
0.0
 20
0.0
 30
0.0
  9
$PUCSBASE
  2

  9
$PUCSNAME
  2

  9
$PUCSORG
 10
0.0
 20
0.0
 30
0.0
  9
$PUCSXDIR
 10
1.0
 20
0.0
 30
0.0
  9
$PUCSYDIR
 10
0.0
 20
1.0
 30
0.0
  9
$PUCSORTHOREF
  2

  9
$PUCSORTHOVIEW
 70
     0
  9
$PUCSORGTOP
 10
0.0
 20
0.0
 30
0.0
  9
$PUCSORGBOTTOM
 10
0.0
 20
0.0
 30
0.0
  9
$PUCSORGLEFT
 10
0.0
 20
0.0
 30
0.0
  9
$PUCSORGRIGHT
 10
0.0
 20
0.0
 30
0.0
  9
$PUCSORGFRONT
 10
0.0
 20
0.0
 30
0.0
  9
$PUCSORGBACK
 10
0.0
 20
0.0
 30
0.0
  9
$USERI1
 70
     0
  9
$USERI2
 70
     0
  9
$USERI3
 70
     0
  9
$USERI4
 70
     0
  9
$USERI5
 70
     0
  9
$USERR1
 40
0.0
  9
$USERR2
 40
0.0
  9
$USERR3
 40
0.0
  9
$USERR4
 40
0.0
  9
$USERR5
 40
0.0
  9
$WORLDVIEW
 70
     1
  9
$SHADEDGE
 70
     3
  9
$SHADEDIF
 70
    70
  9
$TILEMODE
 70
     1
  9
$MAXACTVP
 70
    16
  9
$PINSBASE
 10
0.0
 20
0.0
 30
0.0
  9
$PLIMCHECK
 70
     0
  9
$PEXTMIN
 10
1.000000000000000E+20
 20
1.000000000000000E+20
 30
1.000000000000000E+20
  9
$PEXTMAX
 10
-1.000000000000000E+20
 20
-1.000000000000000E+20
 30
-1.000000000000000E+20
  9
$PLIMMIN
 10
0.0
 20
0.0
  9
$PLIMMAX
 10
12.0
 20
9.0
  9
$UNITMODE
 70
     0
  9
$VISRETAIN
 70
     0
  9
$PLINEGEN
 70
     0
  9
$PSLTSCALE
 70
     0
  9
$TREEDEPTH
 70
  3020
  9
$CMLSTYLE
  2
STANDARD
  9
$CMLJUST
 70
     0
  9
$CMLSCALE
 40
1.0
  9
$PROXYGRAPHICS
 70
     1
  9
$MEASUREMENT
 70
     0
  9
$CELWEIGHT
370
    -1
  9
$ENDCAPS
280
     0
  9
$JOINSTYLE
280
     0
  9
$LWDISPLAY
290
     0
  9
$INSUNITS
 70
     0
  9
$HYPERLINKBASE
  1

  9
$STYLESHEET
  1

  9
$XEDIT
290
     1
  9
$CEPSNTYPE
380
     0
  9
$PSTYLEMODE
290
     1
  9
$FINGERPRINTGUID
  2
{A6D7AC00-6477-44DB-BDBC-8C0D7B1E4412}
  9
$VERSIONGUID
  2
{DF12D256-69A2-4DCB-8670-C6E288CA33D2}
  9
$EXTNAMES
290
     1
  9
$PSVPSCALE
 40
0.0
  9
$OLESTARTUP
290
     0
  0
ENDSEC
  0
SECTION
  2
CLASSES
  0
CLASS
  1
DICTIONARYVAR
  2
AcDbDictionaryVar
  3
AutoCAD 2000
 90
        0
280
     0
281
     0
  0
CLASS
  1
LWPOLYLINE
  2
AcDbPolyline
  3
AutoCAD 2000
 90
        0
280
     0
281
     1
  0
CLASS
  1
ACDBDICTIONARYWDFLT
  2
AcDbDictionaryWithDefault
  3
AutoCAD 2000
 90
        0
280
     0
281
     0
  0
CLASS
  1
ACDBPLACEHOLDER
  2
AcDbPlaceHolder
  3
ObjectDBX Classes
 90
        0
280
     0
281
     0
  0
CLASS
  1
LAYOUT
  2
AcDbLayout
  3
ObjectDBX Classes
 90
        0
280
     0
281
     0
  0
CLASS
  1
LONG_TRANSACTION
  2
AcDbLongTransaction
  3
ObjectDBX Classes
 90
   -65536
280
     1
281
     0
  0
CLASS
  1
LWPOLYLINE
  2
AcDbPolyline
  3
AutoCAD 2000
 90
        0
280
     0
281
     1
  0
CLASS
  1
HATCH
  2
AcDbHatch
  3
AutoCAD 2000
 90
        0
280
     0
281
     1
  0
CLASS
  1
XRECORD
  2
AcDbXrecord
  3
AutoCAD 2000
 90
        0
280
     0
281
     0
  0
CLASS
  1
LONG_TRANSACTION
  2
AcDbLongTransaction
  3
ObjectDBX Classes
 90
   -65536
280
     1
281
     0
  0
CLASS
  1
LWPOLYLINE
  2
AcDbPolyline
  3
AutoCAD 2000
 90
        0
280
     0
281
     1
  0
CLASS
  1
HATCH
  2
AcDbHatch
  3
AutoCAD 2000
 90
        0
280
     0
281
     1
  0
CLASS
  1
XRECORD
  2
AcDbXrecord
  3
AutoCAD 2000
 90
        0
280
     0
281
     0
  0
CLASS
  1
TABLESTYLE
  2
AcDbTableStyle
  3
ObjectDBX Classes
 90
     2047
280
     1
281
     0
  0
ENDSEC
  0
SECTION
  2
TABLES
  0
TABLE
  2
VPORT
  5
1D
330
0
100
AcDbSymbolTable
 70
     5
  0
VPORT
  5
27E
330
1D
100
AcDbSymbolTableRecord
100
AcDbViewportTableRecord
  2
*Active
 70
     0
 10
0.0
 20
0.0
 11
1.0
 21
1.0
 12
12.54396744945237
 22
10.37951530637542
 13
0.0
 23
0.0
 14
0.063
 24
0.063
 15
0.25
 25
0.25
 16
0.0
 26
0.0
 36
1.0
 17
0.0
 27
0.0
 37
0.0
 40
32.42635758826398
 41
1.814583333333333
 42
50.0
 43
0.0
 44
0.0
 50
0.0
 51
0.0
 71
     0
 72
   100
 73
     1
 74
     0
 75
     0
 76
     0
 77
     0
 78
     0
281
     0
 65
     1
110
0.0
120
0.0
130
0.0
111
1.0
121
0.0
131
0.0
112
0.0
122
1.0
132
0.0
 79
     0
146
0.0
  0
ENDTAB
  0
TABLE
  2
LTYPE
  5
18
330
0
100
AcDbSymbolTable
 70
     2
  0
LTYPE
  5
19
330
18
100
AcDbSymbolTableRecord
100
AcDbLinetypeTableRecord
  2
BYBLOCK
 70
     0
  3

 72
    65
 73
     0
 40
0.0
  0
LTYPE
  5
1A
330
18
100
AcDbSymbolTableRecord
100
AcDbLinetypeTableRecord
  2
BYLAYER
 70
     0
  3

 72
    65
 73
     0
 40
0.0
  0
LTYPE
  5
A
330
18
100
AcDbSymbolTableRecord
100
AcDbLinetypeTableRecord
  2
CONTINUOUS
 70
     0
  3
Solid line
 72
    65
 73
     0
 40
0.0
  0
LTYPE
  5
F0
330
18
100
AcDbSymbolTableRecord
100
AcDbLinetypeTableRecord
  2
HIDDEN
 70
     0
  3
_ _ _ _ _ _ _ _ _ _ _ _ _ _ _ _ _ _ _ _ _ _ _
 72
    65
 73
     2
 40
0.375
 49
0.25
 74
     0
 49
-0.125
 74
     0
  0
ENDTAB
  0
TABLE
  2
LAYER
  5
14
330
0
100
AcDbSymbolTable
 70
     1
  0
LAYER
  5
6
330
14
100
AcDbSymbolTableRecord
100
AcDbLayerTableRecord
  2
0
 70
     0
 62
     7
  6
CONTINUOUS
370
    -3
390
7
  0
ENDTAB
  0
TABLE
  2
STYLE
  5
15
330
0
100
AcDbSymbolTable
 70
     1
  0
STYLE
  5
16
330
15
100
AcDbSymbolTableRecord
100
AcDbTextStyleTableRecord
  2
STANDARD
 70
     0
 40
0.0
 41
1.0
 50
0.0
 71
     0
 42
0.36
  3
TXT
  4

  0
ENDTAB
  0
TABLE
  2
VIEW
  5
1B
330
0
100
AcDbSymbolTable
 70
     0
  0
ENDTAB
  0
TABLE
  2
UCS
  5
1C
330
0
100
AcDbSymbolTable
 70
     0
  0
ENDTAB
  0
TABLE
  2
APPID
  5
1F
330
0
100
AcDbSymbolTable
 70
     1
  0
APPID
  5
20
330
1F
100
AcDbSymbolTableRecord
100
AcDbRegAppTableRecord
  2
ACAD
 70
     0
  0
ENDTAB
  0
TABLE
  2
DIMSTYLE
  5
21
330
0
100
AcDbSymbolTable
 70
     1
100
AcDbDimStyleTable
  0
DIMSTYLE
105
28
330
21
100
AcDbSymbolTableRecord
100
AcDbDimStyleTableRecord
  2
STANDARD
 70
     0
  3

  4

340
16
  0
ENDTAB
  0
TABLE
  2
BLOCK_RECORD
  5
1
330
0
100
AcDbSymbolTable
 70
     0
  0
BLOCK_RECORD
  5
2
330
1
100
AcDbSymbolTableRecord
100
AcDbBlockTableRecord
  2
*MODEL_SPACE
340
C
  0
BLOCK_RECORD
  5
E
330
1
100
AcDbSymbolTableRecord
100
AcDbBlockTableRecord
  2
*PAPER_SPACE
340
13
  0
ENDTAB
  0
ENDSEC
  0
SECTION
  2
BLOCKS
  0
BLOCK
  5
5
330
2
100
AcDbEntity
  8
0
100
AcDbBlockBegin
  2
*MODEL_SPACE
 70
     0
 10
0.0
 20
0.0
 30
0.0
  3
*MODEL_SPACE
  1

  4

  0
ENDBLK
  5
B
330
2
100
AcDbEntity
  8
0
100
AcDbBlockEnd
  0
BLOCK
  5
11
330
E
100
AcDbEntity
 67
     1
  8
0
100
AcDbBlockBegin
  2
*PAPER_SPACE
 70
     0
 10
0.0
 20
0.0
 30
0.0
  3
*PAPER_SPACE
  1

  4

  0
ENDBLK
  5
12
330
E
100
AcDbEntity
 67
     1
  8
0
100
AcDbBlockEnd
  0
ENDSEC
  0
SECTION
  2
ENTITIES
  0
LINE
  5
209
330
2
100
AcDbEntity
  8
0
100
AcDbLine
 10
0.1008651499816295
 20
8.984714316435049
 30
0.0
 11
0.1008651499816224
 21
0.1809803148918583
 31
0.0
  0
LINE
  5
20A
330
2
100
AcDbEntity
  8
0
100
AcDbLine
 10
0.1633651499816224
 20
8.984714316435049
 30
0.0
 11
0.1633651499815798
 21
0.1809803148918583
 31
0.0
  0
LINE
  5
20B
330
2
100
AcDbEntity
  8
0
100
AcDbLine
 10
1.475865149981621
 20
5.484714316435049
 30
0.0
 11
1.475865149981621
 21
5.984714316435049
 31
0.0
  0
LINE
  5
20C
330
2
100
AcDbEntity
  8
0
100
AcDbLine
 10
1.781270636282057
 20
1.517650737365091
 30
0.0
 11
3.135662406831406
 21
0.2099621313174431
 31
0.0
  0
LINE
  5
20D
330
2
100
AcDbEntity
  8
0
100
AcDbLine
 10
3.241084463793404
 20
-0.0000000000000036
 30
0.0
 11
0.2410844637934346
 21
-0.0000000000000036
 31
0.0
  0
ARC
  5
20E
330
2
100
AcDbEntity
  8
0
100
AcDbCircle
 10
2.788365149981628
 20
-0.1497385989912594
 30
0.0
 40
0.5
100
AcDbArc
 50
25.11757623782306
 51
46.00508600525413
  0
LINE
  5
20F
330
2
100
AcDbEntity
  8
0
100
AcDbLine
 10
3.241084463793404
 20
0.0624999999999964
 30
0.0
 11
3.241084463793404
 21
-0.0000000000000036
 31
0.0
  0
LWPOLYLINE
  5
210
330
2
100
AcDbEntity
  8
0
100
AcDbPolyline
 90
        9
 70
     0
 43
0.0
 10
1.213637837478492
 20
0.3958597019845191
 42
-0.147269582437036
 10
1.195941414315952
 20
0.4011875436723136
 42
-0.1071386913803464
 10
1.17838952065245
 20
0.419199630358718
 42
-0.0765137470862007
 10
1.167847606605681
 20
0.4437043683928783
 42
-0.063469041210727
 10
1.163789189772279
 20
0.4755472019845248
 42
-0.0634690412107267
 10
1.167847606605681
 20
0.5073900355761642
 42
-0.0765137470862059
 10
1.17838952065245
 20
0.5318947736103246
 42
-0.1071386913803463
 10
1.195941414315952
 20
0.549906860296729
 42
-0.1472695824370325
 10
1.213637837478492
 20
0.5552347019845234
 42
-0.1472695824370333
  0
LWPOLYLINE
  5
211
330
2
100
AcDbEntity
  8
0
100
AcDbPolyline
 90
        9
 70
     0
 43
0.0
 10
1.213637837478492
 20
0.3665347019845191
 42
-0.1432467981947568
 10
1.188413186623036
 20
0.3739127988557689
 42
-0.1071754848060475
 10
1.16372702065245
 20
0.398463724000421
 42
-0.0783035184710328
 10
1.148780353030089
 20
0.4320849783512193
 42
-0.0656020556757086
 10
1.143053283413982
 20
0.4755472019845248
 42
-0.0656020556757101
 10
1.148780353030089
 20
0.5190094256178233
 42
-0.0783035184710357
 10
1.16372702065245
 20
0.5526306799686216
 42
-0.1071754848060445
 10
1.188413186623036
 20
0.5771816051132737
 42
-0.1432467981947535
 10
1.213637837478492
 20
0.5845597019845235
 42
-0.1432467981947515
  0
LINE
  5
212
330
2
100
AcDbEntity
  8
0
100
AcDbLine
 10
1.213637837478492
 20
0.3372097019845191
 30
0.0
 11
1.213637837478492
 21
0.6138847019845235
 31
0.0
  0
ARC
  5
213
330
2
100
AcDbEntity
  8
0
100
AcDbCircle
 10
-0.2116348500183705
 20
-0.1497385989912594
 30
0.0
 40
0.5
100
AcDbArc
 50
25.11757623782321
 51
41.40962210927817
  0
LINE
  5
214
330
2
100
AcDbEntity
  8
0
100
AcDbLine
 10
0.2410844637934346
 20
0.0624999999999964
 30
0.0
 11
0.2410844637934346
 21
-0.0000000000000036
 31
0.0
  0
LINE
  5
215
330
2
100
AcDbEntity
  8
0
100
AcDbLine
 10
0.1008651499816224
 20
0.1809803148918583
 30
0.0
 11
0.1633651499816224
 21
0.1809803148918583
 31
0.0
  0
LWPOLYLINE
  5
216
330
2
100
AcDbEntity
  8
0
100
AcDbPolyline
 90
        9
 70
     0
 43
0.0
 10
1.213637837478492
 20
3.339812090234218
 42
-0.147269582437036
 10
1.195941414315952
 20
3.345139931922012
 42
-0.1071386913803464
 10
1.17838952065245
 20
3.363152018608417
 42
-0.0765137470862007
 10
1.167847606605681
 20
3.387656756642577
 42
-0.063469041210727
 10
1.163789189772279
 20
3.419499590234223
 42
-0.0634690412107267
 10
1.167847606605681
 20
3.451342423825863
 42
-0.0765137470862059
 10
1.17838952065245
 20
3.475847161860023
 42
-0.1071386913803463
 10
1.195941414315952
 20
3.493859248546428
 42
-0.1472695824370325
 10
1.213637837478492
 20
3.499187090234222
 42
-0.1472695824370333
  0
LWPOLYLINE
  5
217
330
2
100
AcDbEntity
  8
0
100
AcDbPolyline
 90
        9
 70
     0
 43
0.0
 10
1.213637837478492
 20
3.310487090234218
 42
-0.1432467981947568
 10
1.188413186623036
 20
3.317865187105467
 42
-0.1071754848060475
 10
1.16372702065245
 20
3.34241611225012
 42
-0.0783035184710328
 10
1.148780353030089
 20
3.376037366600918
 42
-0.0656020556757086
 10
1.143053283413982
 20
3.419499590234223
 42
-0.0656020556757101
 10
1.148780353030089
 20
3.462961813867522
 42
-0.0783035184710357
 10
1.16372702065245
 20
3.49658306821832
 42
-0.1071754848060445
 10
1.188413186623036
 20
3.521133993362972
 42
-0.1432467981947535
 10
1.213637837478492
 20
3.528512090234222
 42
-0.1432467981947515
  0
LINE
  5
218
330
2
100
AcDbEntity
  8
0
100
AcDbLine
 10
1.213637837478492
 20
3.281162090234218
 30
0.0
 11
1.213637837478492
 21
3.557837090234222
 31
0.0
  0
LINE
  5
219
330
2
100
AcDbEntity
  8
0
100
AcDbLine
 10
1.475865149981628
 20
2.237052197982504
 30
0.0
 11
1.475865149981621
 21
4.109714316435049
 31
0.0
  0
ARC
  5
21A
330
2
100
AcDbEntity
  8
0
100
AcDbCircle
 10
2.475865149981628
 20
2.237052197982504
 30
0.0
 40
1.0
100
AcDbArc
 50
180.0
 51
226.0050860052541
  0
LWPOLYLINE
  5
21B
330
2
100
AcDbEntity
  8
0
100
AcDbPolyline
 90
        9
 70
     0
 43
0.0
 10
1.213637837478492
 20
2.201965504176669
 42
-0.147269582437036
 10
1.195941414315952
 20
2.207293345864463
 42
-0.1071386913803464
 10
1.17838952065245
 20
2.225305432550868
 42
-0.0765137470862007
 10
1.167847606605681
 20
2.249810170585028
 42
-0.063469041210727
 10
1.163789189772279
 20
2.281653004176675
 42
-0.0634690412107267
 10
1.167847606605681
 20
2.313495837768314
 42
-0.0765137470862059
 10
1.17838952065245
 20
2.338000575802474
 42
-0.1071386913803463
 10
1.195941414315952
 20
2.356012662488879
 42
-0.1472695824370325
 10
1.213637837478492
 20
2.361340504176673
 42
-0.1472695824370333
  0
LWPOLYLINE
  5
21C
330
2
100
AcDbEntity
  8
0
100
AcDbPolyline
 90
        9
 70
     0
 43
0.0
 10
1.213637837478492
 20
2.172640504176669
 42
-0.1432467981947568
 10
1.188413186623036
 20
2.180018601047919
 42
-0.1071754848060475
 10
1.16372702065245
 20
2.204569526192571
 42
-0.0783035184710328
 10
1.148780353030089
 20
2.238190780543369
 42
-0.0656020556757086
 10
1.143053283413982
 20
2.281653004176675
 42
-0.0656020556757101
 10
1.148780353030089
 20
2.325115227809973
 42
-0.0783035184710357
 10
1.16372702065245
 20
2.358736482160771
 42
-0.1071754848060445
 10
1.188413186623036
 20
2.383287407305423
 42
-0.1432467981947535
 10
1.213637837478492
 20
2.390665504176673
 42
-0.1432467981947515
  0
LINE
  5
21D
330
2
100
AcDbEntity
  8
0
100
AcDbLine
 10
1.213637837478492
 20
2.143315504176669
 30
0.0
 11
1.213637837478492
 21
2.419990504176673
 31
0.0
  0
LINE
  5
21E
330
2
100
AcDbEntity
  8
0
100
AcDbLine
 10
1.163365149981621
 20
4.422214316435049
 30
0.0
 11
1.163365149981621
 21
5.172214316435049
 31
0.0
  0
ARC
  5
21F
330
2
100
AcDbEntity
  8
0
100
AcDbCircle
 10
1.319615149981628
 20
4.109714316435049
 30
0.0
 40
0.15625
100
AcDbArc
 50
0.000000000000007
 51
90.0
  0
LINE
  5
220
330
2
100
AcDbEntity
  8
0
100
AcDbLine
 10
1.319615149981621
 20
4.265964316435049
 30
0.0
 11
1.319615149981621
 21
4.265964316435049
 31
0.0
  0
ARC
  5
221
330
2
100
AcDbEntity
  8
0
100
AcDbCircle
 10
1.319615149981628
 20
4.422214316435049
 30
0.0
 40
0.15625
100
AcDbArc
 50
180.0
 51
269.9999999999999
  0
LWPOLYLINE
  5
222
330
2
100
AcDbEntity
  8
0
100
AcDbPolyline
 90
        9
 70
     0
 43
0.0
 10
1.213637837478492
 20
5.651325951546752
 42
-0.147269582437036
 10
1.195941414315952
 20
5.656653793234546
 42
-0.1071386913803464
 10
1.17838952065245
 20
5.67466587992095
 42
-0.0765137470862007
 10
1.167847606605681
 20
5.699170617955111
 42
-0.063469041210727
 10
1.163789189772279
 20
5.731013451546757
 42
-0.0634690412107267
 10
1.167847606605681
 20
5.762856285138397
 42
-0.0765137470862059
 10
1.17838952065245
 20
5.787361023172557
 42
-0.1071386913803463
 10
1.195941414315952
 20
5.805373109858961
 42
-0.1472695824370325
 10
1.213637837478492
 20
5.810700951546756
 42
-0.1472695824370333
  0
LWPOLYLINE
  5
223
330
2
100
AcDbEntity
  8
0
100
AcDbPolyline
 90
        9
 70
     0
 43
0.0
 10
1.213637837478492
 20
5.622000951546752
 42
-0.1432467981947568
 10
1.188413186623036
 20
5.629379048418001
 42
-0.1071754848060475
 10
1.16372702065245
 20
5.653929973562653
 42
-0.0783035184710328
 10
1.148780353030089
 20
5.687551227913452
 42
-0.0656020556757086
 10
1.143053283413982
 20
5.731013451546757
 42
-0.0656020556757101
 10
1.148780353030089
 20
5.774475675180056
 42
-0.0783035184710357
 10
1.16372702065245
 20
5.808096929530854
 42
-0.1071754848060445
 10
1.188413186623036
 20
5.832647854675506
 42
-0.1432467981947535
 10
1.213637837478492
 20
5.840025951546756
 42
-0.1432467981947515
  0
LINE
  5
224
330
2
100
AcDbEntity
  8
0
100
AcDbLine
 10
1.213637837478492
 20
5.592675951546752
 30
0.0
 11
1.213637837478492
 21
5.869350951546757
 31
0.0
  0
ARC
  5
225
330
2
100
AcDbEntity
  8
0
100
AcDbCircle
 10
1.319615149981628
 20
5.484714316435049
 30
0.0
 40
0.15625
100
AcDbArc
 50
270.0
 51
359.9999999999999
  0
LINE
  5
226
330
2
100
AcDbEntity
  8
0
100
AcDbLine
 10
1.319615149981621
 20
5.328464316435049
 30
0.0
 11
1.319615149981621
 21
5.328464316435049
 31
0.0
  0
ARC
  5
227
330
2
100
AcDbEntity
  8
0
100
AcDbCircle
 10
1.319615149981628
 20
5.172214316435049
 30
0.0
 40
0.15625
100
AcDbArc
 50
90.0
 51
180.0
  0
ARC
  5
228
330
2
100
AcDbEntity
  8
0
100
AcDbCircle
 10
0.1633651499816295
 20
1.812499999999996
 30
0.0
 40
0.1875000000000025
100
AcDbArc
 50
270.0
 51
90.0
  0
LINE
  5
229
330
2
100
AcDbEntity
  8
0
100
AcDbLine
 10
0.1008651499816224
 20
8.984714316435049
 30
0.0
 11
1.163365149981621
 21
8.984714316435049
 31
0.0
  0
ARC
  5
22A
330
2
100
AcDbEntity
  8
0
100
AcDbCircle
 10
1.319615149981628
 20
8.297214316435049
 30
0.0
 40
0.15625
100
AcDbArc
 50
180.0
 51
269.9999999999999
  0
LINE
  5
22B
330
2
100
AcDbEntity
  8
0
100
AcDbLine
 10
1.163365149981621
 20
6.297214316435049
 30
0.0
 11
1.163365149981621
 21
7.047214316435049
 31
0.0
  0
ARC
  5
22C
330
2
100
AcDbEntity
  8
0
100
AcDbCircle
 10
1.319615149981628
 20
5.984714316435049
 30
0.0
 40
0.15625
100
AcDbArc
 50
0.000000000000007
 51
90.0
  0
LINE
  5
22D
330
2
100
AcDbEntity
  8
0
100
AcDbLine
 10
1.319615149981621
 20
6.140964316435049
 30
0.0
 11
1.319615149981621
 21
6.140964316435049
 31
0.0
  0
ARC
  5
22E
330
2
100
AcDbEntity
  8
0
100
AcDbCircle
 10
1.319615149981628
 20
6.297214316435049
 30
0.0
 40
0.15625
100
AcDbArc
 50
180.0
 51
269.9999999999999
  0
LWPOLYLINE
  5
22F
330
2
100
AcDbEntity
  8
0
100
AcDbPolyline
 90
        9
 70
     0
 43
0.0
 10
1.213637837478492
 20
7.646266625978128
 42
-0.147269582437036
 10
1.195941414315952
 20
7.651594467665922
 42
-0.1071386913803464
 10
1.17838952065245
 20
7.669606554352327
 42
-0.0765137470862007
 10
1.167847606605681
 20
7.694111292386487
 42
-0.063469041210727
 10
1.163789189772279
 20
7.725954125978134
 42
-0.0634690412107267
 10
1.167847606605681
 20
7.757796959569773
 42
-0.0765137470862059
 10
1.17838952065245
 20
7.782301697603933
 42
-0.1071386913803463
 10
1.195941414315952
 20
7.800313784290339
 42
-0.1472695824370325
 10
1.213637837478492
 20
7.805641625978133
 42
-0.1472695824370333
  0
LWPOLYLINE
  5
230
330
2
100
AcDbEntity
  8
0
100
AcDbPolyline
 90
        9
 70
     0
 43
0.0
 10
1.213637837478492
 20
7.616941625978128
 42
-0.1432467981947568
 10
1.188413186623036
 20
7.624319722849378
 42
-0.1071754848060475
 10
1.16372702065245
 20
7.64887064799403
 42
-0.0783035184710328
 10
1.148780353030089
 20
7.682491902344828
 42
-0.0656020556757086
 10
1.143053283413982
 20
7.725954125978134
 42
-0.0656020556757101
 10
1.148780353030089
 20
7.769416349611432
 42
-0.0783035184710357
 10
1.16372702065245
 20
7.803037603962231
 42
-0.1071754848060445
 10
1.188413186623036
 20
7.827588529106883
 42
-0.1432467981947535
 10
1.213637837478492
 20
7.834966625978133
 42
-0.1432467981947515
  0
LINE
  5
231
330
2
100
AcDbEntity
  8
0
100
AcDbLine
 10
1.213637837478492
 20
7.587616625978129
 30
0.0
 11
1.213637837478492
 21
7.864291625978133
 31
0.0
  0
LINE
  5
232
330
2
100
AcDbEntity
  8
0
100
AcDbLine
 10
1.475865149981621
 20
7.359714316435049
 30
0.0
 11
1.475865149981621
 21
7.984714316435049
 31
0.0
  0
ARC
  5
233
330
2
100
AcDbEntity
  8
0
100
AcDbCircle
 10
1.319615149981628
 20
7.359714316435049
 30
0.0
 40
0.15625
100
AcDbArc
 50
270.0
 51
359.9999999999999
  0
LINE
  5
234
330
2
100
AcDbEntity
  8
0
100
AcDbLine
 10
1.319615149981621
 20
7.203464316435049
 30
0.0
 11
1.319615149981621
 21
7.203464316435049
 31
0.0
  0
ARC
  5
235
330
2
100
AcDbEntity
  8
0
100
AcDbCircle
 10
1.319615149981628
 20
7.047214316435049
 30
0.0
 40
0.15625
100
AcDbArc
 50
90.0
 51
180.0
  0
ARC
  5
236
330
2
100
AcDbEntity
  8
0
100
AcDbCircle
 10
1.319615149981628
 20
7.984714316435049
 30
0.0
 40
0.15625
100
AcDbArc
 50
0.000000000000007
 51
90.0
  0
LINE
  5
237
330
2
100
AcDbEntity
  8
0
100
AcDbLine
 10
1.319615149981621
 20
8.140964316435049
 30
0.0
 11
1.319615149981621
 21
8.140964316435049
 31
0.0
  0
LINE
  5
238
330
2
100
AcDbEntity
  8
0
100
AcDbLine
 10
1.163365149981621
 20
8.297214316435049
 30
0.0
 11
1.163365149981621
 21
8.984714316435049
 31
0.0
  0
LINE
  5
239
330
2
100
AcDbEntity
  8
0
  6
HIDDEN
100
AcDbLine
 10
0.2410844637934346
 20
0.0624999999999964
 30
0.0
 11
3.241084463793404
 21
0.0625000000000506
 31
0.0
  0
ENDSEC
  0
SECTION
  2
OBJECTS
  0
DICTIONARY
  5
9
330
0
100
AcDbDictionary
281
     1
  3
ACAD_COLOR
350
240
  3
ACAD_GROUP
350
23
  3
ACAD_LAYOUT
350
D
  3
ACAD_MATERIAL
350
23F
  3
ACAD_MLINESTYLE
350
24
  3
ACAD_PLOTSETTINGS
350
25
  3
ACAD_PLOTSTYLENAME
350
8
  3
ACAD_TABLESTYLE
350
241
  3
ACDBHEADERROUNDTRIPXREC
350
285
  3
AcDbVariableDictionary
350
117
  0
DICTIONARY
  5
240
102
{ACAD_REACTORS
330
9
102
}
330
9
100
AcDbDictionary
281
     1
  0
DICTIONARY
  5
23
102
{ACAD_REACTORS
330
9
102
}
330
9
100
AcDbDictionary
281
     1
  0
DICTIONARY
  5
D
102
{ACAD_REACTORS
330
9
102
}
330
9
100
AcDbDictionary
281
     1
  3
Layout1
350
13
  3
Model
350
C
  0
DICTIONARY
  5
23F
102
{ACAD_REACTORS
330
9
102
}
330
9
100
AcDbDictionary
281
     1
  0
DICTIONARY
  5
24
102
{ACAD_REACTORS
330
9
102
}
330
9
100
AcDbDictionary
281
     1
  3
STANDARD
350
27
  0
DICTIONARY
  5
25
102
{ACAD_REACTORS
330
9
102
}
330
9
100
AcDbDictionary
281
     1
  0
ACDBDICTIONARYWDFLT
  5
8
102
{ACAD_REACTORS
330
9
102
}
330
9
100
AcDbDictionary
281
     1
  3
Normal
350
7
100
AcDbDictionaryWithDefault
340
7
  0
DICTIONARY
  5
241
102
{ACAD_REACTORS
330
9
102
}
330
9
100
AcDbDictionary
281
     1
  3
Standard
350
242
  0
DICTIONARY
  5
285
102
{ACAD_REACTORS
330
9
102
}
330
9
100
AcDbDictionary
281
     1
  3
COLORDICT
350
286
  3
MATERIALDICT
350
287
  0
DICTIONARY
  5
117
102
{ACAD_REACTORS
330
9
102
}
330
9
100
AcDbDictionary
281
     1
  3
CTABLESTYLE
350
265
  3
HIDETEXT
350
284
  0
LAYOUT
  5
13
102
{ACAD_REACTORS
330
D
102
}
102
{ACAD_XDICTIONARY
360
288
102
}
330
D
100
AcDbPlotSettings
  1

  2
C:\ACAD2000\plotters\HP LaserJet 2100 Series PS.pc3
  4

  6

 40
0.0
 41
0.0
 42
0.0
 43
0.0
 44
0.0
 45
0.0
 46
0.0
 47
0.0
 48
0.0
 49
0.0
140
0.0
141
0.0
142
1.0
143
1.0
 70
   688
 72
     0
 73
     0
 74
     5
  7

 75
    16
147
1.0
148
0.0
149
0.0
100
AcDbLayout
  1
Layout1
 70
     0
 71
     1
 10
0.0
 20
0.0
 11
12.0
 21
9.0
 12
0.0
 22
0.0
 32
0.0
 14
1.000000000000000E+20
 24
1.000000000000000E+20
 34
1.000000000000000E+20
 15
-1.000000000000000E+20
 25
-1.000000000000000E+20
 35
-1.000000000000000E+20
146
0.0
 13
0.0
 23
0.0
 33
0.0
 16
1.0
 26
0.0
 36
0.0
 17
0.0
 27
1.0
 37
0.0
 76
     0
330
E
  0
LAYOUT
  5
C
102
{ACAD_REACTORS
330
D
102
}
102
{ACAD_XDICTIONARY
360
28A
102
}
330
D
100
AcDbPlotSettings
  1

  2
HP LaserJet 2100 Series PS
  4
Letter
  6

 40
5.365749835968018
 41
5.408073902130127
 42
5.132904052734375
 43
5.090576171875
 44
215.8999938964844
 45
279.3999938964844
 46
0.0
 47
0.0
 48
0.0
 49
0.0
140
0.0
141
0.0
142
1.0
143
5.193734373688032
 70
 28336
 72
     0
 73
     1
 74
     2
  7

 75
     0
147
0.1925396887961961
148
0.0
149
0.0
100
AcDbLayout
  1
Model
 70
     1
 71
     0
 10
0.0
 20
0.0
 11
12.0
 21
9.0
 12
0.0
 22
0.0
 32
0.0
 14
0.0
 24
0.0
 34
0.0
 15
0.0
 25
0.0
 35
0.0
146
0.0
 13
0.0
 23
0.0
 33
0.0
 16
1.0
 26
0.0
 36
0.0
 17
0.0
 27
1.0
 37
0.0
 76
     0
330
2
  0
MLINESTYLE
  5
27
102
{ACAD_REACTORS
330
24
102
}
330
24
100
AcDbMlineStyle
  2
STANDARD
 70
     0
  3

 62
   256
 51
90.0
 52
90.0
 71
     2
 49
0.5
 62
   256
  6
BYLAYER
 49
-0.5
 62
   256
  6
BYLAYER
  0
ACDBPLACEHOLDER
  5
7
102
{ACAD_REACTORS
330
8
102
}
330
8
  0
ACAD_PROXY_OBJECT
  5
242
102
{ACAD_REACTORS
330
241
102
}
330
241
100
AcDbProxyObject
 90
      499
 91
      513
 95
   983063
 70
     0
 93
     1841
310
4214DD185B99185C9928B81E85EB51B8AE3F2E07A17AD46E2B8FC02B5E8DC0F42B1CFD028000000C1008070000C3001FDFF8000000C1003FBFF000000182007F7FE00000030400FEFFC00000060801FDFF8000000C1003FBFF00000018200000000000000681FA0B0000001820100E000186003FBFF000000182007F7FE000
310
00030400FEFFC00000060801FDFF8000000C1003FBFF000000182007F7FE000000304000AD7A3703D0AC73F4160000003040201C00030C007F7FE00000030400FEFFC00000060801FDFF8000000C1003FBFF000000182007F7FE00000030400FEFFC000000608000
340
16
340
16
340
16
 94
        0
  0
XRECORD
  5
286
102
{ACAD_REACTORS
330
285
102
}
330
285
100
AcDbXrecord
340
240
  0
XRECORD
  5
287
102
{ACAD_REACTORS
330
285
102
}
330
285
100
AcDbXrecord
340
23F
  0
DICTIONARYVAR
  5
265
102
{ACAD_REACTORS
330
117
102
}
330
117
100
DictionaryVariables
280
     0
  1
STANDARD
  0
DICTIONARYVAR
  5
284
102
{ACAD_REACTORS
330
117
102
}
330
117
100
DictionaryVariables
280
     0
  1
0
  0
DICTIONARY
  5
288
330
13
100
AcDbDictionary
280
     1
281
     1
  3
ACAD_XREC_ROUNDTRIP
360
289
  0
DICTIONARY
  5
28A
330
C
100
AcDbDictionary
280
     1
281
     1
  3
ACAD_XREC_ROUNDTRIP
360
28B
  0
XRECORD
  5
289
102
{ACAD_REACTORS
330
288
102
}
330
288
100
AcDbXrecord
102
SHADEPLOT
 70
     0
102
SHADEPLOTRESLEVEL
 70
     2
102
SHADEPLOTCUSTOMDPI
 70
   300
  0
XRECORD
  5
28B
102
{ACAD_REACTORS
330
28A
102
}
330
28A
100
AcDbXrecord
102
SHADEPLOT
 70
     0
102
SHADEPLOTRESLEVEL
 70
     2
102
SHADEPLOTCUSTOMDPI
 70
   300
  0
ENDSEC
  0
EOF
