  0
SECTION
  2
HEADER
  9
$ACADVER
  1
AC1015
  9
$ACADMAINTVER
 70
     6
  9
$DWGCODEPAGE
  3
ANSI_1252
  9
$INSBASE
 10
0.0
 20
0.0
 30
0.0
  9
$EXTMIN
 10
-11.30953919842013
 20
-0.0299061694871057
 30
-0.0000000000112498
  9
$EXTMAX
 10
11.30925888650812
 20
19.44580653739885
 30
0.0000000000002956
  9
$LIMMIN
 10
0.0
 20
0.0
  9
$LIMMAX
 10
26.6664
 20
34.99965
  9
$ORTHOMODE
 70
     1
  9
$REGENMODE
 70
     1
  9
$FILLMODE
 70
     1
  9
$QTEXTMODE
 70
     0
  9
$MIRRTEXT
 70
     0
  9
$LTSCALE
 40
1.0
  9
$ATTMODE
 70
     1
  9
$TEXTSIZE
 40
0.299997
  9
$TRACEWID
 40
0.05
  9
$TEXTSTYLE
  7
STANDARD
  9
$CLAYER
  8
0
  9
$CELTYPE
  6
BYLAYER
  9
$CECOLOR
 62
   256
  9
$CELTSCALE
 40
1.0
  9
$DISPSILH
 70
     0
  9
$DIMSCALE
 40
3.3333
  9
$DIMASZ
 40
0.125
  9
$DIMEXO
 40
0.062
  9
$DIMDLI
 40
0.375
  9
$DIMRND
 40
0.0
  9
$DIMDLE
 40
0.0
  9
$DIMEXE
 40
0.08
  9
$DIMTP
 40
0.0
  9
$DIMTM
 40
0.0
  9
$DIMTXT
 40
0.09
  9
$DIMCEN
 40
-0.06
  9
$DIMTSZ
 40
0.0
  9
$DIMTOL
 70
     0
  9
$DIMLIM
 70
     0
  9
$DIMTIH
 70
     1
  9
$DIMTOH
 70
     1
  9
$DIMSE1
 70
     0
  9
$DIMSE2
 70
     0
  9
$DIMTAD
 70
     0
  9
$DIMZIN
 70
     0
  9
$DIMBLK
  1

  9
$DIMASO
 70
     0
  9
$DIMSHO
 70
     0
  9
$DIMPOST
  1

  9
$DIMAPOST
  1

  9
$DIMALT
 70
     0
  9
$DIMALTD
 70
     2
  9
$DIMALTF
 40
25.4
  9
$DIMLFAC
 40
1.0
  9
$DIMTOFL
 70
     0
  9
$DIMTVP
 40
0.0
  9
$DIMTIX
 70
     0
  9
$DIMSOXD
 70
     0
  9
$DIMSAH
 70
     0
  9
$DIMBLK1
  1

  9
$DIMBLK2
  1

  9
$DIMSTYLE
  2
STANDARD
  9
$DIMCLRD
 70
     0
  9
$DIMCLRE
 70
     0
  9
$DIMCLRT
 70
     0
  9
$DIMTFAC
 40
1.0
  9
$DIMGAP
 40
0.08984375
  9
$DIMJUST
 70
     0
  9
$DIMSD1
 70
     0
  9
$DIMSD2
 70
     0
  9
$DIMTOLJ
 70
     1
  9
$DIMTZIN
 70
     0
  9
$DIMALTZ
 70
     0
  9
$DIMALTTZ
 70
     0
  9
$DIMUPT
 70
     0
  9
$DIMDEC
 70
     6
  9
$DIMTDEC
 70
     6
  9
$DIMALTU
 70
     5
  9
$DIMALTTD
 70
     2
  9
$DIMTXSTY
  7
STANDARD
  9
$DIMAUNIT
 70
     0
  9
$DIMADEC
 70
     0
  9
$DIMALTRND
 40
0.0
  9
$DIMAZIN
 70
     0
  9
$DIMDSEP
 70
    46
  9
$DIMATFIT
 70
     3
  9
$DIMFRAC
 70
     2
  9
$DIMLDRBLK
  1

  9
$DIMLUNIT
 70
     5
  9
$DIMLWD
 70
    -2
  9
$DIMLWE
 70
    -2
  9
$DIMTMOVE
 70
     2
  9
$LUNITS
 70
     5
  9
$LUPREC
 70
     6
  9
$SKETCHINC
 40
0.1
  9
$FILLETRAD
 40
0.0
  9
$AUNITS
 70
     0
  9
$AUPREC
 70
     0
  9
$MENU
  1
acad
  9
$ELEVATION
 40
0.0
  9
$PELEVATION
 40
0.0
  9
$THICKNESS
 40
0.0
  9
$LIMCHECK
 70
     0
  9
$CHAMFERA
 40
0.0
  9
$CHAMFERB
 40
0.0
  9
$CHAMFERC
 40
0.0
  9
$CHAMFERD
 40
0.0
  9
$SKPOLY
 70
     0
  9
$TDCREATE
 40
2449876.822396644
  9
$TDUCREATE
 40
2449877.155729977
  9
$TDUPDATE
 40
2454166.019870683
  9
$TDUUPDATE
 40
2454166.353204016
  9
$TDINDWG
 40
0.0755704514
  9
$TDUSRTIMER
 40
0.0755704514
  9
$USRTIMER
 70
     1
  9
$ANGBASE
 50
0.0
  9
$ANGDIR
 70
     0
  9
$PDMODE
 70
     0
  9
$PDSIZE
 40
0.0
  9
$PLINEWID
 40
0.0
  9
$SPLFRAME
 70
     0
  9
$SPLINETYPE
 70
     6
  9
$SPLINESEGS
 70
     8
  9
$HANDSEED
  5
26E
  9
$SURFTAB1
 70
     6
  9
$SURFTAB2
 70
     6
  9
$SURFTYPE
 70
     6
  9
$SURFU
 70
     6
  9
$SURFV
 70
     6
  9
$UCSBASE
  2

  9
$UCSNAME
  2

  9
$UCSORG
 10
0.0
 20
0.0
 30
0.0
  9
$UCSXDIR
 10
1.0
 20
0.0
 30
0.0
  9
$UCSYDIR
 10
0.0
 20
1.0
 30
0.0
  9
$UCSORTHOREF
  2

  9
$UCSORTHOVIEW
 70
     0
  9
$UCSORGTOP
 10
0.0
 20
0.0
 30
0.0
  9
$UCSORGBOTTOM
 10
0.0
 20
0.0
 30
0.0
  9
$UCSORGLEFT
 10
0.0
 20
0.0
 30
0.0
  9
$UCSORGRIGHT
 10
0.0
 20
0.0
 30
0.0
  9
$UCSORGFRONT
 10
0.0
 20
0.0
 30
0.0
  9
$UCSORGBACK
 10
0.0
 20
0.0
 30
0.0
  9
$PUCSBASE
  2

  9
$PUCSNAME
  2

  9
$PUCSORG
 10
0.0
 20
0.0
 30
0.0
  9
$PUCSXDIR
 10
1.0
 20
0.0
 30
0.0
  9
$PUCSYDIR
 10
0.0
 20
1.0
 30
0.0
  9
$PUCSORTHOREF
  2

  9
$PUCSORTHOVIEW
 70
     0
  9
$PUCSORGTOP
 10
0.0
 20
0.0
 30
0.0
  9
$PUCSORGBOTTOM
 10
0.0
 20
0.0
 30
0.0
  9
$PUCSORGLEFT
 10
0.0
 20
0.0
 30
0.0
  9
$PUCSORGRIGHT
 10
0.0
 20
0.0
 30
0.0
  9
$PUCSORGFRONT
 10
0.0
 20
0.0
 30
0.0
  9
$PUCSORGBACK
 10
0.0
 20
0.0
 30
0.0
  9
$USERI1
 70
     0
  9
$USERI2
 70
     0
  9
$USERI3
 70
     0
  9
$USERI4
 70
     0
  9
$USERI5
 70
     0
  9
$USERR1
 40
0.0
  9
$USERR2
 40
0.0
  9
$USERR3
 40
0.0
  9
$USERR4
 40
0.0
  9
$USERR5
 40
0.0
  9
$WORLDVIEW
 70
     1
  9
$SHADEDGE
 70
     3
  9
$SHADEDIF
 70
    70
  9
$TILEMODE
 70
     1
  9
$MAXACTVP
 70
    16
  9
$PINSBASE
 10
0.0
 20
0.0
 30
0.0
  9
$PLIMCHECK
 70
     0
  9
$PEXTMIN
 10
1.000000000000000E+20
 20
1.000000000000000E+20
 30
1.000000000000000E+20
  9
$PEXTMAX
 10
-1.000000000000000E+20
 20
-1.000000000000000E+20
 30
-1.000000000000000E+20
  9
$PLIMMIN
 10
0.0
 20
0.0
  9
$PLIMMAX
 10
12.0
 20
9.0
  9
$UNITMODE
 70
     0
  9
$VISRETAIN
 70
     0
  9
$PLINEGEN
 70
     1
  9
$PSLTSCALE
 70
     0
  9
$TREEDEPTH
 70
  3020
  9
$CMLSTYLE
  2
STANDARD
  9
$CMLJUST
 70
     0
  9
$CMLSCALE
 40
1.0
  9
$PROXYGRAPHICS
 70
     1
  9
$MEASUREMENT
 70
     0
  9
$CELWEIGHT
370
    -1
  9
$ENDCAPS
280
     0
  9
$JOINSTYLE
280
     0
  9
$LWDISPLAY
290
     0
  9
$INSUNITS
 70
     0
  9
$HYPERLINKBASE
  1

  9
$STYLESHEET
  1

  9
$XEDIT
290
     1
  9
$CEPSNTYPE
380
     0
  9
$PSTYLEMODE
290
     1
  9
$FINGERPRINTGUID
  2
{84CE4D85-AFDB-477B-80DD-38BDA368E254}
  9
$VERSIONGUID
  2
{5DC1231E-49F4-4792-9D55-61BAA6B63813}
  9
$EXTNAMES
290
     1
  9
$PSVPSCALE
 40
0.0
  9
$OLESTARTUP
290
     0
  0
ENDSEC
  0
SECTION
  2
CLASSES
  0
CLASS
  1
DICTIONARYVAR
  2
AcDbDictionaryVar
  3
AutoCAD 2000
 90
        0
280
     0
281
     0
  0
CLASS
  1
LWPOLYLINE
  2
AcDbPolyline
  3
AutoCAD 2000
 90
        0
280
     0
281
     1
  0
CLASS
  1
ACDBDICTIONARYWDFLT
  2
AcDbDictionaryWithDefault
  3
AutoCAD 2000
 90
        0
280
     0
281
     0
  0
CLASS
  1
ACDBPLACEHOLDER
  2
AcDbPlaceHolder
  3
ObjectDBX Classes
 90
        0
280
     0
281
     0
  0
CLASS
  1
LAYOUT
  2
AcDbLayout
  3
ObjectDBX Classes
 90
        0
280
     0
281
     0
  0
CLASS
  1
LONG_TRANSACTION
  2
AcDbLongTransaction
  3
ObjectDBX Classes
 90
   -65536
280
     1
281
     0
  0
CLASS
  1
LWPOLYLINE
  2
AcDbPolyline
  3
AutoCAD 2000
 90
        0
280
     0
281
     1
  0
CLASS
  1
HATCH
  2
AcDbHatch
  3
AutoCAD 2000
 90
        0
280
     0
281
     1
  0
CLASS
  1
XRECORD
  2
AcDbXrecord
  3
AutoCAD 2000
 90
        0
280
     0
281
     0
  0
CLASS
  1
LONG_TRANSACTION
  2
AcDbLongTransaction
  3
ObjectDBX Classes
 90
   -65536
280
     1
281
     0
  0
CLASS
  1
LWPOLYLINE
  2
AcDbPolyline
  3
AutoCAD 2000
 90
        0
280
     0
281
     1
  0
CLASS
  1
HATCH
  2
AcDbHatch
  3
AutoCAD 2000
 90
        0
280
     0
281
     1
  0
CLASS
  1
XRECORD
  2
AcDbXrecord
  3
AutoCAD 2000
 90
        0
280
     0
281
     0
  0
CLASS
  1
LONG_TRANSACTION
  2
AcDbLongTransaction
  3
ObjectDBX Classes
 90
   -65536
280
     1
281
     0
  0
CLASS
  1
LWPOLYLINE
  2
AcDbPolyline
  3
AutoCAD 2000
 90
        0
280
     0
281
     1
  0
CLASS
  1
HATCH
  2
AcDbHatch
  3
AutoCAD 2000
 90
        0
280
     0
281
     1
  0
CLASS
  1
XRECORD
  2
AcDbXrecord
  3
AutoCAD 2000
 90
        0
280
     0
281
     0
  0
CLASS
  1
LONG_TRANSACTION
  2
AcDbLongTransaction
  3
ObjectDBX Classes
 90
   -65536
280
     1
281
     0
  0
CLASS
  1
LWPOLYLINE
  2
AcDbPolyline
  3
AutoCAD 2000
 90
        0
280
     0
281
     1
  0
CLASS
  1
HATCH
  2
AcDbHatch
  3
AutoCAD 2000
 90
        0
280
     0
281
     1
  0
CLASS
  1
XRECORD
  2
AcDbXrecord
  3
AutoCAD 2000
 90
        0
280
     0
281
     0
  0
CLASS
  1
LONG_TRANSACTION
  2
AcDbLongTransaction
  3
ObjectDBX Classes
 90
   -65536
280
     1
281
     0
  0
CLASS
  1
LWPOLYLINE
  2
AcDbPolyline
  3
AutoCAD 2000
 90
        0
280
     0
281
     1
  0
CLASS
  1
HATCH
  2
AcDbHatch
  3
AutoCAD 2000
 90
        0
280
     0
281
     1
  0
CLASS
  1
XRECORD
  2
AcDbXrecord
  3
AutoCAD 2000
 90
        0
280
     0
281
     0
  0
CLASS
  1
LONG_TRANSACTION
  2
AcDbLongTransaction
  3
ObjectDBX Classes
 90
   -65536
280
     1
281
     0
  0
CLASS
  1
LWPOLYLINE
  2
AcDbPolyline
  3
AutoCAD 2000
 90
        0
280
     0
281
     1
  0
CLASS
  1
HATCH
  2
AcDbHatch
  3
AutoCAD 2000
 90
        0
280
     0
281
     1
  0
CLASS
  1
XRECORD
  2
AcDbXrecord
  3
AutoCAD 2000
 90
        0
280
     0
281
     0
  0
CLASS
  1
TABLESTYLE
  2
AcDbTableStyle
  3
ObjectDBX Classes
 90
     2047
280
     1
281
     0
  0
ENDSEC
  0
SECTION
  2
TABLES
  0
TABLE
  2
VPORT
  5
1D
330
0
100
AcDbSymbolTable
 70
     5
  0
VPORT
  5
25E
330
1D
100
AcDbSymbolTableRecord
100
AcDbViewportTableRecord
  2
*Active
 70
     0
 10
0.0
 20
0.0
 11
1.0
 21
1.0
 12
8.343427490172502
 22
14.01210891711192
 13
0.0
 23
0.0
 14
0.063
 24
0.063
 15
0.25
 25
0.25
 16
0.0
 26
0.0
 36
1.0
 17
0.0
 27
0.0
 37
0.0
 40
35.46651529829786
 41
1.814583333333333
 42
50.0
 43
0.0
 44
0.0
 50
0.0
 51
0.0
 71
     0
 72
   100
 73
     1
 74
     0
 75
     0
 76
     0
 77
     0
 78
     0
281
     0
 65
     1
110
0.0
120
0.0
130
0.0
111
1.0
121
0.0
131
0.0
112
0.0
122
1.0
132
0.0
 79
     0
146
0.0
  0
ENDTAB
  0
TABLE
  2
LTYPE
  5
18
330
0
100
AcDbSymbolTable
 70
     2
  0
LTYPE
  5
19
330
18
100
AcDbSymbolTableRecord
100
AcDbLinetypeTableRecord
  2
BYBLOCK
 70
     0
  3

 72
    65
 73
     0
 40
0.0
  0
LTYPE
  5
1A
330
18
100
AcDbSymbolTableRecord
100
AcDbLinetypeTableRecord
  2
BYLAYER
 70
     0
  3

 72
    65
 73
     0
 40
0.0
  0
LTYPE
  5
A
330
18
100
AcDbSymbolTableRecord
100
AcDbLinetypeTableRecord
  2
CONTINUOUS
 70
     0
  3
Solid line
 72
    65
 73
     0
 40
0.0
  0
LTYPE
  5
46
330
18
100
AcDbSymbolTableRecord
100
AcDbLinetypeTableRecord
  2
HIDDEN
 70
     0
  3
_ _ _ _ _ _ _ _ _ _ _ _ _ _ _ _ _ _ _ _ _ _ _
 72
    65
 73
     2
 40
0.375
 49
0.25
 74
     0
 49
-0.125
 74
     0
  0
ENDTAB
  0
TABLE
  2
LAYER
  5
14
330
0
100
AcDbSymbolTable
 70
     3
  0
LAYER
  5
6
330
14
100
AcDbSymbolTableRecord
100
AcDbLayerTableRecord
  2
0
 70
     0
 62
     7
  6
CONTINUOUS
370
    -3
390
7
  0
ENDTAB
  0
TABLE
  2
STYLE
  5
15
330
0
100
AcDbSymbolTable
 70
     1
  0
STYLE
  5
16
330
15
100
AcDbSymbolTableRecord
100
AcDbTextStyleTableRecord
  2
STANDARD
 70
     0
 40
0.0
 41
1.0
 50
0.0
 71
     0
 42
0.299997
  3
TXT
  4

  0
ENDTAB
  0
TABLE
  2
VIEW
  5
1B
330
0
100
AcDbSymbolTable
 70
     0
  0
ENDTAB
  0
TABLE
  2
UCS
  5
1C
330
0
100
AcDbSymbolTable
 70
     0
  0
ENDTAB
  0
TABLE
  2
APPID
  5
1F
330
0
100
AcDbSymbolTable
 70
     1
  0
APPID
  5
20
330
1F
100
AcDbSymbolTableRecord
100
AcDbRegAppTableRecord
  2
ACAD
 70
     0
  0
ENDTAB
  0
TABLE
  2
DIMSTYLE
  5
21
330
0
100
AcDbSymbolTable
 70
     1
100
AcDbDimStyleTable
  0
DIMSTYLE
105
28
330
21
100
AcDbSymbolTableRecord
100
AcDbDimStyleTableRecord
  2
STANDARD
 70
     0
  3

  4

340
16
  0
ENDTAB
  0
TABLE
  2
BLOCK_RECORD
  5
1
330
0
100
AcDbSymbolTable
 70
     0
  0
BLOCK_RECORD
  5
2
330
1
100
AcDbSymbolTableRecord
100
AcDbBlockTableRecord
  2
*MODEL_SPACE
340
C
  0
BLOCK_RECORD
  5
E
330
1
100
AcDbSymbolTableRecord
100
AcDbBlockTableRecord
  2
*PAPER_SPACE
340
13
  0
ENDTAB
  0
ENDSEC
  0
SECTION
  2
BLOCKS
  0
BLOCK
  5
5
330
2
100
AcDbEntity
  8
0
100
AcDbBlockBegin
  2
*MODEL_SPACE
 70
     0
 10
0.0
 20
0.0
 30
0.0
  3
*MODEL_SPACE
  1

  4

  0
ENDBLK
  5
B
330
2
100
AcDbEntity
  8
0
100
AcDbBlockEnd
  0
BLOCK
  5
11
330
E
100
AcDbEntity
 67
     1
  8
0
100
AcDbBlockBegin
  2
*PAPER_SPACE
 70
     0
 10
0.0
 20
0.0
 30
0.0
  3
*PAPER_SPACE
  1

  4

  0
ENDBLK
  5
12
330
E
100
AcDbEntity
 67
     1
  8
0
100
AcDbBlockEnd
  0
ENDSEC
  0
SECTION
  2
ENTITIES
  0
ARC
  5
102
330
2
100
AcDbEntity
  8
0
100
AcDbCircle
 10
-1.594136472572473
 20
4.755484217515871
 30
0.0
 40
0.25
100
AcDbArc
 50
98.82715068361172
 51
261.1728493163883
  0
ARC
  5
103
330
2
100
AcDbEntity
  8
0
100
AcDbCircle
 10
1.594136472572486
 20
4.755484217515871
 30
0.0
 40
0.25
100
AcDbArc
 50
278.8271506836109
 51
81.17284931638909
  0
LINE
  5
104
330
2
100
AcDbEntity
  8
0
100
AcDbLine
 10
-2.717113331802442
 20
4.438655262220074
 30
0.0
 11
-2.717113331802442
 21
5.128568064705977
 31
0.0
  0
LINE
  5
105
330
2
100
AcDbEntity
  8
0
100
AcDbLine
 10
-1.562500000000001
 20
0.1400000000000006
 30
0.0
 11
-1.562500000000001
 21
9.257500000000004
 31
0.0
  0
LINE
  5
106
330
2
100
AcDbEntity
  8
0
100
AcDbLine
 10
-1.632499999999998
 20
0.1400000000000006
 30
0.0
 11
-1.632500000000001
 21
9.257500000000004
 31
0.0
  0
LINE
  5
107
330
2
100
AcDbEntity
  8
0
100
AcDbLine
 10
1.632499999999998
 20
0.1400000000000006
 30
0.0
 11
1.632500000000001
 21
9.257500000000004
 31
0.0
  0
LINE
  5
108
330
2
100
AcDbEntity
  8
0
100
AcDbLine
 10
1.562499999999999
 20
0.1400000000000006
 30
0.0
 11
1.562499999999999
 21
9.257500000000004
 31
0.0
  0
LINE
  5
109
330
2
100
AcDbEntity
  8
0
100
AcDbLine
 10
2.71711333180244
 20
4.438655262220074
 30
0.0
 11
2.717113331802442
 21
5.128568064705977
 31
0.0
  0
CIRCLE
  5
10A
330
2
100
AcDbEntity
  8
0
100
AcDbCircle
 10
-2.396243129721847
 20
2.755484217515875
 30
0.0
 40
0.0855
  0
LINE
  5
10B
330
2
100
AcDbEntity
  8
0
100
AcDbLine
 10
-1.632500000000001
 20
0.9031192372166572
 30
0.0
 11
-2.67381815557311
 21
2.315964253707648
 31
0.0
  0
ARC
  5
10C
330
2
100
AcDbEntity
  8
0
100
AcDbCircle
 10
-2.509841292761426
 20
3.080694051767109
 30
0.0
 40
0.2
100
AcDbArc
 50
102.6356250930189
 51
180.0
  0
LINE
  5
10D
330
2
100
AcDbEntity
  8
0
100
AcDbLine
 10
-2.700372927641255
 20
2.424946415029979
 30
0.0
 11
-2.700372927641255
 21
3.114859217515878
 31
0.0
  0
ARC
  5
10E
330
2
100
AcDbEntity
  8
0
100
AcDbCircle
 10
-2.521243129721847
 20
2.424946415029979
 30
0.0
 40
0.1875
100
AcDbArc
 50
180.0
 51
215.5376777919745
  0
LINE
  5
10F
330
2
100
AcDbEntity
  8
0
100
AcDbLine
 10
-2.397341292761422
 20
4.071006426667072
 30
0.0
 11
-2.397341292761422
 21
3.471006426667074
 31
0.0
  0
ARC
  5
110
330
2
100
AcDbEntity
  8
0
100
AcDbCircle
 10
-2.597341292761425
 20
3.471006426667074
 30
0.0
 40
0.2
100
AcDbArc
 50
282.6356250930186
 51
0.0000000000000254
  0
ARC
  5
111
330
2
100
AcDbEntity
  8
0
100
AcDbCircle
 10
-2.597341292761421
 20
4.071006426667072
 30
0.0
 40
0.2
100
AcDbArc
 50
0.0000000000000254
 51
77.36437490698125
  0
ARC
  5
112
330
2
100
AcDbEntity
  8
0
100
AcDbCircle
 10
-2.509841292761426
 20
4.461318801567025
 30
0.0
 40
0.2
100
AcDbArc
 50
180.0
 51
257.3643749069807
  0
LINE
  5
113
330
2
100
AcDbEntity
  8
0
100
AcDbLine
 10
1.492499999999997
 20
0.0
 30
0.0
 11
-1.492500000000001
 21
0.0
 31
0.0
  0
LINE
  5
114
330
2
100
AcDbEntity
  8
0
100
AcDbLine
 10
1.492499999999999
 20
0.0700000000000003
 30
0.0
 11
-1.492500000000001
 21
0.0700000000000003
 31
0.0
  0
ARC
  5
115
330
2
100
AcDbEntity
  8
0
100
AcDbCircle
 10
-1.492499999999997
 20
0.1400000000000006
 30
0.0
 40
0.14
100
AcDbArc
 50
180.0
 51
270.0
  0
ARC
  5
116
330
2
100
AcDbEntity
  8
0
100
AcDbCircle
 10
-1.492500000000001
 20
0.1400000000000006
 30
0.0
 40
0.14
100
AcDbArc
 50
180.0
 51
270.0
  0
ARC
  5
117
330
2
100
AcDbEntity
  8
0
100
AcDbCircle
 10
-1.492500000000001
 20
0.1400000000000006
 30
0.0
 40
0.07
100
AcDbArc
 50
180.0
 51
270.0
  0
ARC
  5
118
330
2
100
AcDbEntity
  8
0
100
AcDbCircle
 10
-1.492500000000001
 20
0.1400000000000006
 30
0.0
 40
0.07
100
AcDbArc
 50
180.0
 51
270.0
  0
LINE
  5
11B
330
2
100
AcDbEntity
  8
0
100
AcDbLine
 10
1.632500000000001
 20
0.9031192372166572
 30
0.0
 11
2.673818155573108
 21
2.315964253707648
 31
0.0
  0
ARC
  5
11C
330
2
100
AcDbEntity
  8
0
100
AcDbCircle
 10
1.492499999999997
 20
0.1400000000000006
 30
0.0
 40
0.14
100
AcDbArc
 50
270.0
 51
0.0
  0
ARC
  5
11D
330
2
100
AcDbEntity
  8
0
100
AcDbCircle
 10
1.492499999999999
 20
0.1400000000000006
 30
0.0
 40
0.07
100
AcDbArc
 50
270.0
 51
0.0
  0
CIRCLE
  5
11F
330
2
100
AcDbEntity
  8
0
100
AcDbCircle
 10
2.396243129721845
 20
2.754543077266799
 30
0.0
 40
0.0855
  0
ARC
  5
121
330
2
100
AcDbEntity
  8
0
100
AcDbCircle
 10
2.509841292761425
 20
3.080694051767109
 30
0.0
 40
0.2
100
AcDbArc
 50
0.0
 51
77.36437490698107
  0
LINE
  5
122
330
2
100
AcDbEntity
  8
0
100
AcDbLine
 10
2.700372927641253
 20
2.424946415029979
 30
0.0
 11
2.700372927641253
 21
3.114859217515878
 31
0.0
  0
ARC
  5
123
330
2
100
AcDbEntity
  8
0
100
AcDbCircle
 10
2.521243129721845
 20
2.424946415029979
 30
0.0
 40
0.1875
100
AcDbArc
 50
324.4623222080255
 51
0.0
  0
LINE
  5
124
330
2
100
AcDbEntity
  8
0
100
AcDbLine
 10
2.39734129276142
 20
4.071006426667072
 30
0.0
 11
2.39734129276142
 21
3.471006426667074
 31
0.0
  0
ARC
  5
125
330
2
100
AcDbEntity
  8
0
100
AcDbCircle
 10
2.597341292761423
 20
3.471006426667074
 30
0.0
 40
0.2
100
AcDbArc
 50
180.0
 51
257.3643749069813
  0
ARC
  5
126
330
2
100
AcDbEntity
  8
0
100
AcDbCircle
 10
2.509841292761425
 20
4.461318801567025
 30
0.0
 40
0.2
100
AcDbArc
 50
282.6356250930193
 51
0.0
  0
ARC
  5
127
330
2
100
AcDbEntity
  8
0
100
AcDbCircle
 10
2.59734129276142
 20
4.071006426667072
 30
0.0
 40
0.2
100
AcDbArc
 50
102.6356250930187
 51
180.0
  0
LINE
  5
128
330
2
100
AcDbEntity
  8
0
100
AcDbLine
 10
-1.562500000000001
 20
9.257500000000004
 30
0.0
 11
-2.717113331802442
 21
9.257500000000004
 31
0.0
  0
CIRCLE
  5
129
330
2
100
AcDbEntity
  8
0
100
AcDbCircle
 10
-2.396243129721847
 20
4.755484217515875
 30
0.0
 40
0.0855
  0
CIRCLE
  5
12A
330
2
100
AcDbEntity
  8
0
100
AcDbCircle
 10
-2.396243129721847
 20
6.755484217515875
 30
0.0
 40
0.0855
  0
CIRCLE
  5
12B
330
2
100
AcDbEntity
  8
0
100
AcDbCircle
 10
-2.396243129721847
 20
8.755484217515875
 30
0.0
 40
0.0855
  0
ARC
  5
12C
330
2
100
AcDbEntity
  8
0
100
AcDbCircle
 10
-2.597341292761425
 20
7.471006426667071
 30
0.0
 40
0.2
100
AcDbArc
 50
282.6356250930186
 51
0.0000000000000254
  0
LINE
  5
12D
330
2
100
AcDbEntity
  8
0
100
AcDbLine
 10
-2.397341292761422
 20
6.071006426667072
 30
0.0
 11
-2.397341292761422
 21
5.471006426667071
 31
0.0
  0
ARC
  5
12E
330
2
100
AcDbEntity
  8
0
100
AcDbCircle
 10
-2.597341292761425
 20
5.471006426667071
 30
0.0
 40
0.2
100
AcDbArc
 50
282.6356250930186
 51
0.0000000000000254
  0
ARC
  5
12F
330
2
100
AcDbEntity
  8
0
100
AcDbCircle
 10
-2.518211494842018
 20
5.080694051767104
 30
0.0
 40
0.2
100
AcDbArc
 50
102.6356250930189
 51
180.0
  0
LINE
  5
130
330
2
100
AcDbEntity
  8
0
100
AcDbLine
 10
-2.717113331802442
 20
6.438655262220074
 30
0.0
 11
-2.717113331802442
 21
7.128568064705977
 31
0.0
  0
ARC
  5
131
330
2
100
AcDbEntity
  8
0
100
AcDbCircle
 10
-2.597341292761421
 20
6.071006426667072
 30
0.0
 40
0.2
100
AcDbArc
 50
0.0000000000000254
 51
77.36437490698125
  0
ARC
  5
132
330
2
100
AcDbEntity
  8
0
100
AcDbCircle
 10
-2.509841292761426
 20
6.461318801567025
 30
0.0
 40
0.2
100
AcDbArc
 50
180.0
 51
257.3643749069807
  0
ARC
  5
133
330
2
100
AcDbEntity
  8
0
100
AcDbCircle
 10
-2.518211494842018
 20
7.080694051767104
 30
0.0
 40
0.2
100
AcDbArc
 50
102.6356250930189
 51
180.0
  0
LINE
  5
134
330
2
100
AcDbEntity
  8
0
100
AcDbLine
 10
-2.717113331802442
 20
8.438655262220074
 30
0.0
 11
-2.717113331802442
 21
9.257500000000004
 31
0.0
  0
LINE
  5
135
330
2
100
AcDbEntity
  8
0
100
AcDbLine
 10
-2.397341292761422
 20
8.071006426667072
 30
0.0
 11
-2.397341292761422
 21
7.471006426667071
 31
0.0
  0
ARC
  5
136
330
2
100
AcDbEntity
  8
0
100
AcDbCircle
 10
-2.509841292761426
 20
8.461318801567025
 30
0.0
 40
0.2
100
AcDbArc
 50
180.0
 51
257.3643749069807
  0
ARC
  5
137
330
2
100
AcDbEntity
  8
0
100
AcDbCircle
 10
-2.597341292761421
 20
8.071006426667072
 30
0.0
 40
0.2
100
AcDbArc
 50
0.0000000000000254
 51
77.36437490698125
  0
ARC
  5
13A
330
2
100
AcDbEntity
  8
0
100
AcDbCircle
 10
2.597341292761425
 20
7.471006426667071
 30
0.0
 40
0.2
100
AcDbArc
 50
180.0
 51
257.3643749069813
  0
CIRCLE
  5
13B
330
2
100
AcDbEntity
  8
0
100
AcDbCircle
 10
2.396243129721845
 20
4.754543077266799
 30
0.0
 40
0.0855
  0
CIRCLE
  5
13C
330
2
100
AcDbEntity
  8
0
100
AcDbCircle
 10
2.396243129721845
 20
6.754543077266799
 30
0.0
 40
0.0855
  0
LINE
  5
13E
330
2
100
AcDbEntity
  8
0
100
AcDbLine
 10
2.397341292761422
 20
6.071006426667072
 30
0.0
 11
2.397341292761422
 21
5.471006426667071
 31
0.0
  0
ARC
  5
13F
330
2
100
AcDbEntity
  8
0
100
AcDbCircle
 10
2.518211494842018
 20
5.080694051767104
 30
0.0
 40
0.2
100
AcDbArc
 50
0.0
 51
77.36437490698107
  0
ARC
  5
140
330
2
100
AcDbEntity
  8
0
100
AcDbCircle
 10
2.597341292761425
 20
5.471006426667071
 30
0.0
 40
0.2
100
AcDbArc
 50
180.0
 51
257.3643749069813
  0
LINE
  5
141
330
2
100
AcDbEntity
  8
0
100
AcDbLine
 10
2.717113331802442
 20
6.438655262220074
 30
0.0
 11
2.717113331802442
 21
7.128568064705977
 31
0.0
  0
ARC
  5
142
330
2
100
AcDbEntity
  8
0
100
AcDbCircle
 10
2.509841292761426
 20
6.461318801567025
 30
0.0
 40
0.2
100
AcDbArc
 50
282.6356250930193
 51
0.0
  0
ARC
  5
143
330
2
100
AcDbEntity
  8
0
100
AcDbCircle
 10
2.597341292761421
 20
6.071006426667072
 30
0.0
 40
0.2
100
AcDbArc
 50
102.6356250930187
 51
180.0
  0
ARC
  5
144
330
2
100
AcDbEntity
  8
0
100
AcDbCircle
 10
2.518211494842018
 20
7.080694051767104
 30
0.0
 40
0.2
100
AcDbArc
 50
0.0
 51
77.36437490698107
  0
LINE
  5
145
330
2
100
AcDbEntity
  8
0
100
AcDbLine
 10
1.562499999999999
 20
9.257500000000004
 30
0.0
 11
2.717113331802442
 21
9.257500000000004
 31
0.0
  0
CIRCLE
  5
146
330
2
100
AcDbEntity
  8
0
100
AcDbCircle
 10
2.396243129721845
 20
8.754543077266799
 30
0.0
 40
0.0855
  0
LINE
  5
148
330
2
100
AcDbEntity
  8
0
100
AcDbLine
 10
2.717113331802442
 20
8.438655262220074
 30
0.0
 11
2.717113331802442
 21
9.257500000000004
 31
0.0
  0
LINE
  5
149
330
2
100
AcDbEntity
  8
0
100
AcDbLine
 10
2.397341292761422
 20
8.071006426667072
 30
0.0
 11
2.397341292761422
 21
7.471006426667071
 31
0.0
  0
ARC
  5
14A
330
2
100
AcDbEntity
  8
0
100
AcDbCircle
 10
2.509841292761426
 20
8.461318801567025
 30
0.0
 40
0.2
100
AcDbArc
 50
282.6356250930193
 51
0.0
  0
ARC
  5
14B
330
2
100
AcDbEntity
  8
0
100
AcDbCircle
 10
2.597341292761421
 20
8.071006426667072
 30
0.0
 40
0.2
100
AcDbArc
 50
102.6356250930187
 51
180.0
  0
LWPOLYLINE
  5
1A0
330
2
100
AcDbEntity
  8
0
100
AcDbPolyline
 90
        9
 70
     0
 43
0.0
 10
-1.632499999999983
 20
1.471583042145763
 42
-0.1432467981947568
 10
-1.65772465085544
 20
1.478961139017013
 42
-0.1071754848060475
 10
-1.682410816826025
 20
1.503512064161665
 42
-0.0783035184710328
 10
-1.697357484448387
 20
1.537133318512463
 42
-0.0656020556757086
 10
-1.703084554064493
 20
1.580595542145769
 42
-0.0656020556757101
 10
-1.697357484448387
 20
1.624057765779067
 42
-0.0783035184710357
 10
-1.682410816826025
 20
1.657679020129866
 42
-0.1071754848060445
 10
-1.65772465085544
 20
1.682229945274518
 42
-0.1432467981947535
 10
-1.632499999999983
 20
1.689608042145768
 42
-0.1432467981947515
  0
LINE
  5
1A1
330
2
100
AcDbEntity
  8
0
100
AcDbLine
 10
-1.632499999999983
 20
1.442258042145763
 30
0.0
 11
-1.632499999999983
 21
1.718933042145768
 31
0.0
  0
LWPOLYLINE
  5
1A2
330
2
100
AcDbEntity
  8
0
100
AcDbPolyline
 90
        9
 70
     0
 43
0.0
 10
-1.632499999999983
 20
1.500908042145763
 42
-0.147269582437036
 10
-1.650196423162524
 20
1.506235883833558
 42
-0.1071386913803464
 10
-1.667748316826025
 20
1.524247970519962
 42
-0.0765137470862007
 10
-1.678290230872794
 20
1.548752708554122
 42
-0.063469041210727
 10
-1.682348647706196
 20
1.580595542145769
 42
-0.0634690412107267
 10
-1.678290230872794
 20
1.612438375737408
 42
-0.0765137470862059
 10
-1.667748316826025
 20
1.636943113771569
 42
-0.1071386913803463
 10
-1.650196423162524
 20
1.654955200457973
 42
-0.1472695824370325
 10
-1.632499999999983
 20
1.660283042145768
 42
-0.1472695824370333
  0
LWPOLYLINE
  5
1A3
330
2
100
AcDbEntity
  8
0
100
AcDbPolyline
 90
        9
 70
     0
 43
0.0
 10
-1.632499999999991
 20
3.784083042145763
 42
-0.1432467981947568
 10
-1.657724650855447
 20
3.791461139017013
 42
-0.1071754848060475
 10
-1.682410816826033
 20
3.816012064161665
 42
-0.0783035184710328
 10
-1.697357484448394
 20
3.849633318512463
 42
-0.0656020556757086
 10
-1.703084554064501
 20
3.893095542145769
 42
-0.0656020556757101
 10
-1.697357484448394
 20
3.936557765779067
 42
-0.0783035184710357
 10
-1.682410816826033
 20
3.970179020129866
 42
-0.1071754848060445
 10
-1.657724650855447
 20
3.994729945274518
 42
-0.1432467981947535
 10
-1.632499999999991
 20
4.002108042145768
 42
-0.1432467981947515
  0
LINE
  5
1A4
330
2
100
AcDbEntity
  8
0
100
AcDbLine
 10
-1.632499999999991
 20
3.754758042145763
 30
0.0
 11
-1.632499999999991
 21
4.031433042145768
 31
0.0
  0
LWPOLYLINE
  5
1A5
330
2
100
AcDbEntity
  8
0
100
AcDbPolyline
 90
        9
 70
     0
 43
0.0
 10
-1.632499999999991
 20
3.813408042145763
 42
-0.147269582437036
 10
-1.650196423162531
 20
3.818735883833558
 42
-0.1071386913803464
 10
-1.667748316826033
 20
3.836747970519962
 42
-0.0765137470862007
 10
-1.678290230872801
 20
3.861252708554122
 42
-0.063469041210727
 10
-1.682348647706204
 20
3.893095542145769
 42
-0.0634690412107267
 10
-1.678290230872801
 20
3.924938375737408
 42
-0.0765137470862059
 10
-1.667748316826033
 20
3.949443113771569
 42
-0.1071386913803463
 10
-1.650196423162531
 20
3.967455200457973
 42
-0.1472695824370325
 10
-1.632499999999991
 20
3.972783042145768
 42
-0.1472695824370333
  0
LWPOLYLINE
  5
1A6
330
2
100
AcDbEntity
  8
0
100
AcDbPolyline
 90
        9
 70
     0
 43
0.0
 10
1.632499999999996
 20
0.9614463774076363
 42
0.1432467981947568
 10
1.657724650855452
 20
0.9688244742788861
 42
0.1071754848060475
 10
1.682410816826038
 20
0.9933753994235381
 42
0.0783035184710328
 10
1.697357484448399
 20
1.026996653774337
 42
0.0656020556757086
 10
1.703084554064506
 20
1.070458877407642
 42
0.0656020556757101
 10
1.697357484448399
 20
1.11392110104094
 42
0.0783035184710357
 10
1.682410816826038
 20
1.147542355391739
 42
0.1071754848060445
 10
1.657724650855452
 20
1.172093280536391
 42
0.1432467981947535
 10
1.632499999999996
 20
1.179471377407641
 42
0.1432467981947515
  0
LINE
  5
1A7
330
2
100
AcDbEntity
  8
0
100
AcDbLine
 10
1.632499999999996
 20
0.9321213774076362
 30
0.0
 11
1.632499999999996
 21
1.208796377407641
 31
0.0
  0
LWPOLYLINE
  5
1A8
330
2
100
AcDbEntity
  8
0
100
AcDbPolyline
 90
        9
 70
     0
 43
0.0
 10
1.632499999999996
 20
0.9907713774076363
 42
0.147269582437036
 10
1.650196423162536
 20
0.9960992190954308
 42
0.1071386913803464
 10
1.667748316826038
 20
1.014111305781835
 42
0.0765137470862007
 10
1.678290230872807
 20
1.038616043815996
 42
0.063469041210727
 10
1.682348647706209
 20
1.070458877407642
 42
0.0634690412107267
 10
1.678290230872807
 20
1.102301710999281
 42
0.0765137470862059
 10
1.667748316826038
 20
1.126806449033442
 42
0.1071386913803463
 10
1.650196423162536
 20
1.144818535719846
 42
0.1472695824370325
 10
1.632499999999996
 20
1.150146377407641
 42
0.1472695824370333
  0
LWPOLYLINE
  5
1A9
330
2
100
AcDbEntity
  8
0
100
AcDbPolyline
 90
        9
 70
     0
 43
0.0
 10
1.632499999999996
 20
3.903505514221692
 42
0.1432467981947568
 10
1.657724650855452
 20
3.910883611092942
 42
0.1071754848060475
 10
1.682410816826038
 20
3.935434536237594
 42
0.0783035184710328
 10
1.697357484448399
 20
3.969055790588392
 42
0.0656020556757086
 10
1.703084554064506
 20
4.012518014221698
 42
0.0656020556757101
 10
1.697357484448399
 20
4.055980237854996
 42
0.0783035184710357
 10
1.682410816826038
 20
4.089601492205794
 42
0.1071754848060445
 10
1.657724650855452
 20
4.114152417350447
 42
0.1432467981947535
 10
1.632499999999996
 20
4.121530514221696
 42
0.1432467981947515
  0
LINE
  5
1AA
330
2
100
AcDbEntity
  8
0
100
AcDbLine
 10
1.632499999999996
 20
3.874180514221692
 30
0.0
 11
1.632499999999996
 21
4.150855514221696
 31
0.0
  0
LWPOLYLINE
  5
1AB
330
2
100
AcDbEntity
  8
0
100
AcDbPolyline
 90
        9
 70
     0
 43
0.0
 10
1.632499999999996
 20
3.932830514221692
 42
0.147269582437036
 10
1.650196423162536
 20
3.938158355909486
 42
0.1071386913803464
 10
1.667748316826038
 20
3.956170442595891
 42
0.0765137470862007
 10
1.678290230872807
 20
3.980675180630051
 42
0.063469041210727
 10
1.682348647706209
 20
4.012518014221698
 42
0.0634690412107267
 10
1.678290230872807
 20
4.044360847813337
 42
0.0765137470862059
 10
1.667748316826038
 20
4.068865585847497
 42
0.1071386913803463
 10
1.650196423162536
 20
4.086877672533902
 42
0.1472695824370325
 10
1.632499999999996
 20
4.092205514221696
 42
0.1472695824370333
  0
LWPOLYLINE
  5
1AC
330
2
100
AcDbEntity
  8
0
100
AcDbPolyline
 90
        9
 70
     0
 43
0.0
 10
-1.632499999999991
 20
5.784083042145763
 42
-0.1432467981947568
 10
-1.657724650855447
 20
5.791461139017013
 42
-0.1071754848060475
 10
-1.682410816826033
 20
5.816012064161665
 42
-0.0783035184710328
 10
-1.697357484448394
 20
5.849633318512463
 42
-0.0656020556757086
 10
-1.703084554064501
 20
5.893095542145769
 42
-0.0656020556757101
 10
-1.697357484448394
 20
5.936557765779067
 42
-0.0783035184710357
 10
-1.682410816826033
 20
5.970179020129866
 42
-0.1071754848060445
 10
-1.657724650855447
 20
5.994729945274518
 42
-0.1432467981947535
 10
-1.632499999999991
 20
6.002108042145768
 42
-0.1432467981947515
  0
LINE
  5
1AD
330
2
100
AcDbEntity
  8
0
100
AcDbLine
 10
-1.632499999999991
 20
5.754758042145763
 30
0.0
 11
-1.632499999999991
 21
6.031433042145768
 31
0.0
  0
LWPOLYLINE
  5
1AE
330
2
100
AcDbEntity
  8
0
100
AcDbPolyline
 90
        9
 70
     0
 43
0.0
 10
-1.632499999999991
 20
5.813408042145763
 42
-0.147269582437036
 10
-1.650196423162531
 20
5.818735883833558
 42
-0.1071386913803464
 10
-1.667748316826033
 20
5.836747970519962
 42
-0.0765137470862007
 10
-1.678290230872801
 20
5.861252708554122
 42
-0.063469041210727
 10
-1.682348647706204
 20
5.893095542145769
 42
-0.0634690412107267
 10
-1.678290230872801
 20
5.924938375737408
 42
-0.0765137470862059
 10
-1.667748316826033
 20
5.949443113771569
 42
-0.1071386913803463
 10
-1.650196423162531
 20
5.967455200457973
 42
-0.1472695824370325
 10
-1.632499999999991
 20
5.972783042145768
 42
-0.1472695824370333
  0
LWPOLYLINE
  5
1AF
330
2
100
AcDbEntity
  8
0
100
AcDbPolyline
 90
        9
 70
     0
 43
0.0
 10
-1.632499999999991
 20
7.784083042145763
 42
-0.1432467981947568
 10
-1.657724650855447
 20
7.791461139017013
 42
-0.1071754848060475
 10
-1.682410816826033
 20
7.816012064161665
 42
-0.0783035184710328
 10
-1.697357484448394
 20
7.849633318512463
 42
-0.0656020556757086
 10
-1.703084554064501
 20
7.893095542145769
 42
-0.0656020556757101
 10
-1.697357484448394
 20
7.936557765779067
 42
-0.0783035184710357
 10
-1.682410816826033
 20
7.970179020129866
 42
-0.1071754848060445
 10
-1.657724650855447
 20
7.994729945274518
 42
-0.1432467981947535
 10
-1.632499999999991
 20
8.002108042145768
 42
-0.1432467981947515
  0
LINE
  5
1B0
330
2
100
AcDbEntity
  8
0
100
AcDbLine
 10
-1.632499999999991
 20
7.754758042145763
 30
0.0
 11
-1.632499999999991
 21
8.031433042145768
 31
0.0
  0
LWPOLYLINE
  5
1B1
330
2
100
AcDbEntity
  8
0
100
AcDbPolyline
 90
        9
 70
     0
 43
0.0
 10
-1.632499999999991
 20
7.813408042145763
 42
-0.147269582437036
 10
-1.650196423162531
 20
7.818735883833558
 42
-0.1071386913803464
 10
-1.667748316826033
 20
7.836747970519962
 42
-0.0765137470862007
 10
-1.678290230872801
 20
7.861252708554122
 42
-0.063469041210727
 10
-1.682348647706204
 20
7.893095542145769
 42
-0.0634690412107267
 10
-1.678290230872801
 20
7.924938375737408
 42
-0.0765137470862059
 10
-1.667748316826033
 20
7.949443113771569
 42
-0.1071386913803463
 10
-1.650196423162531
 20
7.967455200457973
 42
-0.1472695824370325
 10
-1.632499999999991
 20
7.972783042145768
 42
-0.1472695824370333
  0
LWPOLYLINE
  5
1B2
330
2
100
AcDbEntity
  8
0
100
AcDbPolyline
 90
        9
 70
     0
 43
0.0
 10
1.632499999999996
 20
5.903505514221692
 42
0.1432467981947568
 10
1.657724650855452
 20
5.910883611092942
 42
0.1071754848060475
 10
1.682410816826038
 20
5.935434536237594
 42
0.0783035184710328
 10
1.697357484448399
 20
5.969055790588392
 42
0.0656020556757086
 10
1.703084554064506
 20
6.012518014221698
 42
0.0656020556757101
 10
1.697357484448399
 20
6.055980237854996
 42
0.0783035184710357
 10
1.682410816826038
 20
6.089601492205794
 42
0.1071754848060445
 10
1.657724650855452
 20
6.114152417350447
 42
0.1432467981947535
 10
1.632499999999996
 20
6.121530514221696
 42
0.1432467981947515
  0
LINE
  5
1B3
330
2
100
AcDbEntity
  8
0
100
AcDbLine
 10
1.632499999999996
 20
5.874180514221692
 30
0.0
 11
1.632499999999996
 21
6.150855514221696
 31
0.0
  0
LWPOLYLINE
  5
1B4
330
2
100
AcDbEntity
  8
0
100
AcDbPolyline
 90
        9
 70
     0
 43
0.0
 10
1.632499999999996
 20
5.932830514221692
 42
0.147269582437036
 10
1.650196423162536
 20
5.938158355909486
 42
0.1071386913803464
 10
1.667748316826038
 20
5.956170442595891
 42
0.0765137470862007
 10
1.678290230872807
 20
5.980675180630051
 42
0.063469041210727
 10
1.682348647706209
 20
6.012518014221698
 42
0.0634690412107267
 10
1.678290230872807
 20
6.044360847813337
 42
0.0765137470862059
 10
1.667748316826038
 20
6.068865585847497
 42
0.1071386913803463
 10
1.650196423162536
 20
6.086877672533902
 42
0.1472695824370325
 10
1.632499999999996
 20
6.092205514221696
 42
0.1472695824370333
  0
LWPOLYLINE
  5
1B5
330
2
100
AcDbEntity
  8
0
100
AcDbPolyline
 90
        9
 70
     0
 43
0.0
 10
1.632499999999996
 20
7.903505514221692
 42
0.1432467981947568
 10
1.657724650855452
 20
7.910883611092942
 42
0.1071754848060475
 10
1.682410816826038
 20
7.935434536237594
 42
0.0783035184710328
 10
1.697357484448399
 20
7.969055790588392
 42
0.0656020556757086
 10
1.703084554064506
 20
8.012518014221698
 42
0.0656020556757101
 10
1.697357484448399
 20
8.055980237854996
 42
0.0783035184710357
 10
1.682410816826038
 20
8.089601492205794
 42
0.1071754848060445
 10
1.657724650855452
 20
8.114152417350447
 42
0.1432467981947535
 10
1.632499999999996
 20
8.121530514221696
 42
0.1432467981947515
  0
LINE
  5
1B6
330
2
100
AcDbEntity
  8
0
100
AcDbLine
 10
1.632499999999996
 20
7.874180514221692
 30
0.0
 11
1.632499999999996
 21
8.150855514221696
 31
0.0
  0
LWPOLYLINE
  5
1B7
330
2
100
AcDbEntity
  8
0
100
AcDbPolyline
 90
        9
 70
     0
 43
0.0
 10
1.632499999999996
 20
7.932830514221692
 42
0.147269582437036
 10
1.650196423162536
 20
7.938158355909486
 42
0.1071386913803464
 10
1.667748316826038
 20
7.956170442595891
 42
0.0765137470862007
 10
1.678290230872807
 20
7.980675180630051
 42
0.063469041210727
 10
1.682348647706209
 20
8.012518014221698
 42
0.0634690412107267
 10
1.678290230872807
 20
8.044360847813337
 42
0.0765137470862059
 10
1.667748316826038
 20
8.068865585847497
 42
0.1071386913803463
 10
1.650196423162536
 20
8.086877672533902
 42
0.1472695824370325
 10
1.632499999999996
 20
8.092205514221696
 42
0.1472695824370333
  0
ENDSEC
  0
SECTION
  2
OBJECTS
  0
DICTIONARY
  5
9
330
0
100
AcDbDictionary
281
     1
  3
ACAD_COLOR
350
23A
  3
ACAD_GROUP
350
23
  3
ACAD_LAYOUT
350
D
  3
ACAD_MATERIAL
350
239
  3
ACAD_MLINESTYLE
350
24
  3
ACAD_PLOTSETTINGS
350
25
  3
ACAD_PLOTSTYLENAME
350
8
  3
ACAD_TABLESTYLE
350
23B
  3
ACDBHEADERROUNDTRIPXREC
350
267
  3
AcDbVariableDictionary
350
F6
  0
DICTIONARY
  5
23A
102
{ACAD_REACTORS
330
9
102
}
330
9
100
AcDbDictionary
281
     1
  0
DICTIONARY
  5
23
102
{ACAD_REACTORS
330
9
102
}
330
9
100
AcDbDictionary
281
     1
  0
DICTIONARY
  5
D
102
{ACAD_REACTORS
330
9
102
}
330
9
100
AcDbDictionary
281
     1
  3
Layout1
350
13
  3
Model
350
C
  0
DICTIONARY
  5
239
102
{ACAD_REACTORS
330
9
102
}
330
9
100
AcDbDictionary
281
     1
  0
DICTIONARY
  5
24
102
{ACAD_REACTORS
330
9
102
}
330
9
100
AcDbDictionary
281
     1
  3
STANDARD
350
27
  0
DICTIONARY
  5
25
102
{ACAD_REACTORS
330
9
102
}
330
9
100
AcDbDictionary
281
     1
  0
ACDBDICTIONARYWDFLT
  5
8
102
{ACAD_REACTORS
330
9
102
}
330
9
100
AcDbDictionary
281
     1
  3
Normal
350
7
100
AcDbDictionaryWithDefault
340
7
  0
DICTIONARY
  5
23B
102
{ACAD_REACTORS
330
9
102
}
330
9
100
AcDbDictionary
281
     1
  3
Standard
350
23C
  0
DICTIONARY
  5
267
102
{ACAD_REACTORS
330
9
102
}
330
9
100
AcDbDictionary
281
     1
  3
COLORDICT
350
268
  3
MATERIALDICT
350
269
  0
DICTIONARY
  5
F6
102
{ACAD_REACTORS
330
9
102
}
330
9
100
AcDbDictionary
281
     1
  3
CTABLESTYLE
350
264
  3
HIDETEXT
350
266
  0
LAYOUT
  5
13
102
{ACAD_REACTORS
330
D
102
}
102
{ACAD_XDICTIONARY
360
26A
102
}
330
D
100
AcDbPlotSettings
  1

  2
C:\ACAD2000\plotters\HP LaserJet 2100 Series PS.pc3
  4

  6

 40
0.0
 41
0.0
 42
0.0
 43
0.0
 44
0.0
 45
0.0
 46
0.0
 47
0.0
 48
0.0
 49
0.0
140
0.0
141
0.0
142
1.0
143
1.0
 70
   688
 72
     0
 73
     0
 74
     5
  7

 75
    16
147
1.0
148
0.0
149
0.0
100
AcDbLayout
  1
Layout1
 70
     0
 71
     1
 10
0.0
 20
0.0
 11
12.0
 21
9.0
 12
0.0
 22
0.0
 32
0.0
 14
1.000000000000000E+20
 24
1.000000000000000E+20
 34
1.000000000000000E+20
 15
-1.000000000000000E+20
 25
-1.000000000000000E+20
 35
-1.000000000000000E+20
146
0.0
 13
0.0
 23
0.0
 33
0.0
 16
1.0
 26
0.0
 36
0.0
 17
0.0
 27
1.0
 37
0.0
 76
     0
330
E
  0
LAYOUT
  5
C
102
{ACAD_REACTORS
330
D
102
}
102
{ACAD_XDICTIONARY
360
26C
102
}
330
D
100
AcDbPlotSettings
  1

  2
HP LaserJet 2100 Series PS
  4
Letter
  6

 40
3.174999952316284
 41
3.174999952316284
 42
3.175003051757813
 43
3.17498779296875
 44
215.9000091552734
 45
279.3999938964844
 46
0.0
 47
0.0
 48
0.0
 49
0.0
140
0.0
141
0.0
142
1.0
143
3.255781322003443
 70
 28336
 72
     0
 73
     0
 74
     2
  7

 75
     0
147
0.3071459355214467
148
0.0
149
0.0
100
AcDbLayout
  1
Model
 70
     1
 71
     0
 10
0.0
 20
0.0
 11
12.0
 21
9.0
 12
0.0
 22
0.0
 32
0.0
 14
0.0
 24
0.0
 34
0.0
 15
0.0
 25
0.0
 35
0.0
146
0.0
 13
0.0
 23
0.0
 33
0.0
 16
1.0
 26
0.0
 36
0.0
 17
0.0
 27
1.0
 37
0.0
 76
     0
330
2
  0
MLINESTYLE
  5
27
102
{ACAD_REACTORS
330
24
102
}
330
24
100
AcDbMlineStyle
  2
STANDARD
 70
     0
  3

 62
   256
 51
90.0
 52
90.0
 71
     2
 49
0.5
 62
   256
  6
BYLAYER
 49
-0.5
 62
   256
  6
BYLAYER
  0
ACDBPLACEHOLDER
  5
7
102
{ACAD_REACTORS
330
8
102
}
330
8
  0
ACAD_PROXY_OBJECT
  5
23C
102
{ACAD_REACTORS
330
23B
102
}
330
23B
100
AcDbProxyObject
 90
      499
 91
      529
 95
   983063
 70
     0
 93
     1841
310
4214DD185B99185C9928B81E85EB51B8AE3F2E07A17AD46E2B8FC02B5E8DC0F42B1CFD028000000C1008070000C3001FDFF8000000C1003FBFF000000182007F7FE00000030400FEFFC00000060801FDFF8000000C1003FBFF00000018200000000000000681FA0B0000001820100E000186003FBFF000000182007F7FE000
310
00030400FEFFC00000060801FDFF8000000C1003FBFF000000182007F7FE000000304000AD7A3703D0AC73F4160000003040201C00030C007F7FE00000030400FEFFC00000060801FDFF8000000C1003FBFF000000182007F7FE00000030400FEFFC000000608000
340
16
340
16
340
16
 94
        0
  0
XRECORD
  5
268
102
{ACAD_REACTORS
330
267
102
}
330
267
100
AcDbXrecord
340
23A
  0
XRECORD
  5
269
102
{ACAD_REACTORS
330
267
102
}
330
267
100
AcDbXrecord
340
239
  0
DICTIONARYVAR
  5
264
102
{ACAD_REACTORS
330
F6
102
}
330
F6
100
DictionaryVariables
280
     0
  1
STANDARD
  0
DICTIONARYVAR
  5
266
102
{ACAD_REACTORS
330
F6
102
}
330
F6
100
DictionaryVariables
280
     0
  1
0
  0
DICTIONARY
  5
26A
330
13
100
AcDbDictionary
280
     1
281
     1
  3
ACAD_XREC_ROUNDTRIP
360
26B
  0
DICTIONARY
  5
26C
330
C
100
AcDbDictionary
280
     1
281
     1
  3
ACAD_XREC_ROUNDTRIP
360
26D
  0
XRECORD
  5
26B
102
{ACAD_REACTORS
330
26A
102
}
330
26A
100
AcDbXrecord
102
SHADEPLOT
 70
     0
102
SHADEPLOTRESLEVEL
 70
     2
102
SHADEPLOTCUSTOMDPI
 70
   300
  0
XRECORD
  5
26D
102
{ACAD_REACTORS
330
26C
102
}
330
26C
100
AcDbXrecord
102
SHADEPLOT
 70
     0
102
SHADEPLOTRESLEVEL
 70
     2
102
SHADEPLOTCUSTOMDPI
 70
   300
  0
ENDSEC
  0
EOF
