  0
SECTION
  2
HEADER
  9
$ACADVER
  1
AC1015
  9
$ACADMAINTVER
 70
     6
  9
$DWGCODEPAGE
  3
ANSI_1252
  9
$INSBASE
 10
0.0
 20
0.0
 30
0.0
  9
$EXTMIN
 10
-11.25743455261161
 20
-0.0299061694871057
 30
-0.0000000000112498
  9
$EXTMAX
 10
11.25799778743739
 20
18.08541985034481
 30
0.0000000000002956
  9
$LIMMIN
 10
0.0
 20
0.0
  9
$LIMMAX
 10
26.6664
 20
34.99965
  9
$ORTHOMODE
 70
     1
  9
$REGENMODE
 70
     1
  9
$FILLMODE
 70
     1
  9
$QTEXTMODE
 70
     0
  9
$MIRRTEXT
 70
     0
  9
$LTSCALE
 40
1.0
  9
$ATTMODE
 70
     1
  9
$TEXTSIZE
 40
0.299997
  9
$TRACEWID
 40
0.05
  9
$TEXTSTYLE
  7
STANDARD
  9
$CLAYER
  8
0
  9
$CELTYPE
  6
BYLAYER
  9
$CECOLOR
 62
   256
  9
$CELTSCALE
 40
1.0
  9
$DISPSILH
 70
     0
  9
$DIMSCALE
 40
3.3333
  9
$DIMASZ
 40
0.125
  9
$DIMEXO
 40
0.062
  9
$DIMDLI
 40
0.375
  9
$DIMRND
 40
0.0
  9
$DIMDLE
 40
0.0
  9
$DIMEXE
 40
0.08
  9
$DIMTP
 40
0.0
  9
$DIMTM
 40
0.0
  9
$DIMTXT
 40
0.09
  9
$DIMCEN
 40
-0.03125
  9
$DIMTSZ
 40
0.0
  9
$DIMTOL
 70
     0
  9
$DIMLIM
 70
     0
  9
$DIMTIH
 70
     1
  9
$DIMTOH
 70
     1
  9
$DIMSE1
 70
     0
  9
$DIMSE2
 70
     0
  9
$DIMTAD
 70
     0
  9
$DIMZIN
 70
     0
  9
$DIMBLK
  1

  9
$DIMASO
 70
     0
  9
$DIMSHO
 70
     0
  9
$DIMPOST
  1

  9
$DIMAPOST
  1

  9
$DIMALT
 70
     0
  9
$DIMALTD
 70
     2
  9
$DIMALTF
 40
25.4
  9
$DIMLFAC
 40
1.0
  9
$DIMTOFL
 70
     0
  9
$DIMTVP
 40
0.0
  9
$DIMTIX
 70
     0
  9
$DIMSOXD
 70
     0
  9
$DIMSAH
 70
     0
  9
$DIMBLK1
  1

  9
$DIMBLK2
  1

  9
$DIMSTYLE
  2
STANDARD
  9
$DIMCLRD
 70
     0
  9
$DIMCLRE
 70
     0
  9
$DIMCLRT
 70
     0
  9
$DIMTFAC
 40
1.0
  9
$DIMGAP
 40
0.09
  9
$DIMJUST
 70
     0
  9
$DIMSD1
 70
     0
  9
$DIMSD2
 70
     0
  9
$DIMTOLJ
 70
     1
  9
$DIMTZIN
 70
     0
  9
$DIMALTZ
 70
     0
  9
$DIMALTTZ
 70
     0
  9
$DIMUPT
 70
     0
  9
$DIMDEC
 70
     6
  9
$DIMTDEC
 70
     6
  9
$DIMALTU
 70
     5
  9
$DIMALTTD
 70
     2
  9
$DIMTXSTY
  7
STANDARD
  9
$DIMAUNIT
 70
     0
  9
$DIMADEC
 70
     0
  9
$DIMALTRND
 40
0.0
  9
$DIMAZIN
 70
     0
  9
$DIMDSEP
 70
    46
  9
$DIMATFIT
 70
     3
  9
$DIMFRAC
 70
     0
  9
$DIMLDRBLK
  1

  9
$DIMLUNIT
 70
     5
  9
$DIMLWD
 70
    -2
  9
$DIMLWE
 70
    -2
  9
$DIMTMOVE
 70
     2
  9
$LUNITS
 70
     5
  9
$LUPREC
 70
     6
  9
$SKETCHINC
 40
0.1
  9
$FILLETRAD
 40
0.0
  9
$AUNITS
 70
     0
  9
$AUPREC
 70
     0
  9
$MENU
  1
acad
  9
$ELEVATION
 40
0.0
  9
$PELEVATION
 40
0.0
  9
$THICKNESS
 40
0.0
  9
$LIMCHECK
 70
     0
  9
$CHAMFERA
 40
0.0
  9
$CHAMFERB
 40
0.0
  9
$CHAMFERC
 40
0.0
  9
$CHAMFERD
 40
0.0
  9
$SKPOLY
 70
     0
  9
$TDCREATE
 40
2449874.731787847
  9
$TDUCREATE
 40
2449875.06512118
  9
$TDUPDATE
 40
2454166.746480926
  9
$TDUUPDATE
 40
2454167.079814259
  9
$TDINDWG
 40
0.0440298032
  9
$TDUSRTIMER
 40
0.0440298032
  9
$USRTIMER
 70
     1
  9
$ANGBASE
 50
0.0
  9
$ANGDIR
 70
     0
  9
$PDMODE
 70
     0
  9
$PDSIZE
 40
0.0
  9
$PLINEWID
 40
0.0
  9
$SPLFRAME
 70
     0
  9
$SPLINETYPE
 70
     6
  9
$SPLINESEGS
 70
     8
  9
$HANDSEED
  5
323
  9
$SURFTAB1
 70
     6
  9
$SURFTAB2
 70
     6
  9
$SURFTYPE
 70
     6
  9
$SURFU
 70
     6
  9
$SURFV
 70
     6
  9
$UCSBASE
  2

  9
$UCSNAME
  2

  9
$UCSORG
 10
0.0
 20
0.0
 30
0.0
  9
$UCSXDIR
 10
1.0
 20
0.0
 30
0.0
  9
$UCSYDIR
 10
0.0
 20
1.0
 30
0.0
  9
$UCSORTHOREF
  2

  9
$UCSORTHOVIEW
 70
     0
  9
$UCSORGTOP
 10
0.0
 20
0.0
 30
0.0
  9
$UCSORGBOTTOM
 10
0.0
 20
0.0
 30
0.0
  9
$UCSORGLEFT
 10
0.0
 20
0.0
 30
0.0
  9
$UCSORGRIGHT
 10
0.0
 20
0.0
 30
0.0
  9
$UCSORGFRONT
 10
0.0
 20
0.0
 30
0.0
  9
$UCSORGBACK
 10
0.0
 20
0.0
 30
0.0
  9
$PUCSBASE
  2

  9
$PUCSNAME
  2

  9
$PUCSORG
 10
0.0
 20
0.0
 30
0.0
  9
$PUCSXDIR
 10
1.0
 20
0.0
 30
0.0
  9
$PUCSYDIR
 10
0.0
 20
1.0
 30
0.0
  9
$PUCSORTHOREF
  2

  9
$PUCSORTHOVIEW
 70
     0
  9
$PUCSORGTOP
 10
0.0
 20
0.0
 30
0.0
  9
$PUCSORGBOTTOM
 10
0.0
 20
0.0
 30
0.0
  9
$PUCSORGLEFT
 10
0.0
 20
0.0
 30
0.0
  9
$PUCSORGRIGHT
 10
0.0
 20
0.0
 30
0.0
  9
$PUCSORGFRONT
 10
0.0
 20
0.0
 30
0.0
  9
$PUCSORGBACK
 10
0.0
 20
0.0
 30
0.0
  9
$USERI1
 70
     0
  9
$USERI2
 70
     0
  9
$USERI3
 70
     0
  9
$USERI4
 70
     0
  9
$USERI5
 70
     0
  9
$USERR1
 40
0.0
  9
$USERR2
 40
0.0
  9
$USERR3
 40
0.0
  9
$USERR4
 40
0.0
  9
$USERR5
 40
0.0
  9
$WORLDVIEW
 70
     1
  9
$SHADEDGE
 70
     3
  9
$SHADEDIF
 70
    70
  9
$TILEMODE
 70
     1
  9
$MAXACTVP
 70
    16
  9
$PINSBASE
 10
0.0
 20
0.0
 30
0.0
  9
$PLIMCHECK
 70
     0
  9
$PEXTMIN
 10
1.000000000000000E+20
 20
1.000000000000000E+20
 30
1.000000000000000E+20
  9
$PEXTMAX
 10
-1.000000000000000E+20
 20
-1.000000000000000E+20
 30
-1.000000000000000E+20
  9
$PLIMMIN
 10
0.0
 20
0.0
  9
$PLIMMAX
 10
12.0
 20
9.0
  9
$UNITMODE
 70
     0
  9
$VISRETAIN
 70
     0
  9
$PLINEGEN
 70
     1
  9
$PSLTSCALE
 70
     0
  9
$TREEDEPTH
 70
  3020
  9
$CMLSTYLE
  2
STANDARD
  9
$CMLJUST
 70
     0
  9
$CMLSCALE
 40
1.0
  9
$PROXYGRAPHICS
 70
     1
  9
$MEASUREMENT
 70
     0
  9
$CELWEIGHT
370
    -1
  9
$ENDCAPS
280
     0
  9
$JOINSTYLE
280
     0
  9
$LWDISPLAY
290
     0
  9
$INSUNITS
 70
     0
  9
$HYPERLINKBASE
  1

  9
$STYLESHEET
  1

  9
$XEDIT
290
     1
  9
$CEPSNTYPE
380
     0
  9
$PSTYLEMODE
290
     1
  9
$FINGERPRINTGUID
  2
{ED6771B1-63D7-4FF2-A35F-D8F9CF579DDC}
  9
$VERSIONGUID
  2
{D695378B-0345-4965-95E5-677B9BE36453}
  9
$EXTNAMES
290
     1
  9
$PSVPSCALE
 40
0.0
  9
$OLESTARTUP
290
     0
  0
ENDSEC
  0
SECTION
  2
CLASSES
  0
CLASS
  1
DICTIONARYVAR
  2
AcDbDictionaryVar
  3
AutoCAD 2000
 90
        0
280
     0
281
     0
  0
CLASS
  1
ACDBDICTIONARYWDFLT
  2
AcDbDictionaryWithDefault
  3
AutoCAD 2000
 90
        0
280
     0
281
     0
  0
CLASS
  1
ACDBPLACEHOLDER
  2
AcDbPlaceHolder
  3
ObjectDBX Classes
 90
        0
280
     0
281
     0
  0
CLASS
  1
LAYOUT
  2
AcDbLayout
  3
ObjectDBX Classes
 90
        0
280
     0
281
     0
  0
CLASS
  1
LONG_TRANSACTION
  2
AcDbLongTransaction
  3
ObjectDBX Classes
 90
   -65536
280
     1
281
     0
  0
CLASS
  1
LWPOLYLINE
  2
AcDbPolyline
  3
AutoCAD 2000
 90
        0
280
     0
281
     1
  0
CLASS
  1
HATCH
  2
AcDbHatch
  3
AutoCAD 2000
 90
        0
280
     0
281
     1
  0
CLASS
  1
XRECORD
  2
AcDbXrecord
  3
AutoCAD 2000
 90
        0
280
     0
281
     0
  0
CLASS
  1
TABLESTYLE
  2
AcDbTableStyle
  3
ObjectDBX Classes
 90
     2047
280
     1
281
     0
  0
ENDSEC
  0
SECTION
  2
TABLES
  0
TABLE
  2
VPORT
  5
1D
330
0
100
AcDbSymbolTable
 70
     6
  0
VPORT
  5
313
330
1D
100
AcDbSymbolTableRecord
100
AcDbViewportTableRecord
  2
*Active
 70
     0
 10
0.0
 20
0.0
 11
1.0
 21
1.0
 12
8.665034100765496
 22
13.79044326062931
 13
0.0
 23
0.0
 14
0.063
 24
0.063
 15
0.25
 25
0.25
 16
0.0
 26
0.0
 36
1.0
 17
0.0
 27
0.0
 37
0.0
 40
35.46651529829786
 41
1.814583333333333
 42
50.0
 43
0.0
 44
0.0
 50
0.0
 51
0.0
 71
     0
 72
   100
 73
     1
 74
     0
 75
     0
 76
     0
 77
     0
 78
     0
281
     0
 65
     1
110
0.0
120
0.0
130
0.0
111
1.0
121
0.0
131
0.0
112
0.0
122
1.0
132
0.0
 79
     0
146
0.0
  0
ENDTAB
  0
TABLE
  2
LTYPE
  5
18
330
0
100
AcDbSymbolTable
 70
     2
  0
LTYPE
  5
19
330
18
100
AcDbSymbolTableRecord
100
AcDbLinetypeTableRecord
  2
BYBLOCK
 70
     0
  3

 72
    65
 73
     0
 40
0.0
  0
LTYPE
  5
1A
330
18
100
AcDbSymbolTableRecord
100
AcDbLinetypeTableRecord
  2
BYLAYER
 70
     0
  3

 72
    65
 73
     0
 40
0.0
  0
LTYPE
  5
A
330
18
100
AcDbSymbolTableRecord
100
AcDbLinetypeTableRecord
  2
CONTINUOUS
 70
     0
  3
Solid line
 72
    65
 73
     0
 40
0.0
  0
LTYPE
  5
2FA
330
18
100
AcDbSymbolTableRecord
100
AcDbLinetypeTableRecord
  2
HIDDEN
 70
     0
  3
Hidden __ __ __ __ __ __ __ __ __ __ __ __ __ _
 72
    65
 73
     2
 40
0.375
 49
0.25
 74
     0
 49
-0.125
 74
     0
  0
ENDTAB
  0
TABLE
  2
LAYER
  5
14
330
0
100
AcDbSymbolTable
 70
     1
  0
LAYER
  5
6
330
14
100
AcDbSymbolTableRecord
100
AcDbLayerTableRecord
  2
0
 70
     0
 62
     7
  6
CONTINUOUS
370
    -3
390
7
  0
ENDTAB
  0
TABLE
  2
STYLE
  5
15
330
0
100
AcDbSymbolTable
 70
     2
  0
STYLE
  5
16
330
15
100
AcDbSymbolTableRecord
100
AcDbTextStyleTableRecord
  2
STANDARD
 70
     0
 40
0.0
 41
1.0
 50
0.0
 71
     0
 42
0.299997
  3
TXT
  4

  0
STYLE
  5
2F9
330
15
100
AcDbSymbolTableRecord
100
AcDbTextStyleTableRecord
  2

 70
     1
 40
0.0
 41
1.0
 50
0.0
 71
     0
 42
0.299997
  3
ltypeshp.shx
  4

  0
ENDTAB
  0
TABLE
  2
VIEW
  5
1B
330
0
100
AcDbSymbolTable
 70
     0
  0
ENDTAB
  0
TABLE
  2
UCS
  5
1C
330
0
100
AcDbSymbolTable
 70
     0
  0
ENDTAB
  0
TABLE
  2
APPID
  5
1F
330
0
100
AcDbSymbolTable
 70
     1
  0
APPID
  5
20
330
1F
100
AcDbSymbolTableRecord
100
AcDbRegAppTableRecord
  2
ACAD
 70
     0
  0
ENDTAB
  0
TABLE
  2
DIMSTYLE
  5
21
330
0
100
AcDbSymbolTable
 70
     1
100
AcDbDimStyleTable
  0
DIMSTYLE
105
27
330
21
100
AcDbSymbolTableRecord
100
AcDbDimStyleTableRecord
  2
STANDARD
 70
     0
  3

  4

340
16
  0
ENDTAB
  0
TABLE
  2
BLOCK_RECORD
  5
1
330
0
100
AcDbSymbolTable
 70
     0
  0
BLOCK_RECORD
  5
2
330
1
100
AcDbSymbolTableRecord
100
AcDbBlockTableRecord
  2
*MODEL_SPACE
340
C
  0
BLOCK_RECORD
  5
E
330
1
100
AcDbSymbolTableRecord
100
AcDbBlockTableRecord
  2
*PAPER_SPACE
340
13
  0
ENDTAB
  0
ENDSEC
  0
SECTION
  2
BLOCKS
  0
BLOCK
  5
5
330
2
100
AcDbEntity
  8
0
100
AcDbBlockBegin
  2
*MODEL_SPACE
 70
     0
 10
0.0
 20
0.0
 30
0.0
  3
*MODEL_SPACE
  1

  4

  0
ENDBLK
  5
B
330
2
100
AcDbEntity
  8
0
100
AcDbBlockEnd
  0
BLOCK
  5
11
330
E
100
AcDbEntity
 67
     1
  8
0
100
AcDbBlockBegin
  2
*PAPER_SPACE
 70
     0
 10
0.0
 20
0.0
 30
0.0
  3
*PAPER_SPACE
  1

  4

  0
ENDBLK
  5
12
330
E
100
AcDbEntity
 67
     1
  8
0
100
AcDbBlockEnd
  0
ENDSEC
  0
SECTION
  2
ENTITIES
  0
LINE
  5
14B
330
2
100
AcDbEntity
  8
0
100
AcDbLine
 10
-2.717113331802439
 20
5.934655262220071
 30
0.0
 11
-2.717113331802439
 21
6.624568064705974
 31
0.0
  0
LINE
  5
14C
330
2
100
AcDbEntity
  8
0
100
AcDbLine
 10
-1.562499999999998
 20
0.1400000000000006
 30
0.0
 11
-1.562499999999998
 21
9.316761464187495
 31
0.0
  0
LINE
  5
14D
330
2
100
AcDbEntity
  8
0
100
AcDbLine
 10
-1.632499999999995
 20
0.1400000000000006
 30
0.0
 11
-1.632499999999999
 21
9.246761464187495
 31
0.0
  0
LINE
  5
14E
330
2
100
AcDbEntity
  8
0
100
AcDbLine
 10
1.632499999999999
 20
0.1400000000000006
 30
0.0
 11
1.632500000000002
 21
9.246761464187495
 31
0.0
  0
LINE
  5
14F
330
2
100
AcDbEntity
  8
0
100
AcDbLine
 10
1.562500000000002
 20
0.1400000000000006
 30
0.0
 11
1.562500000000002
 21
9.320000000000002
 31
0.0
  0
LINE
  5
150
330
2
100
AcDbEntity
  8
0
100
AcDbLine
 10
2.717113331802443
 20
5.934655262220071
 30
0.0
 11
2.717113331802443
 21
6.624568064705974
 31
0.0
  0
LINE
  5
151
330
2
100
AcDbEntity
  8
0
100
AcDbLine
 10
1.492499999999998
 20
0.0
 30
0.0
 11
-1.492499999999998
 21
0.0
 31
0.0
  0
LINE
  5
152
330
2
100
AcDbEntity
  8
0
100
AcDbLine
 10
1.492500000000002
 20
0.0700000000000003
 30
0.0
 11
-1.492499999999998
 21
0.0699999999999985
 31
0.0
  0
LINE
  5
153
330
2
100
AcDbEntity
  8
0
100
AcDbLine
 10
-1.632499999999999
 20
0.3991192372166523
 30
0.0
 11
-2.673818155573107
 21
1.811964253707643
 31
0.0
  0
ARC
  5
155
330
2
100
AcDbEntity
  8
0
100
AcDbCircle
 10
-1.492499999999998
 20
0.1400000000000006
 30
0.0
 40
0.07
100
AcDbArc
 50
180.0
 51
270.0
  0
ARC
  5
156
330
2
100
AcDbEntity
  8
0
100
AcDbCircle
 10
-1.492499999999994
 20
0.1400000000000006
 30
0.0
 40
0.14
100
AcDbArc
 50
180.0
 51
270.0
  0
ARC
  5
157
330
2
100
AcDbEntity
  8
0
100
AcDbCircle
 10
-1.492499999999998
 20
0.1400000000000006
 30
0.0
 40
0.14
100
AcDbArc
 50
180.0
 51
270.0
  0
ARC
  5
158
330
2
100
AcDbEntity
  8
0
100
AcDbCircle
 10
-1.492499999999998
 20
0.1399999999999988
 30
0.0
 40
0.07
100
AcDbArc
 50
180.0
 51
270.0
  0
ARC
  5
15B
330
2
100
AcDbEntity
  8
0
100
AcDbCircle
 10
-2.509841292761424
 20
3.957318801567022
 30
0.0
 40
0.2
100
AcDbArc
 50
180.0
 51
257.3643749069807
  0
LINE
  5
15C
330
2
100
AcDbEntity
  8
0
100
AcDbLine
 10
-2.700372927641253
 20
1.920946415029974
 30
0.0
 11
-2.700372927641253
 21
2.610859217515873
 31
0.0
  0
ARC
  5
15D
330
2
100
AcDbEntity
  8
0
100
AcDbCircle
 10
-2.521243129721844
 20
1.920946415029974
 30
0.0
 40
0.1875
100
AcDbArc
 50
180.0
 51
215.5376777919745
  0
CIRCLE
  5
15E
330
2
100
AcDbEntity
  8
0
100
AcDbCircle
 10
-2.396243129721844
 20
2.110859217515873
 30
0.0
 40
0.0855
  0
ARC
  5
15F
330
2
100
AcDbEntity
  8
0
100
AcDbCircle
 10
-2.509841292761424
 20
2.576694051767106
 30
0.0
 40
0.2
100
AcDbArc
 50
102.6356250930189
 51
180.0
  0
LINE
  5
160
330
2
100
AcDbEntity
  8
0
100
AcDbLine
 10
-2.39734129276142
 20
3.567006426667069
 30
0.0
 11
-2.39734129276142
 21
2.967006426667069
 31
0.0
  0
ARC
  5
161
330
2
100
AcDbEntity
  8
0
100
AcDbCircle
 10
-2.597341292761422
 20
2.967006426667069
 30
0.0
 40
0.2
100
AcDbArc
 50
282.6356250930186
 51
0.0000000000000254
  0
ARC
  5
162
330
2
100
AcDbEntity
  8
0
100
AcDbCircle
 10
-2.597341292761419
 20
3.567006426667069
 30
0.0
 40
0.2
100
AcDbArc
 50
0.0000000000000254
 51
77.36437490698125
  0
LINE
  5
163
330
2
100
AcDbEntity
  8
0
100
AcDbLine
 10
-2.39734129276142
 20
5.567006426667069
 30
0.0
 11
-2.39734129276142
 21
4.967006426667068
 31
0.0
  0
ARC
  5
164
330
2
100
AcDbEntity
  8
0
100
AcDbCircle
 10
-2.518211494842015
 20
4.576694051767101
 30
0.0
 40
0.2
100
AcDbArc
 50
102.6356250930189
 51
180.0
  0
LINE
  5
165
330
2
100
AcDbEntity
  8
0
100
AcDbLine
 10
-2.717113331802439
 20
3.934655262220071
 30
0.0
 11
-2.717113331802439
 21
4.624568064705974
 31
0.0
  0
CIRCLE
  5
166
330
2
100
AcDbEntity
  8
0
100
AcDbCircle
 10
-2.396243129721844
 20
4.110859217515873
 30
0.0
 40
0.0855
  0
ARC
  5
167
330
2
100
AcDbEntity
  8
0
100
AcDbCircle
 10
-2.597341292761422
 20
4.967006426667068
 30
0.0
 40
0.2
100
AcDbArc
 50
282.6356250930186
 51
0.0000000000000254
  0
ARC
  5
168
330
2
100
AcDbEntity
  8
0
100
AcDbCircle
 10
-2.509841292761424
 20
5.957318801567022
 30
0.0
 40
0.2
100
AcDbArc
 50
180.0
 51
257.3643749069807
  0
ARC
  5
169
330
2
100
AcDbEntity
  8
0
100
AcDbCircle
 10
-2.597341292761419
 20
5.567006426667069
 30
0.0
 40
0.2
100
AcDbArc
 50
0.0000000000000254
 51
77.36437490698125
  0
CIRCLE
  5
16A
330
2
100
AcDbEntity
  8
0
100
AcDbCircle
 10
-2.396243129721844
 20
6.110859217515872
 30
0.0
 40
0.0855
  0
LINE
  5
16C
330
2
100
AcDbEntity
  8
0
100
AcDbLine
 10
1.632500000000006
 20
0.3991192372166523
 30
0.0
 11
2.673818155573111
 21
1.811964253707643
 31
0.0
  0
ARC
  5
16D
330
2
100
AcDbEntity
  8
0
100
AcDbCircle
 10
1.492499999999998
 20
0.1400000000000006
 30
0.0
 40
0.14
100
AcDbArc
 50
270.0
 51
0.0
  0
ARC
  5
16E
330
2
100
AcDbEntity
  8
0
100
AcDbCircle
 10
1.492500000000002
 20
0.1400000000000006
 30
0.0
 40
0.07
100
AcDbArc
 50
270.0
 51
0.0
  0
ARC
  5
16F
330
2
100
AcDbEntity
  8
0
100
AcDbCircle
 10
2.509841292761427
 20
3.957318801567022
 30
0.0
 40
0.2
100
AcDbArc
 50
282.6356250930193
 51
0.0
  0
LINE
  5
170
330
2
100
AcDbEntity
  8
0
100
AcDbLine
 10
2.700372927641256
 20
1.920946415029974
 30
0.0
 11
2.700372927641256
 21
2.610859217515873
 31
0.0
  0
CIRCLE
  5
171
330
2
100
AcDbEntity
  8
0
100
AcDbCircle
 10
2.396243129721848
 20
2.110859217515873
 30
0.0
 40
0.0855
  0
ARC
  5
172
330
2
100
AcDbEntity
  8
0
100
AcDbCircle
 10
2.521243129721848
 20
1.920946415029974
 30
0.0
 40
0.1875
100
AcDbArc
 50
324.4623222080255
 51
0.0
  0
LINE
  5
174
330
2
100
AcDbEntity
  8
0
100
AcDbLine
 10
2.397341292761423
 20
3.567006426667069
 30
0.0
 11
2.397341292761423
 21
2.967006426667069
 31
0.0
  0
ARC
  5
175
330
2
100
AcDbEntity
  8
0
100
AcDbCircle
 10
2.597341292761426
 20
2.967006426667069
 30
0.0
 40
0.2
100
AcDbArc
 50
180.0
 51
257.3643749069813
  0
ARC
  5
176
330
2
100
AcDbEntity
  8
0
100
AcDbCircle
 10
2.509841292761427
 20
2.576694051767106
 30
0.0
 40
0.2
100
AcDbArc
 50
0.0
 51
77.36437490698107
  0
ARC
  5
177
330
2
100
AcDbEntity
  8
0
100
AcDbCircle
 10
2.597341292761422
 20
3.567006426667069
 30
0.0
 40
0.2
100
AcDbArc
 50
102.6356250930187
 51
180.0
  0
LINE
  5
178
330
2
100
AcDbEntity
  8
0
100
AcDbLine
 10
2.397341292761423
 20
5.567006426667069
 30
0.0
 11
2.397341292761423
 21
4.967006426667068
 31
0.0
  0
LINE
  5
179
330
2
100
AcDbEntity
  8
0
100
AcDbLine
 10
2.717113331802443
 20
3.934655262220071
 30
0.0
 11
2.717113331802443
 21
4.624568064705974
 31
0.0
  0
CIRCLE
  5
17A
330
2
100
AcDbEntity
  8
0
100
AcDbCircle
 10
2.396243129721848
 20
4.110859217515873
 30
0.0
 40
0.0855
  0
ARC
  5
17B
330
2
100
AcDbEntity
  8
0
100
AcDbCircle
 10
2.597341292761426
 20
4.967006426667068
 30
0.0
 40
0.2
100
AcDbArc
 50
180.0
 51
257.3643749069813
  0
ARC
  5
17C
330
2
100
AcDbEntity
  8
0
100
AcDbCircle
 10
2.518211494842019
 20
4.576694051767101
 30
0.0
 40
0.2
100
AcDbArc
 50
0.0
 51
77.36437490698107
  0
ARC
  5
17E
330
2
100
AcDbEntity
  8
0
100
AcDbCircle
 10
2.509841292761427
 20
5.957318801567022
 30
0.0
 40
0.2
100
AcDbArc
 50
282.6356250930193
 51
0.0
  0
ARC
  5
17F
330
2
100
AcDbEntity
  8
0
100
AcDbCircle
 10
2.597341292761426
 20
5.567006426667069
 30
0.0
 40
0.2
100
AcDbArc
 50
102.6356250930187
 51
180.0
  0
CIRCLE
  5
180
330
2
100
AcDbEntity
  8
0
100
AcDbCircle
 10
2.396243129721848
 20
6.110859217515872
 30
0.0
 40
0.0855
  0
LINE
  5
181
330
2
100
AcDbEntity
  8
0
100
AcDbLine
 10
-1.562499999999998
 20
9.316761464187495
 30
0.0
 11
-2.470028718560444
 21
9.316761464187495
 31
0.0
  0
LINE
  5
182
330
2
100
AcDbEntity
  8
0
  6
HIDDEN
100
AcDbLine
 10
-1.562499999999998
 20
9.246761464187495
 30
0.0
 11
-2.629663791956061
 21
9.246761464187495
 31
0.0
  0
ARC
  5
184
330
2
100
AcDbEntity
  8
0
100
AcDbCircle
 10
-2.597341292761422
 20
9.471006426667069
 30
0.0
 40
0.2
100
AcDbArc
 50
282.6356250930186
 51
304.4621437341443
  0
ARC
  5
185
330
2
100
AcDbEntity
  8
0
100
AcDbCircle
 10
-2.509841292761424
 20
7.957318801567022
 30
0.0
 40
0.2
100
AcDbArc
 50
180.0
 51
257.3643749069807
  0
ARC
  5
186
330
2
100
AcDbEntity
  8
0
100
AcDbCircle
 10
-2.518211494842015
 20
6.576694051767101
 30
0.0
 40
0.2
100
AcDbArc
 50
102.6356250930189
 51
180.0
  0
LINE
  5
187
330
2
100
AcDbEntity
  8
0
100
AcDbLine
 10
-2.39734129276142
 20
7.567006426667069
 30
0.0
 11
-2.39734129276142
 21
6.967006426667068
 31
0.0
  0
ARC
  5
188
330
2
100
AcDbEntity
  8
0
100
AcDbCircle
 10
-2.597341292761422
 20
6.967006426667068
 30
0.0
 40
0.2
100
AcDbArc
 50
282.6356250930186
 51
0.0000000000000254
  0
ARC
  5
189
330
2
100
AcDbEntity
  8
0
100
AcDbCircle
 10
-2.597341292761419
 20
7.567006426667069
 30
0.0
 40
0.2
100
AcDbArc
 50
0.0000000000000254
 51
77.36437490698125
  0
ARC
  5
18A
330
2
100
AcDbEntity
  8
0
100
AcDbCircle
 10
-2.518211494842017
 20
9.080694051767102
 30
0.0
 40
0.1999999999999995
100
AcDbArc
 50
102.6356250930186
 51
180.0
  0
LINE
  5
18B
330
2
100
AcDbEntity
  8
0
100
AcDbLine
 10
-2.717113331802439
 20
7.934655262220071
 30
0.0
 11
-2.717113331802439
 21
9.101623916882982
 31
0.0
  0
CIRCLE
  5
18C
330
2
100
AcDbEntity
  8
0
100
AcDbCircle
 10
-2.396243129721844
 20
8.110859217515875
 30
0.0
 40
0.0855
  0
ARC
  5
18D
330
2
100
AcDbEntity
  8
0
100
AcDbCircle
 10
2.518211494842019
 20
9.080694051767102
 30
0.0
 40
0.2
100
AcDbArc
 50
0.0
 51
77.36437490698107
  0
ARC
  5
18E
330
2
100
AcDbEntity
  8
0
100
AcDbCircle
 10
2.597341292761426
 20
9.471006426667069
 30
0.0
 40
0.2
100
AcDbArc
 50
229.0281775894174
 51
257.3643749069813
  0
ARC
  5
18F
330
2
100
AcDbEntity
  8
0
100
AcDbCircle
 10
2.518211494842019
 20
9.080694051767102
 30
0.0
 40
0.2
100
AcDbArc
 50
0.0
 51
77.36437490698107
  0
ARC
  5
190
330
2
100
AcDbEntity
  8
0
100
AcDbCircle
 10
2.509841292761427
 20
7.957318801567022
 30
0.0
 40
0.2
100
AcDbArc
 50
282.6356250930193
 51
0.0
  0
LINE
  5
192
330
2
100
AcDbEntity
  8
0
100
AcDbLine
 10
2.397341292761423
 20
7.567006426667069
 30
0.0
 11
2.397341292761423
 21
6.967006426667068
 31
0.0
  0
ARC
  5
193
330
2
100
AcDbEntity
  8
0
100
AcDbCircle
 10
2.597341292761426
 20
6.967006426667068
 30
0.0
 40
0.2
100
AcDbArc
 50
180.0
 51
257.3643749069813
  0
ARC
  5
194
330
2
100
AcDbEntity
  8
0
100
AcDbCircle
 10
2.518211494842019
 20
6.576694051767101
 30
0.0
 40
0.2
100
AcDbArc
 50
0.0
 51
77.36437490698107
  0
ARC
  5
195
330
2
100
AcDbEntity
  8
0
100
AcDbCircle
 10
2.597341292761426
 20
7.567006426667069
 30
0.0
 40
0.2
100
AcDbArc
 50
102.6356250930187
 51
180.0
  0
LINE
  5
196
330
2
100
AcDbEntity
  8
0
  6
HIDDEN
100
AcDbLine
 10
1.562500000000002
 20
9.246761464187495
 30
0.0
 11
2.629663791955855
 21
9.246761464187495
 31
0.0
  0
LINE
  5
197
330
2
100
AcDbEntity
  8
0
100
AcDbLine
 10
2.717113331802443
 20
7.934655262220071
 30
0.0
 11
2.717113331802443
 21
9.101623916882986
 31
0.0
  0
CIRCLE
  5
198
330
2
100
AcDbEntity
  8
0
100
AcDbCircle
 10
2.396243129721851
 20
8.110859217515875
 30
0.0
 40
0.0855
  0
LINE
  5
199
330
2
100
AcDbEntity
  8
0
100
AcDbLine
 10
1.562500000000002
 20
9.316761464187495
 30
0.0
 11
2.470028718560569
 21
9.316761464187495
 31
0.0
  0
LINE
  5
247
330
2
100
AcDbEntity
  8
0
100
AcDbLine
 10
1.62917137714453
 20
1.383931402338462
 30
0.0
 11
1.801171377144556
 21
1.383931402338462
 31
0.0
  0
LINE
  5
248
330
2
100
AcDbEntity
  8
0
100
AcDbLine
 10
1.87917137714453
 20
1.305931402338459
 30
0.0
 11
1.87917137714453
 21
1.305681402338465
 31
0.0
  0
LINE
  5
249
330
2
100
AcDbEntity
  8
0
100
AcDbLine
 10
1.801171377144556
 20
1.227681402338462
 30
0.0
 11
1.62917137714453
 21
1.227681402338462
 31
0.0
  0
ARC
  5
24A
330
2
100
AcDbEntity
  8
0
100
AcDbCircle
 10
1.801171377144556
 20
1.305931402338459
 30
0.0
 40
0.078
100
AcDbArc
 50
0.0
 51
90.0
  0
ARC
  5
24B
330
2
100
AcDbEntity
  8
0
100
AcDbCircle
 10
1.801171377144556
 20
1.305681402338465
 30
0.0
 40
0.078
100
AcDbArc
 50
270.0
 51
0.0
  0
ARC
  5
24C
330
2
100
AcDbEntity
  8
0
100
AcDbCircle
 10
1.677319643239059
 20
1.306120131846058
 30
0.0
 40
0.1057271041002034
100
AcDbArc
 50
314.5294659509036
 51
43.59311377856223
  0
LINE
  5
24D
330
2
100
AcDbEntity
  8
0
100
AcDbLine
 10
1.646654129040257
 20
3.928983011297362
 30
0.0
 11
1.818654129040283
 21
3.928983011297362
 31
0.0
  0
LINE
  5
24E
330
2
100
AcDbEntity
  8
0
100
AcDbLine
 10
1.896654129040257
 20
3.850983011297359
 30
0.0
 11
1.896654129040257
 21
3.850733011297365
 31
0.0
  0
LINE
  5
24F
330
2
100
AcDbEntity
  8
0
100
AcDbLine
 10
1.818654129040283
 20
3.772733011297362
 30
0.0
 11
1.646654129040257
 21
3.772733011297362
 31
0.0
  0
ARC
  5
250
330
2
100
AcDbEntity
  8
0
100
AcDbCircle
 10
1.818654129040283
 20
3.850983011297359
 30
0.0
 40
0.078
100
AcDbArc
 50
0.0
 51
90.0
  0
ARC
  5
251
330
2
100
AcDbEntity
  8
0
100
AcDbCircle
 10
1.818654129040283
 20
3.850733011297365
 30
0.0
 40
0.078
100
AcDbArc
 50
270.0
 51
0.0
  0
ARC
  5
252
330
2
100
AcDbEntity
  8
0
100
AcDbCircle
 10
1.694802395134786
 20
3.851171740804958
 30
0.0
 40
0.1057271041002034
100
AcDbArc
 50
314.5294659509036
 51
43.59311377856223
  0
LINE
  5
253
330
2
100
AcDbEntity
  8
0
100
AcDbLine
 10
1.646654129040257
 20
5.928983011297362
 30
0.0
 11
1.818654129040283
 21
5.928983011297362
 31
0.0
  0
LINE
  5
254
330
2
100
AcDbEntity
  8
0
100
AcDbLine
 10
1.896654129040257
 20
5.850983011297359
 30
0.0
 11
1.896654129040257
 21
5.850733011297365
 31
0.0
  0
LINE
  5
255
330
2
100
AcDbEntity
  8
0
100
AcDbLine
 10
1.818654129040283
 20
5.772733011297362
 30
0.0
 11
1.646654129040257
 21
5.772733011297362
 31
0.0
  0
ARC
  5
256
330
2
100
AcDbEntity
  8
0
100
AcDbCircle
 10
1.818654129040283
 20
5.850983011297359
 30
0.0
 40
0.078
100
AcDbArc
 50
0.0
 51
90.0
  0
ARC
  5
257
330
2
100
AcDbEntity
  8
0
100
AcDbCircle
 10
1.818654129040283
 20
5.850733011297365
 30
0.0
 40
0.078
100
AcDbArc
 50
270.0
 51
0.0
  0
ARC
  5
258
330
2
100
AcDbEntity
  8
0
100
AcDbCircle
 10
1.694802395134786
 20
5.851171740804958
 30
0.0
 40
0.1057271041002034
100
AcDbArc
 50
314.5294659509036
 51
43.59311377856223
  0
LINE
  5
259
330
2
100
AcDbEntity
  8
0
100
AcDbLine
 10
1.628017451255005
 20
7.928983011297362
 30
0.0
 11
1.80001745125503
 21
7.928983011297362
 31
0.0
  0
LINE
  5
25A
330
2
100
AcDbEntity
  8
0
100
AcDbLine
 10
1.878017451255005
 20
7.850983011297359
 30
0.0
 11
1.878017451255005
 21
7.850733011297365
 31
0.0
  0
LINE
  5
25B
330
2
100
AcDbEntity
  8
0
100
AcDbLine
 10
1.80001745125503
 20
7.772733011297362
 30
0.0
 11
1.628017451255005
 21
7.772733011297362
 31
0.0
  0
ARC
  5
25C
330
2
100
AcDbEntity
  8
0
100
AcDbCircle
 10
1.80001745125503
 20
7.850983011297359
 30
0.0
 40
0.078
100
AcDbArc
 50
0.0
 51
90.0
  0
ARC
  5
25D
330
2
100
AcDbEntity
  8
0
100
AcDbCircle
 10
1.80001745125503
 20
7.850733011297365
 30
0.0
 40
0.078
100
AcDbArc
 50
270.0
 51
0.0
  0
ARC
  5
25E
330
2
100
AcDbEntity
  8
0
100
AcDbCircle
 10
1.676165717349534
 20
7.851171740804958
 30
0.0
 40
0.1057271041002034
100
AcDbArc
 50
314.5294659509036
 51
43.59311377856223
  0
LINE
  5
267
330
2
100
AcDbEntity
  8
0
100
AcDbLine
 10
-1.612630849138952
 20
1.263474754720875
 30
0.0
 11
-1.784630849138978
 21
1.263474754720875
 31
0.0
  0
LINE
  5
268
330
2
100
AcDbEntity
  8
0
100
AcDbLine
 10
-1.862630849138952
 20
1.185474754720872
 30
0.0
 11
-1.862630849138952
 21
1.185224754720878
 31
0.0
  0
LINE
  5
269
330
2
100
AcDbEntity
  8
0
100
AcDbLine
 10
-1.784630849138978
 20
1.107224754720875
 30
0.0
 11
-1.612630849138952
 21
1.107224754720875
 31
0.0
  0
ARC
  5
26A
330
2
100
AcDbEntity
  8
0
100
AcDbCircle
 10
-1.784630849138978
 20
1.185474754720872
 30
0.0
 40
0.078
100
AcDbArc
 50
90.0
 51
180.0
  0
ARC
  5
26B
330
2
100
AcDbEntity
  8
0
100
AcDbCircle
 10
-1.784630849138978
 20
1.185224754720878
 30
0.0
 40
0.078
100
AcDbArc
 50
180.0
 51
270.0
  0
ARC
  5
26C
330
2
100
AcDbEntity
  8
0
100
AcDbCircle
 10
-1.660779115233481
 20
1.185663484228471
 30
0.0
 40
0.1057271041002034
100
AcDbArc
 50
136.4068862214378
 51
225.4705340490965
  0
LINE
  5
26D
330
2
100
AcDbEntity
  8
0
100
AcDbLine
 10
-1.630113601034623
 20
3.621026363679775
 30
0.0
 11
-1.802113601034648
 21
3.621026363679775
 31
0.0
  0
LINE
  5
26E
330
2
100
AcDbEntity
  8
0
100
AcDbLine
 10
-1.880113601034623
 20
3.543026363679772
 30
0.0
 11
-1.880113601034623
 21
3.542776363679778
 31
0.0
  0
LINE
  5
26F
330
2
100
AcDbEntity
  8
0
100
AcDbLine
 10
-1.802113601034648
 20
3.464776363679775
 30
0.0
 11
-1.630113601034623
 21
3.464776363679775
 31
0.0
  0
ARC
  5
270
330
2
100
AcDbEntity
  8
0
100
AcDbCircle
 10
-1.802113601034648
 20
3.543026363679772
 30
0.0
 40
0.078
100
AcDbArc
 50
90.0
 51
180.0
  0
ARC
  5
271
330
2
100
AcDbEntity
  8
0
100
AcDbCircle
 10
-1.802113601034648
 20
3.542776363679778
 30
0.0
 40
0.078
100
AcDbArc
 50
180.0
 51
270.0
  0
ARC
  5
272
330
2
100
AcDbEntity
  8
0
100
AcDbCircle
 10
-1.678261867129152
 20
3.543215093187371
 30
0.0
 40
0.1057271041002034
100
AcDbArc
 50
136.4068862214378
 51
225.4705340490965
  0
LINE
  5
273
330
2
100
AcDbEntity
  8
0
100
AcDbLine
 10
-1.630113601034623
 20
5.621026363679775
 30
0.0
 11
-1.802113601034648
 21
5.621026363679775
 31
0.0
  0
LINE
  5
274
330
2
100
AcDbEntity
  8
0
100
AcDbLine
 10
-1.880113601034623
 20
5.543026363679772
 30
0.0
 11
-1.880113601034623
 21
5.542776363679778
 31
0.0
  0
LINE
  5
275
330
2
100
AcDbEntity
  8
0
100
AcDbLine
 10
-1.802113601034648
 20
5.464776363679775
 30
0.0
 11
-1.630113601034623
 21
5.464776363679775
 31
0.0
  0
ARC
  5
276
330
2
100
AcDbEntity
  8
0
100
AcDbCircle
 10
-1.802113601034648
 20
5.543026363679772
 30
0.0
 40
0.078
100
AcDbArc
 50
90.0
 51
180.0
  0
ARC
  5
277
330
2
100
AcDbEntity
  8
0
100
AcDbCircle
 10
-1.802113601034648
 20
5.542776363679778
 30
0.0
 40
0.078
100
AcDbArc
 50
180.0
 51
270.0
  0
ARC
  5
278
330
2
100
AcDbEntity
  8
0
100
AcDbCircle
 10
-1.678261867129152
 20
5.543215093187371
 30
0.0
 40
0.1057271041002034
100
AcDbArc
 50
136.4068862214378
 51
225.4705340490965
  0
LINE
  5
279
330
2
100
AcDbEntity
  8
0
100
AcDbLine
 10
-1.630113601034623
 20
7.621026363679775
 30
0.0
 11
-1.802113601034648
 21
7.621026363679775
 31
0.0
  0
LINE
  5
27A
330
2
100
AcDbEntity
  8
0
100
AcDbLine
 10
-1.880113601034623
 20
7.543026363679772
 30
0.0
 11
-1.880113601034623
 21
7.542776363679778
 31
0.0
  0
LINE
  5
27B
330
2
100
AcDbEntity
  8
0
100
AcDbLine
 10
-1.802113601034648
 20
7.464776363679775
 30
0.0
 11
-1.630113601034623
 21
7.464776363679775
 31
0.0
  0
ARC
  5
27C
330
2
100
AcDbEntity
  8
0
100
AcDbCircle
 10
-1.802113601034648
 20
7.543026363679772
 30
0.0
 40
0.078
100
AcDbArc
 50
90.0
 51
180.0
  0
ARC
  5
27D
330
2
100
AcDbEntity
  8
0
100
AcDbCircle
 10
-1.802113601034648
 20
7.542776363679778
 30
0.0
 40
0.078
100
AcDbArc
 50
180.0
 51
270.0
  0
ARC
  5
27E
330
2
100
AcDbEntity
  8
0
100
AcDbCircle
 10
-1.678261867129152
 20
7.543215093187371
 30
0.0
 40
0.1057271041002034
100
AcDbArc
 50
136.4068862214378
 51
225.4705340490965
  0
ENDSEC
  0
SECTION
  2
OBJECTS
  0
DICTIONARY
  5
9
330
0
100
AcDbDictionary
281
     1
  3
ACAD_COLOR
350
2EB
  3
ACAD_GROUP
350
23
  3
ACAD_LAYOUT
350
D
  3
ACAD_MATERIAL
350
2EA
  3
ACAD_MLINESTYLE
350
24
  3
ACAD_PLOTSETTINGS
350
25
  3
ACAD_PLOTSTYLENAME
350
8
  3
ACAD_TABLESTYLE
350
2EC
  3
ACDBHEADERROUNDTRIPXREC
350
31C
  3
AcDbVariableDictionary
350
145
  0
DICTIONARY
  5
2EB
102
{ACAD_REACTORS
330
9
102
}
330
9
100
AcDbDictionary
281
     1
  0
DICTIONARY
  5
23
102
{ACAD_REACTORS
330
9
102
}
330
9
100
AcDbDictionary
281
     1
  0
DICTIONARY
  5
D
102
{ACAD_REACTORS
330
9
102
}
330
9
100
AcDbDictionary
281
     1
  3
Layout1
350
13
  3
Model
350
C
  0
DICTIONARY
  5
2EA
102
{ACAD_REACTORS
330
9
102
}
330
9
100
AcDbDictionary
281
     1
  0
DICTIONARY
  5
24
102
{ACAD_REACTORS
330
9
102
}
330
9
100
AcDbDictionary
281
     1
  3
STANDARD
350
26
  0
DICTIONARY
  5
25
102
{ACAD_REACTORS
330
9
102
}
330
9
100
AcDbDictionary
281
     1
  0
ACDBDICTIONARYWDFLT
  5
8
102
{ACAD_REACTORS
330
9
102
}
330
9
100
AcDbDictionary
281
     1
  3
Normal
350
7
100
AcDbDictionaryWithDefault
340
7
  0
DICTIONARY
  5
2EC
102
{ACAD_REACTORS
330
9
102
}
330
9
100
AcDbDictionary
281
     1
  3
Standard
350
2ED
  0
DICTIONARY
  5
31C
102
{ACAD_REACTORS
330
9
102
}
330
9
100
AcDbDictionary
281
     1
  3
COLORDICT
350
31D
  3
MATERIALDICT
350
31E
  0
DICTIONARY
  5
145
102
{ACAD_REACTORS
330
9
102
}
330
9
100
AcDbDictionary
281
     1
  3
CTABLESTYLE
350
319
  3
HIDETEXT
350
31B
  0
LAYOUT
  5
13
102
{ACAD_REACTORS
330
D
102
}
102
{ACAD_XDICTIONARY
360
31F
102
}
330
D
100
AcDbPlotSettings
  1

  2
CANON BJC-6000
  4

  6

 40
0.0
 41
0.0
 42
0.0
 43
0.0
 44
0.0
 45
0.0
 46
0.0
 47
0.0
 48
0.0
 49
0.0
140
0.0
141
0.0
142
1.0
143
1.0
 70
   688
 72
     0
 73
     0
 74
     5
  7

 75
    16
147
1.0
148
0.0
149
0.0
100
AcDbLayout
  1
Layout1
 70
     0
 71
     1
 10
0.0
 20
0.0
 11
12.0
 21
9.0
 12
0.0
 22
0.0
 32
0.0
 14
1.000000000000000E+20
 24
1.000000000000000E+20
 34
1.000000000000000E+20
 15
-1.000000000000000E+20
 25
-1.000000000000000E+20
 35
-1.000000000000000E+20
146
0.0
 13
0.0
 23
0.0
 33
0.0
 16
1.0
 26
0.0
 36
0.0
 17
0.0
 27
1.0
 37
0.0
 76
     0
330
E
  0
LAYOUT
  5
C
102
{ACAD_REACTORS
330
D
102
}
102
{ACAD_XDICTIONARY
360
321
102
}
330
D
100
AcDbPlotSettings
  1

  2
CANON BJC-6000
  4

  6

 40
0.0
 41
0.0
 42
0.0
 43
0.0
 44
0.0
 45
0.0
 46
0.0
 47
0.0
 48
0.0
 49
0.0
140
0.0
141
0.0
142
1.0
143
1.0
 70
  1712
 72
     0
 73
     0
 74
     0
  7

 75
     0
147
1.0
148
0.0
149
0.0
100
AcDbLayout
  1
Model
 70
     1
 71
     0
 10
0.0
 20
0.0
 11
12.0
 21
9.0
 12
0.0
 22
0.0
 32
0.0
 14
0.0
 24
0.0
 34
0.0
 15
0.0
 25
0.0
 35
0.0
146
0.0
 13
0.0
 23
0.0
 33
0.0
 16
1.0
 26
0.0
 36
0.0
 17
0.0
 27
1.0
 37
0.0
 76
     0
330
2
  0
MLINESTYLE
  5
26
102
{ACAD_REACTORS
330
24
102
}
330
24
100
AcDbMlineStyle
  2
STANDARD
 70
     0
  3

 62
   256
 51
90.0
 52
90.0
 71
     2
 49
0.5
 62
   256
  6
BYLAYER
 49
-0.5
 62
   256
  6
BYLAYER
  0
ACDBPLACEHOLDER
  5
7
102
{ACAD_REACTORS
330
8
102
}
330
8
  0
ACAD_PROXY_OBJECT
  5
2ED
102
{ACAD_REACTORS
330
2EC
102
}
330
2EC
100
AcDbProxyObject
 90
      499
 91
      508
 95
   983063
 70
     0
 93
     1841
310
4214DD185B99185C9928B81E85EB51B8AE3F2E07A17AD46E2B8FC02B5E8DC0F42B1CFD028000000C1008070000C3001FDFF8000000C1003FBFF000000182007F7FE00000030400FEFFC00000060801FDFF8000000C1003FBFF00000018200000000000000681FA0B0000001820100E000186003FBFF000000182007F7FE000
310
00030400FEFFC00000060801FDFF8000000C1003FBFF000000182007F7FE000000304000AD7A3703D0AC73F4160000003040201C00030C007F7FE00000030400FEFFC00000060801FDFF8000000C1003FBFF000000182007F7FE00000030400FEFFC000000608000
340
16
340
16
340
16
 94
        0
  0
XRECORD
  5
31D
102
{ACAD_REACTORS
330
31C
102
}
330
31C
100
AcDbXrecord
340
2EB
  0
XRECORD
  5
31E
102
{ACAD_REACTORS
330
31C
102
}
330
31C
100
AcDbXrecord
340
2EA
  0
DICTIONARYVAR
  5
319
102
{ACAD_REACTORS
330
145
102
}
330
145
100
DictionaryVariables
280
     0
  1
STANDARD
  0
DICTIONARYVAR
  5
31B
102
{ACAD_REACTORS
330
145
102
}
330
145
100
DictionaryVariables
280
     0
  1
0
  0
DICTIONARY
  5
31F
330
13
100
AcDbDictionary
280
     1
281
     1
  3
ACAD_XREC_ROUNDTRIP
360
320
  0
DICTIONARY
  5
321
330
C
100
AcDbDictionary
280
     1
281
     1
  3
ACAD_XREC_ROUNDTRIP
360
322
  0
XRECORD
  5
320
102
{ACAD_REACTORS
330
31F
102
}
330
31F
100
AcDbXrecord
102
SHADEPLOT
 70
     0
102
SHADEPLOTRESLEVEL
 70
     2
102
SHADEPLOTCUSTOMDPI
 70
   300
  0
XRECORD
  5
322
102
{ACAD_REACTORS
330
321
102
}
330
321
100
AcDbXrecord
102
SHADEPLOT
 70
     0
102
SHADEPLOTRESLEVEL
 70
     2
102
SHADEPLOTCUSTOMDPI
 70
   300
  0
ENDSEC
  0
EOF
