  0
SECTION
  2
HEADER
  9
$ACADVER
  1
AC1015
  9
$ACADMAINTVER
 70
     6
  9
$DWGCODEPAGE
  3
ANSI_1252
  9
$INSBASE
 10
0.0
 20
0.0
 30
0.0
  9
$EXTMIN
 10
-11.25590507029352
 20
-0.0289949493661161
 30
0.0
  9
$EXTMAX
 10
11.25590507029352
 20
18.08384874872966
 30
0.0
  9
$LIMMIN
 10
0.0
 20
0.0
  9
$LIMMAX
 10
26.6664
 20
34.99965
  9
$ORTHOMODE
 70
     1
  9
$REGENMODE
 70
     1
  9
$FILLMODE
 70
     1
  9
$QTEXTMODE
 70
     0
  9
$MIRRTEXT
 70
     0
  9
$LTSCALE
 40
1.0
  9
$ATTMODE
 70
     1
  9
$TEXTSIZE
 40
0.299997
  9
$TRACEWID
 40
0.05
  9
$TEXTSTYLE
  7
STANDARD
  9
$CLAYER
  8
0
  9
$CELTYPE
  6
BYLAYER
  9
$CECOLOR
 62
   256
  9
$CELTSCALE
 40
1.0
  9
$DISPSILH
 70
     0
  9
$DIMSCALE
 40
3.3333
  9
$DIMASZ
 40
0.125
  9
$DIMEXO
 40
0.062
  9
$DIMDLI
 40
0.375
  9
$DIMRND
 40
0.0
  9
$DIMDLE
 40
0.0
  9
$DIMEXE
 40
0.08
  9
$DIMTP
 40
0.0
  9
$DIMTM
 40
0.0
  9
$DIMTXT
 40
0.09
  9
$DIMCEN
 40
-0.03125
  9
$DIMTSZ
 40
0.0
  9
$DIMTOL
 70
     0
  9
$DIMLIM
 70
     0
  9
$DIMTIH
 70
     1
  9
$DIMTOH
 70
     1
  9
$DIMSE1
 70
     0
  9
$DIMSE2
 70
     0
  9
$DIMTAD
 70
     0
  9
$DIMZIN
 70
     0
  9
$DIMBLK
  1

  9
$DIMASO
 70
     0
  9
$DIMSHO
 70
     0
  9
$DIMPOST
  1

  9
$DIMAPOST
  1

  9
$DIMALT
 70
     0
  9
$DIMALTD
 70
     2
  9
$DIMALTF
 40
25.4
  9
$DIMLFAC
 40
1.0
  9
$DIMTOFL
 70
     0
  9
$DIMTVP
 40
0.0
  9
$DIMTIX
 70
     0
  9
$DIMSOXD
 70
     0
  9
$DIMSAH
 70
     0
  9
$DIMBLK1
  1

  9
$DIMBLK2
  1

  9
$DIMSTYLE
  2
STANDARD
  9
$DIMCLRD
 70
     0
  9
$DIMCLRE
 70
     0
  9
$DIMCLRT
 70
     0
  9
$DIMTFAC
 40
1.0
  9
$DIMGAP
 40
0.09
  9
$DIMJUST
 70
     0
  9
$DIMSD1
 70
     0
  9
$DIMSD2
 70
     0
  9
$DIMTOLJ
 70
     1
  9
$DIMTZIN
 70
     0
  9
$DIMALTZ
 70
     0
  9
$DIMALTTZ
 70
     0
  9
$DIMUPT
 70
     0
  9
$DIMDEC
 70
     6
  9
$DIMTDEC
 70
     6
  9
$DIMALTU
 70
     5
  9
$DIMALTTD
 70
     2
  9
$DIMTXSTY
  7
STANDARD
  9
$DIMAUNIT
 70
     0
  9
$DIMADEC
 70
     0
  9
$DIMALTRND
 40
0.0
  9
$DIMAZIN
 70
     0
  9
$DIMDSEP
 70
    46
  9
$DIMATFIT
 70
     3
  9
$DIMFRAC
 70
     0
  9
$DIMLDRBLK
  1

  9
$DIMLUNIT
 70
     5
  9
$DIMLWD
 70
    -2
  9
$DIMLWE
 70
    -2
  9
$DIMTMOVE
 70
     2
  9
$LUNITS
 70
     5
  9
$LUPREC
 70
     6
  9
$SKETCHINC
 40
0.1
  9
$FILLETRAD
 40
0.0
  9
$AUNITS
 70
     0
  9
$AUPREC
 70
     0
  9
$MENU
  1
acad
  9
$ELEVATION
 40
0.0
  9
$PELEVATION
 40
0.0
  9
$THICKNESS
 40
0.0
  9
$LIMCHECK
 70
     0
  9
$CHAMFERA
 40
0.0
  9
$CHAMFERB
 40
0.0
  9
$CHAMFERC
 40
0.0
  9
$CHAMFERD
 40
0.0
  9
$SKPOLY
 70
     0
  9
$TDCREATE
 40
2449874.731787847
  9
$TDUCREATE
 40
2449875.06512118
  9
$TDUPDATE
 40
2454166.747245914
  9
$TDUUPDATE
 40
2454167.080579248
  9
$TDINDWG
 40
0.0440375926
  9
$TDUSRTIMER
 40
0.0440375926
  9
$USRTIMER
 70
     1
  9
$ANGBASE
 50
0.0
  9
$ANGDIR
 70
     0
  9
$PDMODE
 70
     0
  9
$PDSIZE
 40
0.0
  9
$PLINEWID
 40
0.0
  9
$SPLFRAME
 70
     0
  9
$SPLINETYPE
 70
     6
  9
$SPLINESEGS
 70
     8
  9
$HANDSEED
  5
323
  9
$SURFTAB1
 70
     6
  9
$SURFTAB2
 70
     6
  9
$SURFTYPE
 70
     6
  9
$SURFU
 70
     6
  9
$SURFV
 70
     6
  9
$UCSBASE
  2

  9
$UCSNAME
  2

  9
$UCSORG
 10
0.0
 20
0.0
 30
0.0
  9
$UCSXDIR
 10
1.0
 20
0.0
 30
0.0
  9
$UCSYDIR
 10
0.0
 20
1.0
 30
0.0
  9
$UCSORTHOREF
  2

  9
$UCSORTHOVIEW
 70
     0
  9
$UCSORGTOP
 10
0.0
 20
0.0
 30
0.0
  9
$UCSORGBOTTOM
 10
0.0
 20
0.0
 30
0.0
  9
$UCSORGLEFT
 10
0.0
 20
0.0
 30
0.0
  9
$UCSORGRIGHT
 10
0.0
 20
0.0
 30
0.0
  9
$UCSORGFRONT
 10
0.0
 20
0.0
 30
0.0
  9
$UCSORGBACK
 10
0.0
 20
0.0
 30
0.0
  9
$PUCSBASE
  2

  9
$PUCSNAME
  2

  9
$PUCSORG
 10
0.0
 20
0.0
 30
0.0
  9
$PUCSXDIR
 10
1.0
 20
0.0
 30
0.0
  9
$PUCSYDIR
 10
0.0
 20
1.0
 30
0.0
  9
$PUCSORTHOREF
  2

  9
$PUCSORTHOVIEW
 70
     0
  9
$PUCSORGTOP
 10
0.0
 20
0.0
 30
0.0
  9
$PUCSORGBOTTOM
 10
0.0
 20
0.0
 30
0.0
  9
$PUCSORGLEFT
 10
0.0
 20
0.0
 30
0.0
  9
$PUCSORGRIGHT
 10
0.0
 20
0.0
 30
0.0
  9
$PUCSORGFRONT
 10
0.0
 20
0.0
 30
0.0
  9
$PUCSORGBACK
 10
0.0
 20
0.0
 30
0.0
  9
$USERI1
 70
     0
  9
$USERI2
 70
     0
  9
$USERI3
 70
     0
  9
$USERI4
 70
     0
  9
$USERI5
 70
     0
  9
$USERR1
 40
0.0
  9
$USERR2
 40
0.0
  9
$USERR3
 40
0.0
  9
$USERR4
 40
0.0
  9
$USERR5
 40
0.0
  9
$WORLDVIEW
 70
     1
  9
$SHADEDGE
 70
     3
  9
$SHADEDIF
 70
    70
  9
$TILEMODE
 70
     1
  9
$MAXACTVP
 70
    16
  9
$PINSBASE
 10
0.0
 20
0.0
 30
0.0
  9
$PLIMCHECK
 70
     0
  9
$PEXTMIN
 10
1.000000000000000E+20
 20
1.000000000000000E+20
 30
1.000000000000000E+20
  9
$PEXTMAX
 10
-1.000000000000000E+20
 20
-1.000000000000000E+20
 30
-1.000000000000000E+20
  9
$PLIMMIN
 10
0.0
 20
0.0
  9
$PLIMMAX
 10
12.0
 20
9.0
  9
$UNITMODE
 70
     0
  9
$VISRETAIN
 70
     0
  9
$PLINEGEN
 70
     1
  9
$PSLTSCALE
 70
     0
  9
$TREEDEPTH
 70
  3020
  9
$CMLSTYLE
  2
STANDARD
  9
$CMLJUST
 70
     0
  9
$CMLSCALE
 40
1.0
  9
$PROXYGRAPHICS
 70
     1
  9
$MEASUREMENT
 70
     0
  9
$CELWEIGHT
370
    -1
  9
$ENDCAPS
280
     0
  9
$JOINSTYLE
280
     0
  9
$LWDISPLAY
290
     0
  9
$INSUNITS
 70
     0
  9
$HYPERLINKBASE
  1

  9
$STYLESHEET
  1

  9
$XEDIT
290
     1
  9
$CEPSNTYPE
380
     0
  9
$PSTYLEMODE
290
     1
  9
$FINGERPRINTGUID
  2
{ED6771B1-63D7-4FF2-A35F-D8F9CF579DDC}
  9
$VERSIONGUID
  2
{EFFDCA33-5DE9-403F-B223-3F46A4C4257F}
  9
$EXTNAMES
290
     1
  9
$PSVPSCALE
 40
0.0
  9
$OLESTARTUP
290
     0
  0
ENDSEC
  0
SECTION
  2
CLASSES
  0
CLASS
  1
DICTIONARYVAR
  2
AcDbDictionaryVar
  3
AutoCAD 2000
 90
        0
280
     0
281
     0
  0
CLASS
  1
ACDBDICTIONARYWDFLT
  2
AcDbDictionaryWithDefault
  3
AutoCAD 2000
 90
        0
280
     0
281
     0
  0
CLASS
  1
ACDBPLACEHOLDER
  2
AcDbPlaceHolder
  3
ObjectDBX Classes
 90
        0
280
     0
281
     0
  0
CLASS
  1
LAYOUT
  2
AcDbLayout
  3
ObjectDBX Classes
 90
        0
280
     0
281
     0
  0
CLASS
  1
LONG_TRANSACTION
  2
AcDbLongTransaction
  3
ObjectDBX Classes
 90
   -65536
280
     1
281
     0
  0
CLASS
  1
LWPOLYLINE
  2
AcDbPolyline
  3
AutoCAD 2000
 90
        0
280
     0
281
     1
  0
CLASS
  1
HATCH
  2
AcDbHatch
  3
AutoCAD 2000
 90
        0
280
     0
281
     1
  0
CLASS
  1
XRECORD
  2
AcDbXrecord
  3
AutoCAD 2000
 90
        0
280
     0
281
     0
  0
CLASS
  1
TABLESTYLE
  2
AcDbTableStyle
  3
ObjectDBX Classes
 90
     2047
280
     1
281
     0
  0
ENDSEC
  0
SECTION
  2
TABLES
  0
TABLE
  2
VPORT
  5
1D
330
0
100
AcDbSymbolTable
 70
     3
  0
VPORT
  5
315
330
1D
100
AcDbSymbolTableRecord
100
AcDbViewportTableRecord
  2
*Active
 70
     0
 10
0.0
 20
0.0
 11
1.0
 21
1.0
 12
7.77837120565809
 22
14.82488324289977
 13
0.0
 23
0.0
 14
0.063
 24
0.063
 15
0.25
 25
0.25
 16
0.0
 26
0.0
 36
1.0
 17
0.0
 27
0.0
 37
0.0
 40
35.46651527358917
 41
1.814583333333333
 42
50.0
 43
0.0
 44
0.0
 50
0.0
 51
0.0
 71
     0
 72
   100
 73
     1
 74
     0
 75
     0
 76
     0
 77
     0
 78
     0
281
     0
 65
     1
110
0.0
120
0.0
130
0.0
111
1.0
121
0.0
131
0.0
112
0.0
122
1.0
132
0.0
 79
     0
146
0.0
  0
ENDTAB
  0
TABLE
  2
LTYPE
  5
18
330
0
100
AcDbSymbolTable
 70
     2
  0
LTYPE
  5
19
330
18
100
AcDbSymbolTableRecord
100
AcDbLinetypeTableRecord
  2
BYBLOCK
 70
     0
  3

 72
    65
 73
     0
 40
0.0
  0
LTYPE
  5
1A
330
18
100
AcDbSymbolTableRecord
100
AcDbLinetypeTableRecord
  2
BYLAYER
 70
     0
  3

 72
    65
 73
     0
 40
0.0
  0
LTYPE
  5
A
330
18
100
AcDbSymbolTableRecord
100
AcDbLinetypeTableRecord
  2
CONTINUOUS
 70
     0
  3
Solid line
 72
    65
 73
     0
 40
0.0
  0
LTYPE
  5
2FA
330
18
100
AcDbSymbolTableRecord
100
AcDbLinetypeTableRecord
  2
HIDDEN
 70
     0
  3
Hidden __ __ __ __ __ __ __ __ __ __ __ __ __ _
 72
    65
 73
     2
 40
0.375
 49
0.25
 74
     0
 49
-0.125
 74
     0
  0
ENDTAB
  0
TABLE
  2
LAYER
  5
14
330
0
100
AcDbSymbolTable
 70
     1
  0
LAYER
  5
6
330
14
100
AcDbSymbolTableRecord
100
AcDbLayerTableRecord
  2
0
 70
     0
 62
     7
  6
CONTINUOUS
370
    -3
390
7
  0
ENDTAB
  0
TABLE
  2
STYLE
  5
15
330
0
100
AcDbSymbolTable
 70
     2
  0
STYLE
  5
16
330
15
100
AcDbSymbolTableRecord
100
AcDbTextStyleTableRecord
  2
STANDARD
 70
     0
 40
0.0
 41
1.0
 50
0.0
 71
     0
 42
0.299997
  3
TXT
  4

  0
STYLE
  5
2F9
330
15
100
AcDbSymbolTableRecord
100
AcDbTextStyleTableRecord
  2

 70
     1
 40
0.0
 41
1.0
 50
0.0
 71
     0
 42
0.299997
  3
ltypeshp.shx
  4

  0
ENDTAB
  0
TABLE
  2
VIEW
  5
1B
330
0
100
AcDbSymbolTable
 70
     0
  0
ENDTAB
  0
TABLE
  2
UCS
  5
1C
330
0
100
AcDbSymbolTable
 70
     0
  0
ENDTAB
  0
TABLE
  2
APPID
  5
1F
330
0
100
AcDbSymbolTable
 70
     1
  0
APPID
  5
20
330
1F
100
AcDbSymbolTableRecord
100
AcDbRegAppTableRecord
  2
ACAD
 70
     0
  0
ENDTAB
  0
TABLE
  2
DIMSTYLE
  5
21
330
0
100
AcDbSymbolTable
 70
     1
100
AcDbDimStyleTable
  0
DIMSTYLE
105
27
330
21
100
AcDbSymbolTableRecord
100
AcDbDimStyleTableRecord
  2
STANDARD
 70
     0
  3

  4

340
16
  0
ENDTAB
  0
TABLE
  2
BLOCK_RECORD
  5
1
330
0
100
AcDbSymbolTable
 70
     0
  0
BLOCK_RECORD
  5
2
330
1
100
AcDbSymbolTableRecord
100
AcDbBlockTableRecord
  2
*MODEL_SPACE
340
C
  0
BLOCK_RECORD
  5
E
330
1
100
AcDbSymbolTableRecord
100
AcDbBlockTableRecord
  2
*PAPER_SPACE
340
13
  0
ENDTAB
  0
ENDSEC
  0
SECTION
  2
BLOCKS
  0
BLOCK
  5
5
330
2
100
AcDbEntity
  8
0
100
AcDbBlockBegin
  2
*MODEL_SPACE
 70
     0
 10
0.0
 20
0.0
 30
0.0
  3
*MODEL_SPACE
  1

  4

  0
ENDBLK
  5
B
330
2
100
AcDbEntity
  8
0
100
AcDbBlockEnd
  0
BLOCK
  5
11
330
E
100
AcDbEntity
 67
     1
  8
0
100
AcDbBlockBegin
  2
*PAPER_SPACE
 70
     0
 10
0.0
 20
0.0
 30
0.0
  3
*PAPER_SPACE
  1

  4

  0
ENDBLK
  5
12
330
E
100
AcDbEntity
 67
     1
  8
0
100
AcDbBlockEnd
  0
ENDSEC
  0
SECTION
  2
ENTITIES
  0
LINE
  5
204
330
2
100
AcDbEntity
  8
0
100
AcDbLine
 10
1.368857856015623
 20
2.711719147911335
 30
0.0
 11
1.653149044714084
 21
2.711719147911335
 31
0.0
  0
LINE
  5
205
330
2
100
AcDbEntity
  8
0
100
AcDbLine
 10
1.368857856015623
 20
0.7117191479113387
 30
0.0
 11
1.653149044714084
 21
0.7117191479113387
 31
0.0
  0
LINE
  5
206
330
2
100
AcDbEntity
  8
0
100
AcDbLine
 10
0.8529588688205436
 20
2.711719147911339
 30
0.0
 11
1.653149044714084
 21
2.711719147911342
 31
0.0
  0
LINE
  5
207
330
2
100
AcDbEntity
  8
0
100
AcDbLine
 10
0.8598132924155948
 20
0.7117191479113387
 30
0.0
 11
1.653149044714084
 21
0.7117191479113387
 31
0.0
  0
LINE
  5
208
330
2
100
AcDbEntity
  8
0
100
AcDbLine
 10
-1.401850955285916
 20
2.711719147911339
 30
0.0
 11
-1.401850955285916
 21
0.7117191479113387
 31
0.0
  0
LINE
  5
209
330
2
100
AcDbEntity
  8
0
100
AcDbLine
 10
-1.401850955285916
 20
1.716424143759241
 30
0.0
 11
-1.401850955285916
 21
2.711719147911339
 31
0.0
  0
LINE
  5
20A
330
2
100
AcDbEntity
  8
0
100
AcDbLine
 10
-1.471850955285916
 20
1.716424143759241
 30
0.0
 11
-1.471850955285916
 21
2.711719147911339
 31
0.0
  0
LINE
  5
20B
330
2
100
AcDbEntity
  8
0
100
AcDbLine
 10
-1.471850955285916
 20
2.711719147911339
 30
0.0
 11
-1.471850955285916
 21
0.7117191479113387
 31
0.0
  0
LINE
  5
20C
330
2
100
AcDbEntity
  8
0
100
AcDbLine
 10
-0.5689898913113964
 20
0.7117191479113387
 30
0.0
 11
0.5689898913113964
 21
0.7117191479113387
 31
0.0
  0
LINE
  5
20D
330
2
100
AcDbEntity
  8
0
100
AcDbLine
 10
-1.471850955285916
 20
0.7117191479113387
 30
0.0
 11
-0.8863488299531994
 21
0.7117191479113387
 31
0.0
  0
LINE
  5
20E
330
2
100
AcDbEntity
  8
0
100
AcDbLine
 10
-1.393142143984385
 20
0.7117191479113387
 30
0.0
 11
-1.471850955285916
 21
0.7117191479113352
 31
0.0
  0
ARC
  5
210
330
2
100
AcDbEntity
  8
0
100
AcDbCircle
 10
-0.6656360724920987
 20
0.721087974887304
 30
0.0
 40
0.0855
100
AcDbArc
 50
0.2278630604534105
 51
89.76337813599629
  0
LINE
  5
211
330
2
100
AcDbEntity
  8
0
100
AcDbLine
 10
-0.7956330646330017
 20
0.8065879748873037
 30
0.0
 11
-0.6788151352322842
 21
0.8065879748873037
 31
0.0
  0
ARC
  5
212
330
2
100
AcDbEntity
  8
0
100
AcDbCircle
 10
-0.7956330646330017
 20
0.721087974887304
 30
0.0
 40
0.0855
100
AcDbArc
 50
89.15683566431991
 51
180.0000000000001
  0
ARC
  5
213
330
2
100
AcDbEntity
  8
0
100
AcDbCircle
 10
0.6543669353670012
 20
0.721087974887304
 30
0.0
 40
0.0855
100
AcDbArc
 50
89.15683566431991
 51
180.0000000000001
  0
ARC
  5
214
330
2
100
AcDbEntity
  8
0
100
AcDbCircle
 10
0.7679545263706586
 20
0.721087974887304
 30
0.0
 40
0.0855
100
AcDbArc
 50
0.2278630604534105
 51
89.76337813599629
  0
LINE
  5
215
330
2
100
AcDbEntity
  8
0
100
AcDbLine
 10
0.6543669353670012
 20
0.8065879748873037
 30
0.0
 11
0.7711848647677186
 21
0.8065879748873037
 31
0.0
  0
LINE
  5
216
330
2
100
AcDbEntity
  8
0
  6
HIDDEN
100
AcDbLine
 10
-1.643638508020402
 20
2.721205797417731
 30
0.0
 11
-2.477712617561458
 21
2.721205797417731
 31
0.0
  0
LINE
  5
217
330
2
100
AcDbEntity
  8
0
100
AcDbLine
 10
-1.464683002291608
 20
2.651205797417731
 30
0.0
 11
-2.496362543449159
 21
2.651205797417724
 31
0.0
  0
LINE
  5
218
330
2
100
AcDbEntity
  8
0
100
AcDbLine
 10
-2.600434441437436
 20
4.295411401352197
 30
0.0
 11
-1.428053402543974
 21
4.295411401352197
 31
0.0
  0
ARC
  5
219
330
2
100
AcDbEntity
  8
0
100
AcDbCircle
 10
-2.337072000997566
 20
3.185723776252168
 30
0.0
 40
0.2
100
AcDbArc
 50
282.6356250930186
 51
0.0000000000000254
  0
ARC
  5
21A
330
2
100
AcDbEntity
  8
0
100
AcDbCircle
 10
-2.257942203078159
 20
2.795411401352205
 30
0.0
 40
0.2
100
AcDbArc
 50
102.6356250930188
 51
180.0
  0
LINE
  5
21B
330
2
100
AcDbEntity
  8
0
100
AcDbLine
 10
-2.457942203078162
 20
2.795411401352205
 30
0.0
 11
-2.498082739846318
 21
2.644749270537904
 31
0.0
  0
LINE
  5
21C
330
2
100
AcDbEntity
  8
0
100
AcDbLine
 10
-2.198628255858672
 20
3.643093973256072
 30
0.0
 11
-2.600434441437436
 21
3.854916173990226
 31
0.0
  0
LINE
  5
21D
330
2
100
AcDbEntity
  8
0
100
AcDbLine
 10
-2.600434441437436
 20
3.854916173990226
 30
0.0
 11
-2.600434441437436
 21
4.295411401352197
 31
0.0
  0
LINE
  5
21E
330
2
100
AcDbEntity
  8
0
100
AcDbLine
 10
-2.137072000997563
 20
3.541337050695837
 30
0.0
 11
-2.137072000997563
 21
3.185723776252168
 31
0.0
  0
ARC
  5
21F
330
2
100
AcDbEntity
  8
0
100
AcDbCircle
 10
-2.324572000997563
 20
3.498785439787717
 30
0.0
 40
0.1875
100
AcDbArc
 50
359.9999999999998
 51
50.50336447242515
  0
LINE
  5
220
330
2
100
AcDbEntity
  8
0
100
AcDbLine
 10
-2.137072000997563
 20
3.541337050695837
 30
0.0
 11
-2.137072000997563
 21
3.185723776252168
 31
0.0
  0
CIRCLE
  5
221
330
2
100
AcDbEntity
  8
0
100
AcDbCircle
 10
-2.174680784127283
 20
4.006338031288465
 30
0.0
 40
0.0855
  0
LINE
  5
222
330
2
100
AcDbEntity
  8
0
100
AcDbLine
 10
-0.5689898913113964
 20
2.711719147911339
 30
0.0
 11
0.5768235182771662
 21
2.711719147911339
 31
0.0
  0
LINE
  5
223
330
2
100
AcDbEntity
  8
0
100
AcDbLine
 10
-1.428053402543974
 20
4.295411401352205
 30
0.0
 11
-1.428053402543974
 21
2.986190660193344
 31
0.0
  0
LINE
  5
224
330
2
100
AcDbEntity
  8
0
100
AcDbLine
 10
-1.471850955285916
 20
2.711719147911342
 30
0.0
 11
-0.8716607793923785
 21
2.711719147911339
 31
0.0
  0
LINE
  5
225
330
2
100
AcDbEntity
  8
0
100
AcDbLine
 10
-1.361024229049853
 20
2.711719147911335
 30
0.0
 11
-1.471850955285916
 21
2.711719147911332
 31
0.0
  0
ARC
  5
226
330
2
100
AcDbEntity
  8
0
100
AcDbCircle
 10
-1.490553402543974
 20
2.986190660193344
 30
0.0
 40
0.0625
100
AcDbArc
 50
274.8507565418151
 51
0.0
  0
ARC
  5
227
330
2
100
AcDbEntity
  8
0
100
AcDbCircle
 10
-1.571058149773855
 20
2.761623862977903
 30
0.0
 40
0.0625
100
AcDbArc
 50
180.5062469270108
 51
246.8430185723061
  0
ARC
  5
228
330
2
100
AcDbEntity
  8
0
100
AcDbCircle
 10
-1.471570248763719
 20
2.762502928683837
 30
0.0
 40
0.1619917846052916
100
AcDbArc
 50
94.85075654181411
 51
180.5062469270104
  0
LINE
  5
229
330
2
100
AcDbEntity
  8
0
100
AcDbLine
 10
-1.595636380858309
 20
2.704159434356718
 30
0.0
 11
-1.513205998427608
 21
2.651026859321835
 31
0.0
  0
LINE
  5
22A
330
2
100
AcDbEntity
  8
0
100
AcDbLine
 10
-1.393142143984385
 20
2.711719147911335
 30
0.0
 11
-1.471850955285916
 21
2.711719147911335
 31
0.0
  0
ARC
  5
22B
330
2
100
AcDbEntity
  8
0
100
AcDbCircle
 10
-0.6656360724920987
 20
2.710813312684746
 30
0.0
 40
0.0855
100
AcDbArc
 50
270.2366218640037
 51
359.7721369395466
  0
ARC
  5
22C
330
2
100
AcDbEntity
  8
0
100
AcDbCircle
 10
-0.7956330646330017
 20
2.710813312684746
 30
0.0
 40
0.0855
100
AcDbArc
 50
180.0
 51
270.8431643356801
  0
LINE
  5
22D
330
2
100
AcDbEntity
  8
0
100
AcDbLine
 10
-0.7956330646330017
 20
2.625313312684742
 30
0.0
 11
-0.6788151352322842
 21
2.625313312684742
 31
0.0
  0
ARC
  5
22E
330
2
100
AcDbEntity
  8
0
100
AcDbCircle
 10
0.6543669353670012
 20
2.710813312684746
 30
0.0
 40
0.0855
100
AcDbArc
 50
180.0
 51
270.8431643356801
  0
LINE
  5
22F
330
2
100
AcDbEntity
  8
0
100
AcDbLine
 10
0.6543669353670012
 20
2.625313312684742
 30
0.0
 11
0.7711848647677186
 21
2.625313312684742
 31
0.0
  0
ARC
  5
230
330
2
100
AcDbEntity
  8
0
100
AcDbCircle
 10
0.7679545263706586
 20
2.710813312684746
 30
0.0
 40
0.0855
100
AcDbArc
 50
270.2366218640037
 51
359.7721369395466
  0
LINE
  5
231
330
2
100
AcDbEntity
  8
0
100
AcDbLine
 10
1.583149044714084
 20
2.711719147911342
 30
0.0
 11
1.583149044714084
 21
0.7117191479113387
 31
0.0
  0
LINE
  5
232
330
2
100
AcDbEntity
  8
0
100
AcDbLine
 10
1.653149044714084
 20
1.716424143759241
 30
0.0
 11
1.653149044714084
 21
2.581205797417731
 31
0.0
  0
LINE
  5
233
330
2
100
AcDbEntity
  8
0
100
AcDbLine
 10
1.653149044714084
 20
2.711719147911342
 30
0.0
 11
1.653149044714084
 21
0.7117191479113387
 31
0.0
  0
LINE
  5
235
330
2
100
AcDbEntity
  8
0
100
AcDbLine
 10
1.61651944496645
 20
4.295411401352205
 30
0.0
 11
1.61651944496645
 21
2.986190660193344
 31
0.0
  0
ARC
  5
236
330
2
100
AcDbEntity
  8
0
100
AcDbCircle
 10
2.525538043420042
 20
3.185723776252168
 30
0.0
 40
0.2
100
AcDbArc
 50
180.0
 51
257.3643749069814
  0
LINE
  5
237
330
2
100
AcDbEntity
  8
0
100
AcDbLine
 10
1.653149044714084
 20
2.651205797417731
 30
0.0
 11
2.684828585871642
 21
2.651205797417724
 31
0.0
  0
LINE
  5
238
330
2
100
AcDbEntity
  8
0
  6
HIDDEN
100
AcDbLine
 10
1.832104550442878
 20
2.721205797417731
 30
0.0
 11
2.666178659983935
 21
2.721205797417731
 31
0.0
  0
ARC
  5
239
330
2
100
AcDbEntity
  8
0
100
AcDbCircle
 10
1.660036291186195
 20
2.762502928683837
 30
0.0
 40
0.1619917846052916
100
AcDbArc
 50
359.4937530729897
 51
85.14924345818588
  0
ARC
  5
23A
330
2
100
AcDbEntity
  8
0
100
AcDbCircle
 10
1.759524192196331
 20
2.761623862977903
 30
0.0
 40
0.0625
100
AcDbArc
 50
293.1569814276937
 51
359.4937530729893
  0
LINE
  5
23B
330
2
100
AcDbEntity
  8
0
100
AcDbLine
 10
1.784102423280785
 20
2.704159434356718
 30
0.0
 11
1.701672040850085
 21
2.651026859321835
 31
0.0
  0
ARC
  5
23C
330
2
100
AcDbEntity
  8
0
100
AcDbCircle
 10
1.67901944496645
 20
2.986190660193344
 30
0.0
 40
0.0625
100
AcDbArc
 50
180.0
 51
265.1492434581849
  0
LINE
  5
23D
330
2
100
AcDbEntity
  8
0
100
AcDbLine
 10
1.652929960488748
 20
2.724265395134342
 30
0.0
 11
1.652929960488748
 21
2.699155039998626
 31
0.0
  0
ARC
  5
23E
330
2
100
AcDbEntity
  8
0
100
AcDbCircle
 10
2.446408245500635
 20
2.795411401352205
 30
0.0
 40
0.2
100
AcDbArc
 50
0.0
 51
77.36437490698097
  0
LINE
  5
23F
330
2
100
AcDbEntity
  8
0
100
AcDbLine
 10
2.646408245500638
 20
2.795411401352205
 30
0.0
 11
2.686548782268794
 21
2.644749270537904
 31
0.0
  0
LINE
  5
240
330
2
100
AcDbEntity
  8
0
100
AcDbLine
 10
2.882083872785991
 20
4.295411401352197
 30
0.0
 11
1.61651944496645
 21
4.295411401352197
 31
0.0
  0
LINE
  5
241
330
2
100
AcDbEntity
  8
0
100
AcDbLine
 10
2.882083872785991
 20
3.854916173990226
 30
0.0
 11
2.882083872785991
 21
4.295411401352197
 31
0.0
  0
LINE
  5
242
330
2
100
AcDbEntity
  8
0
100
AcDbLine
 10
2.387094298281149
 20
3.643093973256072
 30
0.0
 11
2.895038259659707
 21
3.84159074494989
 31
0.0
  0
LINE
  5
243
330
2
100
AcDbEntity
  8
0
100
AcDbLine
 10
2.325538043420039
 20
3.541337050695837
 30
0.0
 11
2.325538043420039
 21
3.185723776252168
 31
0.0
  0
ARC
  5
244
330
2
100
AcDbEntity
  8
0
100
AcDbCircle
 10
2.513038043420039
 20
3.498785439787717
 30
0.0
 40
0.1875
100
AcDbArc
 50
129.4966355275749
 51
180.0000000000001
  0
LINE
  5
245
330
2
100
AcDbEntity
  8
0
100
AcDbLine
 10
2.325538043420039
 20
3.541337050695837
 30
0.0
 11
2.325538043420039
 21
3.185723776252168
 31
0.0
  0
CIRCLE
  5
246
330
2
100
AcDbEntity
  8
0
100
AcDbCircle
 10
2.394096300100792
 20
4.043605112968301
 30
0.0
 40
0.0855
  0
LINE
  5
25F
330
2
100
AcDbEntity
  8
0
100
AcDbLine
 10
-1.63999867260371
 20
1.259867367420924
 30
0.0
 11
-1.661611989579569
 21
1.280805268241267
 31
0.0
  0
LINE
  5
260
330
2
100
AcDbEntity
  8
0
100
AcDbLine
 10
-1.661611989579569
 20
1.280805268241267
 30
0.0
 11
-1.502238280359961
 21
1.440815154751562
 31
0.0
  0
LINE
  5
261
330
2
100
AcDbEntity
  8
0
100
AcDbLine
 10
-1.484166139383518
 20
1.415699900641101
 30
0.0
 11
-1.63999867260371
 21
1.259867367420924
 31
0.0
  0
ARC
  5
262
330
2
100
AcDbEntity
  8
0
100
AcDbCircle
 10
-1.546166139383516
 20
1.484568362652311
 30
0.0
 40
0.062
100
AcDbArc
 50
315.1141267931651
 51
0.0
  0
LINE
  5
263
330
2
100
AcDbEntity
  8
0
100
AcDbLine
 10
1.8246438245626
 20
1.276199393715928
 30
0.0
 11
1.846257141538459
 21
1.29713729453627
 31
0.0
  0
LINE
  5
264
330
2
100
AcDbEntity
  8
0
100
AcDbLine
 10
1.846257141538459
 20
1.29713729453627
 30
0.0
 11
1.686883432318851
 21
1.457147181046565
 31
0.0
  0
LINE
  5
265
330
2
100
AcDbEntity
  8
0
100
AcDbLine
 10
1.668811291342408
 20
1.432031926936105
 30
0.0
 11
1.8246438245626
 21
1.276199393715928
 31
0.0
  0
ARC
  5
266
330
2
100
AcDbEntity
  8
0
100
AcDbCircle
 10
1.730811291342405
 20
1.500900388947315
 30
0.0
 40
0.062
100
AcDbArc
 50
180.0
 51
224.8858732068349
  0
ENDSEC
  0
SECTION
  2
OBJECTS
  0
DICTIONARY
  5
9
330
0
100
AcDbDictionary
281
     1
  3
ACAD_COLOR
350
2EB
  3
ACAD_GROUP
350
23
  3
ACAD_LAYOUT
350
D
  3
ACAD_MATERIAL
350
2EA
  3
ACAD_MLINESTYLE
350
24
  3
ACAD_PLOTSETTINGS
350
25
  3
ACAD_PLOTSTYLENAME
350
8
  3
ACAD_TABLESTYLE
350
2EC
  3
ACDBHEADERROUNDTRIPXREC
350
31C
  3
AcDbVariableDictionary
350
145
  0
DICTIONARY
  5
2EB
102
{ACAD_REACTORS
330
9
102
}
330
9
100
AcDbDictionary
281
     1
  0
DICTIONARY
  5
23
102
{ACAD_REACTORS
330
9
102
}
330
9
100
AcDbDictionary
281
     1
  0
DICTIONARY
  5
D
102
{ACAD_REACTORS
330
9
102
}
330
9
100
AcDbDictionary
281
     1
  3
Layout1
350
13
  3
Model
350
C
  0
DICTIONARY
  5
2EA
102
{ACAD_REACTORS
330
9
102
}
330
9
100
AcDbDictionary
281
     1
  0
DICTIONARY
  5
24
102
{ACAD_REACTORS
330
9
102
}
330
9
100
AcDbDictionary
281
     1
  3
STANDARD
350
26
  0
DICTIONARY
  5
25
102
{ACAD_REACTORS
330
9
102
}
330
9
100
AcDbDictionary
281
     1
  0
ACDBDICTIONARYWDFLT
  5
8
102
{ACAD_REACTORS
330
9
102
}
330
9
100
AcDbDictionary
281
     1
  3
Normal
350
7
100
AcDbDictionaryWithDefault
340
7
  0
DICTIONARY
  5
2EC
102
{ACAD_REACTORS
330
9
102
}
330
9
100
AcDbDictionary
281
     1
  3
Standard
350
2ED
  0
DICTIONARY
  5
31C
102
{ACAD_REACTORS
330
9
102
}
330
9
100
AcDbDictionary
281
     1
  3
COLORDICT
350
31D
  3
MATERIALDICT
350
31E
  0
DICTIONARY
  5
145
102
{ACAD_REACTORS
330
9
102
}
330
9
100
AcDbDictionary
281
     1
  3
CTABLESTYLE
350
309
  3
HIDETEXT
350
31B
  0
LAYOUT
  5
13
102
{ACAD_REACTORS
330
D
102
}
102
{ACAD_XDICTIONARY
360
31F
102
}
330
D
100
AcDbPlotSettings
  1

  2
CANON BJC-6000
  4

  6

 40
0.0
 41
0.0
 42
0.0
 43
0.0
 44
0.0
 45
0.0
 46
0.0
 47
0.0
 48
0.0
 49
0.0
140
0.0
141
0.0
142
1.0
143
1.0
 70
   688
 72
     0
 73
     0
 74
     5
  7

 75
    16
147
1.0
148
0.0
149
0.0
100
AcDbLayout
  1
Layout1
 70
     0
 71
     1
 10
0.0
 20
0.0
 11
12.0
 21
9.0
 12
0.0
 22
0.0
 32
0.0
 14
1.000000000000000E+20
 24
1.000000000000000E+20
 34
1.000000000000000E+20
 15
-1.000000000000000E+20
 25
-1.000000000000000E+20
 35
-1.000000000000000E+20
146
0.0
 13
0.0
 23
0.0
 33
0.0
 16
1.0
 26
0.0
 36
0.0
 17
0.0
 27
1.0
 37
0.0
 76
     0
330
E
  0
LAYOUT
  5
C
102
{ACAD_REACTORS
330
D
102
}
102
{ACAD_XDICTIONARY
360
321
102
}
330
D
100
AcDbPlotSettings
  1

  2
CANON BJC-6000
  4

  6

 40
0.0
 41
0.0
 42
0.0
 43
0.0
 44
0.0
 45
0.0
 46
0.0
 47
0.0
 48
0.0
 49
0.0
140
0.0
141
0.0
142
1.0
143
1.0
 70
  1712
 72
     0
 73
     0
 74
     0
  7

 75
     0
147
1.0
148
0.0
149
0.0
100
AcDbLayout
  1
Model
 70
     1
 71
     0
 10
0.0
 20
0.0
 11
12.0
 21
9.0
 12
0.0
 22
0.0
 32
0.0
 14
0.0
 24
0.0
 34
0.0
 15
0.0
 25
0.0
 35
0.0
146
0.0
 13
0.0
 23
0.0
 33
0.0
 16
1.0
 26
0.0
 36
0.0
 17
0.0
 27
1.0
 37
0.0
 76
     0
330
2
  0
MLINESTYLE
  5
26
102
{ACAD_REACTORS
330
24
102
}
330
24
100
AcDbMlineStyle
  2
STANDARD
 70
     0
  3

 62
   256
 51
90.0
 52
90.0
 71
     2
 49
0.5
 62
   256
  6
BYLAYER
 49
-0.5
 62
   256
  6
BYLAYER
  0
ACDBPLACEHOLDER
  5
7
102
{ACAD_REACTORS
330
8
102
}
330
8
  0
ACAD_PROXY_OBJECT
  5
2ED
102
{ACAD_REACTORS
330
2EC
102
}
330
2EC
100
AcDbProxyObject
 90
      499
 91
      508
 95
   983063
 70
     0
 93
     1841
310
4214DD185B99185C9928B81E85EB51B8AE3F2E07A17AD46E2B8FC02B5E8DC0F42B1CFD028000000C1008070000C3001FDFF8000000C1003FBFF000000182007F7FE00000030400FEFFC00000060801FDFF8000000C1003FBFF00000018200000000000000681FA0B0000001820100E000186003FBFF000000182007F7FE000
310
00030400FEFFC00000060801FDFF8000000C1003FBFF000000182007F7FE000000304000AD7A3703D0AC73F4160000003040201C00030C007F7FE00000030400FEFFC00000060801FDFF8000000C1003FBFF000000182007F7FE00000030400FEFFC000000608000
340
16
340
16
340
16
 94
        0
  0
XRECORD
  5
31D
102
{ACAD_REACTORS
330
31C
102
}
330
31C
100
AcDbXrecord
340
2EB
  0
XRECORD
  5
31E
102
{ACAD_REACTORS
330
31C
102
}
330
31C
100
AcDbXrecord
340
2EA
  0
DICTIONARYVAR
  5
309
102
{ACAD_REACTORS
330
145
102
}
330
145
100
DictionaryVariables
280
     0
  1
STANDARD
  0
DICTIONARYVAR
  5
31B
102
{ACAD_REACTORS
330
145
102
}
330
145
100
DictionaryVariables
280
     0
  1
0
  0
DICTIONARY
  5
31F
330
13
100
AcDbDictionary
280
     1
281
     1
  3
ACAD_XREC_ROUNDTRIP
360
320
  0
DICTIONARY
  5
321
330
C
100
AcDbDictionary
280
     1
281
     1
  3
ACAD_XREC_ROUNDTRIP
360
322
  0
XRECORD
  5
320
102
{ACAD_REACTORS
330
31F
102
}
330
31F
100
AcDbXrecord
102
SHADEPLOT
 70
     0
102
SHADEPLOTRESLEVEL
 70
     2
102
SHADEPLOTCUSTOMDPI
 70
   300
  0
XRECORD
  5
322
102
{ACAD_REACTORS
330
321
102
}
330
321
100
AcDbXrecord
102
SHADEPLOT
 70
     0
102
SHADEPLOTRESLEVEL
 70
     2
102
SHADEPLOTCUSTOMDPI
 70
   300
  0
ENDSEC
  0
EOF
