  0
SECTION
  2
HEADER
  9
$ACADVER
  1
AC1015
  9
$ACADMAINTVER
 70
     6
  9
$DWGCODEPAGE
  3
ANSI_1252
  9
$INSBASE
 10
0.0
 20
0.0
 30
0.0
  9
$EXTMIN
 10
-10.61556862659201
 20
-0.0258883476483237
 30
0.0
  9
$EXTMAX
 10
10.61556862659201
 20
16.74086330787363
 30
0.0
  9
$LIMMIN
 10
0.0
 20
0.0
  9
$LIMMAX
 10
12.0
 20
9.0
  9
$ORTHOMODE
 70
     1
  9
$REGENMODE
 70
     1
  9
$FILLMODE
 70
     1
  9
$QTEXTMODE
 70
     0
  9
$MIRRTEXT
 70
     1
  9
$LTSCALE
 40
1.0
  9
$ATTMODE
 70
     1
  9
$TEXTSIZE
 40
0.2
  9
$TRACEWID
 40
0.05
  9
$TEXTSTYLE
  7
Standard
  9
$CLAYER
  8
0
  9
$CELTYPE
  6
ByLayer
  9
$CECOLOR
 62
   256
  9
$CELTSCALE
 40
1.0
  9
$DISPSILH
 70
     0
  9
$DIMSCALE
 40
1.0
  9
$DIMASZ
 40
0.18
  9
$DIMEXO
 40
0.0625
  9
$DIMDLI
 40
0.38
  9
$DIMRND
 40
0.0
  9
$DIMDLE
 40
0.0
  9
$DIMEXE
 40
0.18
  9
$DIMTP
 40
0.0
  9
$DIMTM
 40
0.0
  9
$DIMTXT
 40
0.18
  9
$DIMCEN
 40
0.09
  9
$DIMTSZ
 40
0.0
  9
$DIMTOL
 70
     0
  9
$DIMLIM
 70
     0
  9
$DIMTIH
 70
     1
  9
$DIMTOH
 70
     1
  9
$DIMSE1
 70
     0
  9
$DIMSE2
 70
     0
  9
$DIMTAD
 70
     0
  9
$DIMZIN
 70
     0
  9
$DIMBLK
  1

  9
$DIMASO
 70
     1
  9
$DIMSHO
 70
     1
  9
$DIMPOST
  1

  9
$DIMAPOST
  1

  9
$DIMALT
 70
     0
  9
$DIMALTD
 70
     2
  9
$DIMALTF
 40
25.4
  9
$DIMLFAC
 40
1.0
  9
$DIMTOFL
 70
     0
  9
$DIMTVP
 40
0.0
  9
$DIMTIX
 70
     0
  9
$DIMSOXD
 70
     0
  9
$DIMSAH
 70
     0
  9
$DIMBLK1
  1

  9
$DIMBLK2
  1

  9
$DIMSTYLE
  2
Standard
  9
$DIMCLRD
 70
     0
  9
$DIMCLRE
 70
     0
  9
$DIMCLRT
 70
     0
  9
$DIMTFAC
 40
1.0
  9
$DIMGAP
 40
0.09
  9
$DIMJUST
 70
     0
  9
$DIMSD1
 70
     0
  9
$DIMSD2
 70
     0
  9
$DIMTOLJ
 70
     1
  9
$DIMTZIN
 70
     0
  9
$DIMALTZ
 70
     0
  9
$DIMALTTZ
 70
     0
  9
$DIMUPT
 70
     0
  9
$DIMDEC
 70
     4
  9
$DIMTDEC
 70
     4
  9
$DIMALTU
 70
     2
  9
$DIMALTTD
 70
     2
  9
$DIMTXSTY
  7
Standard
  9
$DIMAUNIT
 70
     0
  9
$DIMADEC
 70
     0
  9
$DIMALTRND
 40
0.0
  9
$DIMAZIN
 70
     0
  9
$DIMDSEP
 70
    46
  9
$DIMATFIT
 70
     3
  9
$DIMFRAC
 70
     0
  9
$DIMLDRBLK
  1

  9
$DIMLUNIT
 70
     2
  9
$DIMLWD
 70
    -2
  9
$DIMLWE
 70
    -2
  9
$DIMTMOVE
 70
     0
  9
$LUNITS
 70
     2
  9
$LUPREC
 70
     4
  9
$SKETCHINC
 40
0.1
  9
$FILLETRAD
 40
0.5
  9
$AUNITS
 70
     0
  9
$AUPREC
 70
     0
  9
$MENU
  1
.
  9
$ELEVATION
 40
0.0
  9
$PELEVATION
 40
0.0
  9
$THICKNESS
 40
0.0
  9
$LIMCHECK
 70
     0
  9
$CHAMFERA
 40
0.5
  9
$CHAMFERB
 40
0.5
  9
$CHAMFERC
 40
1.0
  9
$CHAMFERD
 40
0.0
  9
$SKPOLY
 70
     0
  9
$TDCREATE
 40
2451870.894198843
  9
$TDUCREATE
 40
2451871.227532176
  9
$TDUPDATE
 40
2454166.018347234
  9
$TDUUPDATE
 40
2454166.351680567
  9
$TDINDWG
 40
0.0071462153
  9
$TDUSRTIMER
 40
0.0071462153
  9
$USRTIMER
 70
     1
  9
$ANGBASE
 50
0.0
  9
$ANGDIR
 70
     0
  9
$PDMODE
 70
     0
  9
$PDSIZE
 40
0.0
  9
$PLINEWID
 40
0.0
  9
$SPLFRAME
 70
     0
  9
$SPLINETYPE
 70
     6
  9
$SPLINESEGS
 70
     8
  9
$HANDSEED
  5
4AB
  9
$SURFTAB1
 70
     6
  9
$SURFTAB2
 70
     6
  9
$SURFTYPE
 70
     6
  9
$SURFU
 70
     6
  9
$SURFV
 70
     6
  9
$UCSBASE
  2

  9
$UCSNAME
  2

  9
$UCSORG
 10
0.0
 20
0.0
 30
0.0
  9
$UCSXDIR
 10
1.0
 20
0.0
 30
0.0
  9
$UCSYDIR
 10
0.0
 20
1.0
 30
0.0
  9
$UCSORTHOREF
  2

  9
$UCSORTHOVIEW
 70
     0
  9
$UCSORGTOP
 10
0.0
 20
0.0
 30
0.0
  9
$UCSORGBOTTOM
 10
0.0
 20
0.0
 30
0.0
  9
$UCSORGLEFT
 10
0.0
 20
0.0
 30
0.0
  9
$UCSORGRIGHT
 10
0.0
 20
0.0
 30
0.0
  9
$UCSORGFRONT
 10
0.0
 20
0.0
 30
0.0
  9
$UCSORGBACK
 10
0.0
 20
0.0
 30
0.0
  9
$PUCSBASE
  2

  9
$PUCSNAME
  2

  9
$PUCSORG
 10
0.0
 20
0.0
 30
0.0
  9
$PUCSXDIR
 10
1.0
 20
0.0
 30
0.0
  9
$PUCSYDIR
 10
0.0
 20
1.0
 30
0.0
  9
$PUCSORTHOREF
  2

  9
$PUCSORTHOVIEW
 70
     0
  9
$PUCSORGTOP
 10
0.0
 20
0.0
 30
0.0
  9
$PUCSORGBOTTOM
 10
0.0
 20
0.0
 30
0.0
  9
$PUCSORGLEFT
 10
0.0
 20
0.0
 30
0.0
  9
$PUCSORGRIGHT
 10
0.0
 20
0.0
 30
0.0
  9
$PUCSORGFRONT
 10
0.0
 20
0.0
 30
0.0
  9
$PUCSORGBACK
 10
0.0
 20
0.0
 30
0.0
  9
$USERI1
 70
     0
  9
$USERI2
 70
     0
  9
$USERI3
 70
     0
  9
$USERI4
 70
     0
  9
$USERI5
 70
     0
  9
$USERR1
 40
0.0
  9
$USERR2
 40
0.0
  9
$USERR3
 40
0.0
  9
$USERR4
 40
0.0
  9
$USERR5
 40
0.0
  9
$WORLDVIEW
 70
     1
  9
$SHADEDGE
 70
     3
  9
$SHADEDIF
 70
    70
  9
$TILEMODE
 70
     1
  9
$MAXACTVP
 70
    48
  9
$PINSBASE
 10
0.0
 20
0.0
 30
0.0
  9
$PLIMCHECK
 70
     0
  9
$PEXTMIN
 10
1.000000000000000E+20
 20
1.000000000000000E+20
 30
1.000000000000000E+20
  9
$PEXTMAX
 10
-1.000000000000000E+20
 20
-1.000000000000000E+20
 30
-1.000000000000000E+20
  9
$PLIMMIN
 10
0.0
 20
0.0
  9
$PLIMMAX
 10
12.0
 20
9.0
  9
$UNITMODE
 70
     0
  9
$VISRETAIN
 70
     1
  9
$PLINEGEN
 70
     0
  9
$PSLTSCALE
 70
     1
  9
$TREEDEPTH
 70
  3020
  9
$CMLSTYLE
  2
Standard
  9
$CMLJUST
 70
     0
  9
$CMLSCALE
 40
1.0
  9
$PROXYGRAPHICS
 70
     1
  9
$MEASUREMENT
 70
     0
  9
$CELWEIGHT
370
    -1
  9
$ENDCAPS
280
     0
  9
$JOINSTYLE
280
     0
  9
$LWDISPLAY
290
     0
  9
$INSUNITS
 70
     1
  9
$HYPERLINKBASE
  1

  9
$STYLESHEET
  1

  9
$XEDIT
290
     1
  9
$CEPSNTYPE
380
     0
  9
$PSTYLEMODE
290
     1
  9
$FINGERPRINTGUID
  2
{FDEAD576-A652-11D2-9A35-0060089B3A3F}
  9
$VERSIONGUID
  2
{54AA2221-1EF2-4CB7-A345-E9BC070654E6}
  9
$EXTNAMES
290
     1
  9
$PSVPSCALE
 40
0.0
  9
$OLESTARTUP
290
     0
  0
ENDSEC
  0
SECTION
  2
CLASSES
  0
CLASS
  1
ACDBDICTIONARYWDFLT
  2
AcDbDictionaryWithDefault
  3
AutoCAD 2000
 90
        0
280
     0
281
     0
  0
CLASS
  1
ACDBPLACEHOLDER
  2
AcDbPlaceHolder
  3
ObjectDBX Classes
 90
        0
280
     0
281
     0
  0
CLASS
  1
LAYOUT
  2
AcDbLayout
  3
ObjectDBX Classes
 90
        0
280
     0
281
     0
  0
CLASS
  1
LONG_TRANSACTION
  2
AcDbLongTransaction
  3
ObjectDBX Classes
 90
   -65536
280
     1
281
     0
  0
CLASS
  1
LWPOLYLINE
  2
AcDbPolyline
  3
AutoCAD 2000
 90
        0
280
     0
281
     1
  0
CLASS
  1
HATCH
  2
AcDbHatch
  3
AutoCAD 2000
 90
        0
280
     0
281
     1
  0
CLASS
  1
XRECORD
  2
AcDbXrecord
  3
AutoCAD 2000
 90
        0
280
     0
281
     0
  0
CLASS
  1
DICTIONARYVAR
  2
AcDbDictionaryVar
  3
AutoCAD 2000
 90
        0
280
     0
281
     0
  0
CLASS
  1
TABLESTYLE
  2
AcDbTableStyle
  3
ObjectDBX Classes
 90
     2047
280
     1
281
     0
  0
ENDSEC
  0
SECTION
  2
TABLES
  0
TABLE
  2
VPORT
  5
1D
330
0
100
AcDbSymbolTable
 70
     3
  0
VPORT
  5
49D
330
1D
100
AcDbSymbolTableRecord
100
AcDbViewportTableRecord
  2
*Active
 70
     0
 10
0.0
 20
0.0
 11
1.0
 21
1.0
 12
2.572273091499259
 22
8.811535517433313
 13
0.0
 23
0.0
 14
0.5
 24
0.5
 15
0.5
 25
0.5
 16
0.0
 26
0.0
 36
1.0
 17
0.0
 27
0.0
 37
0.0
 40
21.38761594051603
 41
1.814583333333333
 42
50.0
 43
0.0
 44
0.0
 50
0.0
 51
0.0
 71
     0
 72
   100
 73
     1
 74
     3
 75
     0
 76
     0
 77
     0
 78
     0
281
     0
 65
     1
110
0.0
120
0.0
130
0.0
111
1.0
121
0.0
131
0.0
112
0.0
122
1.0
132
0.0
 79
     0
146
0.0
  0
ENDTAB
  0
TABLE
  2
LTYPE
  5
18
330
0
100
AcDbSymbolTable
 70
     2
  0
LTYPE
  5
19
330
18
100
AcDbSymbolTableRecord
100
AcDbLinetypeTableRecord
  2
ByBlock
 70
     0
  3

 72
    65
 73
     0
 40
0.0
  0
LTYPE
  5
1A
330
18
100
AcDbSymbolTableRecord
100
AcDbLinetypeTableRecord
  2
ByLayer
 70
     0
  3

 72
    65
 73
     0
 40
0.0
  0
LTYPE
  5
A
330
18
100
AcDbSymbolTableRecord
100
AcDbLinetypeTableRecord
  2
Continuous
 70
     0
  3
Solid line
 72
    65
 73
     0
 40
0.0
  0
LTYPE
  5
33A
330
18
100
AcDbSymbolTableRecord
100
AcDbLinetypeTableRecord
  2
HIDDEN
 70
     0
  3
_ _ _ _ _ _ _ _ _ _ _ _ _ _ _ _ _ _ _ _ _ _ _
 72
    65
 73
     2
 40
0.375
 49
0.25
 74
     0
 49
-0.125
 74
     0
  0
ENDTAB
  0
TABLE
  2
LAYER
  5
14
330
0
100
AcDbSymbolTable
 70
     1
  0
LAYER
  5
6
330
14
100
AcDbSymbolTableRecord
100
AcDbLayerTableRecord
  2
0
 70
     0
 62
     7
  6
Continuous
370
    -3
390
7
  0
ENDTAB
  0
TABLE
  2
STYLE
  5
15
330
0
100
AcDbSymbolTable
 70
     1
  0
STYLE
  5
16
330
15
100
AcDbSymbolTableRecord
100
AcDbTextStyleTableRecord
  2
Standard
 70
     0
 40
0.0
 41
1.0
 50
0.0
 71
     0
 42
0.2
  3
txt
  4

  0
ENDTAB
  0
TABLE
  2
VIEW
  5
1B
330
0
100
AcDbSymbolTable
 70
     0
  0
ENDTAB
  0
TABLE
  2
UCS
  5
1C
330
0
100
AcDbSymbolTable
 70
     0
  0
ENDTAB
  0
TABLE
  2
APPID
  5
1F
330
0
100
AcDbSymbolTable
 70
     1
  0
APPID
  5
20
330
1F
100
AcDbSymbolTableRecord
100
AcDbRegAppTableRecord
  2
ACAD
 70
     0
  0
ENDTAB
  0
TABLE
  2
DIMSTYLE
  5
21
330
0
100
AcDbSymbolTable
 70
     1
100
AcDbDimStyleTable
  0
DIMSTYLE
105
27
330
21
100
AcDbSymbolTableRecord
100
AcDbDimStyleTableRecord
  2
Standard
 70
     0
  3

  4

340
16
  0
ENDTAB
  0
TABLE
  2
BLOCK_RECORD
  5
1
330
0
100
AcDbSymbolTable
 70
     0
  0
BLOCK_RECORD
  5
2
330
1
100
AcDbSymbolTableRecord
100
AcDbBlockTableRecord
  2
*Model_Space
340
C
  0
BLOCK_RECORD
  5
E
330
1
100
AcDbSymbolTableRecord
100
AcDbBlockTableRecord
  2
*Paper_Space
340
13
  0
ENDTAB
  0
ENDSEC
  0
SECTION
  2
BLOCKS
  0
BLOCK
  5
5
330
2
100
AcDbEntity
  8
0
100
AcDbBlockBegin
  2
*Model_Space
 70
     0
 10
0.0
 20
0.0
 30
0.0
  3
*Model_Space
  1

  4

  0
ENDBLK
  5
B
330
2
100
AcDbEntity
  8
0
100
AcDbBlockEnd
  0
BLOCK
  5
11
330
E
100
AcDbEntity
 67
     1
  8
0
100
AcDbBlockBegin
  2
*Paper_Space
 70
     0
 10
0.0
 20
0.0
 30
0.0
  3
*Paper_Space
  1

  4

  0
ENDBLK
  5
12
330
E
100
AcDbEntity
 67
     1
  8
0
100
AcDbBlockEnd
  0
ENDSEC
  0
SECTION
  2
ENTITIES
  0
LINE
  5
397
330
2
100
AcDbEntity
  8
0
100
AcDbLine
 10
0.0230370418783803
 20
9.078464316435049
 30
0.0
 11
0.0230370418783803
 21
0.1809803148918583
 31
0.0
  0
LINE
  5
398
330
2
100
AcDbEntity
  8
0
100
AcDbLine
 10
-0.0394629581216197
 20
9.078464316435049
 30
0.0
 11
-0.0394629581216197
 21
0.1809803148918583
 31
0.0
  0
LINE
  5
399
330
2
100
AcDbEntity
  8
0
100
AcDbLine
 10
-1.657368444422053
 20
1.517650737365091
 30
0.0
 11
-3.011760214971401
 21
0.2099621313174431
 31
0.0
  0
LINE
  5
39A
330
2
100
AcDbEntity
  8
0
100
AcDbLine
 10
-3.117182271933396
 20
-0.0000000000000036
 30
0.0
 11
-0.1171822719334319
 21
-0.0000000000000036
 31
0.0
  0
LINE
  5
39B
330
2
100
AcDbEntity
  8
0
  6
HIDDEN
100
AcDbLine
 10
-3.117182271933396
 20
0.0624999999999964
 30
0.0
 11
-0.1171822719334319
 21
0.0624999999999964
 31
0.0
  0
LINE
  5
39D
330
2
100
AcDbEntity
  8
0
100
AcDbLine
 10
0.0230370418783803
 20
0.1809803148918583
 30
0.0
 11
-0.0394629581216197
 21
0.1809803148918583
 31
0.0
  0
LINE
  5
39E
330
2
100
AcDbEntity
  8
0
100
AcDbLine
 10
-0.1171822719334319
 20
0.0624999999999964
 30
0.0
 11
-0.1171822719334319
 21
-0.0000000000000036
 31
0.0
  0
ARC
  5
39F
330
2
100
AcDbEntity
  8
0
100
AcDbCircle
 10
0.3355370418783803
 20
-0.1497385989912594
 30
0.0
 40
0.5
100
AcDbArc
 50
138.5903778907219
 51
154.8824237621768
  0
LINE
  5
3A1
330
2
100
AcDbEntity
  8
0
100
AcDbLine
 10
-3.117182271933396
 20
0.0624999999999964
 30
0.0
 11
-3.117182271933396
 21
-0.0000000000000036
 31
0.0
  0
ARC
  5
3A2
330
2
100
AcDbEntity
  8
0
100
AcDbCircle
 10
-2.66446295812162
 20
-0.1497385989912594
 30
0.0
 40
0.5
100
AcDbArc
 50
133.9949139947459
 51
154.882423762177
  0
ARC
  5
3AD
330
2
100
AcDbEntity
  8
0
100
AcDbCircle
 10
-1.19571295812162
 20
5.609714316435048
 30
0.0
 40
0.15625
100
AcDbArc
 50
180.0
 51
270.0
  0
LINE
  5
3AF
330
2
100
AcDbEntity
  8
0
100
AcDbLine
 10
-1.35196295812162
 20
2.237052197982504
 30
0.0
 11
-1.35196295812162
 21
4.234714316435049
 31
0.0
  0
ARC
  5
3B0
330
2
100
AcDbEntity
  8
0
100
AcDbCircle
 10
-0.0394629581216197
 20
1.937499999999996
 30
0.0
 40
0.1875000000000025
100
AcDbArc
 50
90.0
 51
270.0
  0
ARC
  5
3B2
330
2
100
AcDbEntity
  8
0
100
AcDbCircle
 10
-2.35196295812162
 20
2.237052197982504
 30
0.0
 40
1.0
100
AcDbArc
 50
313.9949139947459
 51
0.0
  0
ARC
  5
3B4
330
2
100
AcDbEntity
  8
0
100
AcDbCircle
 10
-1.19571295812162
 20
4.547214316435048
 30
0.0
 40
0.15625
100
AcDbArc
 50
270.0
 51
0.0
  0
ARC
  5
3B5
330
2
100
AcDbEntity
  8
0
100
AcDbCircle
 10
-1.19571295812162
 20
5.297214316435048
 30
0.0
 40
0.15625
100
AcDbArc
 50
0.0
 51
90.0
  0
LINE
  5
3BE
330
2
100
AcDbEntity
  8
0
100
AcDbLine
 10
-1.03946295812162
 20
4.547214316435049
 30
0.0
 11
-1.03946295812162
 21
5.297214316435049
 31
0.0
  0
ARC
  5
3C0
330
2
100
AcDbEntity
  8
0
100
AcDbCircle
 10
-1.19571295812162
 20
4.234714316435048
 30
0.0
 40
0.15625
100
AcDbArc
 50
90.0
 51
180.0
  0
LINE
  5
3C1
330
2
100
AcDbEntity
  8
0
100
AcDbLine
 10
-1.19571295812162
 20
4.390964316435049
 30
0.0
 11
-1.19571295812162
 21
4.390964316435049
 31
0.0
  0
LINE
  5
3C2
330
2
100
AcDbEntity
  8
0
100
AcDbLine
 10
-1.19571295812162
 20
5.453464316435049
 30
0.0
 11
-1.19571295812162
 21
5.453464316435049
 31
0.0
  0
LINE
  5
3C9
330
2
100
AcDbEntity
  8
0
100
AcDbLine
 10
-1.35196295812162
 20
7.484714316435049
 30
0.0
 11
-1.35196295812162
 21
8.109714316435049
 31
0.0
  0
ARC
  5
3CA
330
2
100
AcDbEntity
  8
0
100
AcDbCircle
 10
-1.19571295812162
 20
6.422214316435048
 30
0.0
 40
0.15625
100
AcDbArc
 50
270.0
 51
0.0
  0
ARC
  5
3CB
330
2
100
AcDbEntity
  8
0
100
AcDbCircle
 10
-1.19571295812162
 20
7.172214316435048
 30
0.0
 40
0.15625
100
AcDbArc
 50
0.0
 51
90.0
  0
LINE
  5
3CC
330
2
100
AcDbEntity
  8
0
100
AcDbLine
 10
-1.03946295812162
 20
6.422214316435049
 30
0.0
 11
-1.03946295812162
 21
7.172214316435049
 31
0.0
  0
LINE
  5
3CE
330
2
100
AcDbEntity
  8
0
100
AcDbLine
 10
-1.35196295812162
 20
5.609714316435049
 30
0.0
 11
-1.35196295812162
 21
6.109714316435049
 31
0.0
  0
ARC
  5
3CF
330
2
100
AcDbEntity
  8
0
100
AcDbCircle
 10
-1.19571295812162
 20
6.109714316435048
 30
0.0
 40
0.15625
100
AcDbArc
 50
90.0
 51
180.0
  0
LINE
  5
3D0
330
2
100
AcDbEntity
  8
0
100
AcDbLine
 10
-1.19571295812162
 20
6.265964316435049
 30
0.0
 11
-1.19571295812162
 21
6.265964316435049
 31
0.0
  0
ARC
  5
3D1
330
2
100
AcDbEntity
  8
0
100
AcDbCircle
 10
-1.19571295812162
 20
7.484714316435048
 30
0.0
 40
0.15625
100
AcDbArc
 50
180.0
 51
270.0
  0
LINE
  5
3D2
330
2
100
AcDbEntity
  8
0
100
AcDbLine
 10
-1.19571295812162
 20
7.328464316435049
 30
0.0
 11
-1.19571295812162
 21
7.328464316435049
 31
0.0
  0
ARC
  5
3D3
330
2
100
AcDbEntity
  8
0
100
AcDbCircle
 10
-1.19571295812162
 20
8.422214316435049
 30
0.0
 40
0.15625
100
AcDbArc
 50
270.0
 51
0.0
  0
LINE
  5
3D4
330
2
100
AcDbEntity
  8
0
100
AcDbLine
 10
-1.03946295812162
 20
8.422214316435049
 30
0.0
 11
-1.039462958121616
 21
9.078464316435049
 31
0.0
  0
LINE
  5
3D5
330
2
100
AcDbEntity
  8
0
100
AcDbLine
 10
0.0230370418783803
 20
9.078464316435049
 30
0.0
 11
-1.03946295812162
 21
9.078464316435049
 31
0.0
  0
ARC
  5
3DA
330
2
100
AcDbEntity
  8
0
100
AcDbCircle
 10
-1.19571295812162
 20
8.109714316435049
 30
0.0
 40
0.15625
100
AcDbArc
 50
90.0
 51
180.0
  0
LINE
  5
3DB
330
2
100
AcDbEntity
  8
0
100
AcDbLine
 10
-1.19571295812162
 20
8.265964316435049
 30
0.0
 11
-1.19571295812162
 21
8.265964316435049
 31
0.0
  0
LINE
  5
412
330
2
100
AcDbEntity
  8
0
100
AcDbLine
 10
-1.089735645618481
 20
7.681364116236156
 30
0.0
 11
-1.089735645618481
 21
7.958039116236161
 31
0.0
  0
LWPOLYLINE
  5
413
330
2
100
AcDbEntity
  8
0
100
AcDbPolyline
 90
        9
 70
     0
 43
0.0
 10
-1.089735645618481
 20
7.710689116236156
 42
0.1432467981947568
 10
-1.064510994763024
 20
7.718067213107406
 42
0.1071754848060475
 10
-1.039824828792439
 20
7.742618138252058
 42
0.0783035184710328
 10
-1.024878161170078
 20
7.776239392602856
 42
0.0656020556757086
 10
-1.019151091553971
 20
7.819701616236162
 42
0.0656020556757101
 10
-1.024878161170078
 20
7.86316383986946
 42
0.0783035184710357
 10
-1.039824828792439
 20
7.89678509422026
 42
0.1071754848060445
 10
-1.064510994763024
 20
7.921336019364912
 42
0.1432467981947535
 10
-1.089735645618481
 20
7.928714116236161
 42
0.1432467981947515
  0
LWPOLYLINE
  5
414
330
2
100
AcDbEntity
  8
0
100
AcDbPolyline
 90
        9
 70
     0
 43
0.0
 10
-1.089735645618481
 20
7.681364116236156
 42
0.0700628980345364
 10
-1.010616841818438
 20
7.692505392005027
 42
0.0818514225363451
 10
-0.9487205236919944
 20
7.721882231893761
 42
0.1069100077216601
 10
-0.9041223726264942
 20
7.769629144648792
 42
0.135394011665182
 10
-0.8903101476903483
 20
7.819701616236155
 42
0.1353940116651818
 10
-0.9041223726264942
 20
7.869774087823525
 42
0.1069100077216599
 10
-0.9487205236919944
 20
7.91752100057855
 42
0.0818514225363446
 10
-1.010616841818438
 20
7.94689784046729
 42
0.0700628980345367
 10
-1.089735645618481
 20
7.958039116236161
 42
0.0700628980345371
  0
LWPOLYLINE
  5
415
330
2
100
AcDbEntity
  8
0
100
AcDbPolyline
 90
        9
 70
     0
 43
0.0
 10
-1.089735645618481
 20
7.740014116236156
 42
0.147269582437036
 10
-1.07203922245594
 20
7.745341957923951
 42
0.1071386913803464
 10
-1.054487328792439
 20
7.763354044610355
 42
0.0765137470862007
 10
-1.04394541474567
 20
7.787858782644515
 42
0.063469041210727
 10
-1.039886997912268
 20
7.819701616236162
 42
0.0634690412107267
 10
-1.04394541474567
 20
7.851544449827801
 42
0.0765137470862059
 10
-1.054487328792439
 20
7.876049187861962
 42
0.1071386913803463
 10
-1.07203922245594
 20
7.894061274548367
 42
0.1472695824370325
 10
-1.089735645618481
 20
7.899389116236161
 42
0.1472695824370333
  0
LINE
  5
416
330
2
100
AcDbEntity
  8
0
100
AcDbLine
 10
-1.089735645618481
 20
5.81142344180478
 30
0.0
 11
-1.089735645618481
 21
6.088098441804784
 31
0.0
  0
LWPOLYLINE
  5
417
330
2
100
AcDbEntity
  8
0
100
AcDbPolyline
 90
        9
 70
     0
 43
0.0
 10
-1.089735645618481
 20
5.84074844180478
 42
0.1432467981947568
 10
-1.064510994763024
 20
5.84812653867603
 42
0.1071754848060475
 10
-1.039824828792439
 20
5.872677463820682
 42
0.0783035184710328
 10
-1.024878161170078
 20
5.90629871817148
 42
0.0656020556757086
 10
-1.019151091553971
 20
5.949760941804786
 42
0.0656020556757101
 10
-1.024878161170078
 20
5.993223165438084
 42
0.0783035184710357
 10
-1.039824828792439
 20
6.026844419788882
 42
0.1071754848060445
 10
-1.064510994763024
 20
6.051395344933535
 42
0.1432467981947535
 10
-1.089735645618481
 20
6.058773441804784
 42
0.1432467981947515
  0
LWPOLYLINE
  5
418
330
2
100
AcDbEntity
  8
0
100
AcDbPolyline
 90
        9
 70
     0
 43
0.0
 10
-1.089735645618481
 20
5.81142344180478
 42
0.0700628980345364
 10
-1.010616841818438
 20
5.822564717573651
 42
0.0818514225363451
 10
-0.9487205236919944
 20
5.851941557462385
 42
0.1069100077216601
 10
-0.9041223726264942
 20
5.899688470217416
 42
0.135394011665182
 10
-0.8903101476903483
 20
5.949760941804779
 42
0.1353940116651818
 10
-0.9041223726264942
 20
5.999833413392149
 42
0.1069100077216599
 10
-0.9487205236919944
 20
6.047580326147172
 42
0.0818514225363446
 10
-1.010616841818438
 20
6.076957166035913
 42
0.0700628980345367
 10
-1.089735645618481
 20
6.088098441804784
 42
0.0700628980345371
  0
LWPOLYLINE
  5
419
330
2
100
AcDbEntity
  8
0
100
AcDbPolyline
 90
        9
 70
     0
 43
0.0
 10
-1.089735645618481
 20
5.87007344180478
 42
0.147269582437036
 10
-1.07203922245594
 20
5.875401283492574
 42
0.1071386913803464
 10
-1.054487328792439
 20
5.893413370178979
 42
0.0765137470862007
 10
-1.04394541474567
 20
5.917918108213139
 42
0.063469041210727
 10
-1.039886997912268
 20
5.949760941804786
 42
0.0634690412107267
 10
-1.04394541474567
 20
5.981603775396425
 42
0.0765137470862059
 10
-1.054487328792439
 20
6.006108513430585
 42
0.1071386913803463
 10
-1.07203922245594
 20
6.02412060011699
 42
0.1472695824370325
 10
-1.089735645618481
 20
6.029448441804784
 42
0.1472695824370333
  0
LINE
  5
41A
330
2
100
AcDbEntity
  8
0
100
AcDbLine
 10
-1.089735645618481
 20
3.374909580492246
 30
0.0
 11
-1.089735645618481
 21
3.65158458049225
 31
0.0
  0
LWPOLYLINE
  5
41B
330
2
100
AcDbEntity
  8
0
100
AcDbPolyline
 90
        9
 70
     0
 43
0.0
 10
-1.089735645618481
 20
3.404234580492246
 42
0.1432467981947568
 10
-1.064510994763024
 20
3.411612677363496
 42
0.1071754848060475
 10
-1.039824828792439
 20
3.436163602508148
 42
0.0783035184710328
 10
-1.024878161170078
 20
3.469784856858946
 42
0.0656020556757086
 10
-1.019151091553971
 20
3.513247080492252
 42
0.0656020556757101
 10
-1.024878161170078
 20
3.55670930412555
 42
0.0783035184710357
 10
-1.039824828792439
 20
3.590330558476349
 42
0.1071754848060445
 10
-1.064510994763024
 20
3.614881483621001
 42
0.1432467981947535
 10
-1.089735645618481
 20
3.62225958049225
 42
0.1432467981947515
  0
LWPOLYLINE
  5
41C
330
2
100
AcDbEntity
  8
0
100
AcDbPolyline
 90
        9
 70
     0
 43
0.0
 10
-1.089735645618481
 20
3.374909580492246
 42
0.0700628980345364
 10
-1.010616841818438
 20
3.386050856261117
 42
0.0818514225363451
 10
-0.9487205236919944
 20
3.415427696149851
 42
0.1069100077216601
 10
-0.9041223726264942
 20
3.463174608904882
 42
0.135394011665182
 10
-0.8903101476903483
 20
3.513247080492245
 42
0.1353940116651818
 10
-0.9041223726264942
 20
3.563319552079615
 42
0.1069100077216599
 10
-0.9487205236919944
 20
3.611066464834638
 42
0.0818514225363446
 10
-1.010616841818438
 20
3.640443304723379
 42
0.0700628980345367
 10
-1.089735645618481
 20
3.65158458049225
 42
0.0700628980345371
  0
LWPOLYLINE
  5
41D
330
2
100
AcDbEntity
  8
0
100
AcDbPolyline
 90
        9
 70
     0
 43
0.0
 10
-1.089735645618481
 20
3.433559580492246
 42
0.147269582437036
 10
-1.07203922245594
 20
3.438887422180041
 42
0.1071386913803464
 10
-1.054487328792439
 20
3.456899508866445
 42
0.0765137470862007
 10
-1.04394541474567
 20
3.481404246900605
 42
0.063469041210727
 10
-1.039886997912268
 20
3.513247080492252
 42
0.0634690412107267
 10
-1.04394541474567
 20
3.545089914083891
 42
0.0765137470862059
 10
-1.054487328792439
 20
3.569594652118052
 42
0.1071386913803463
 10
-1.07203922245594
 20
3.587606738804456
 42
0.1472695824370325
 10
-1.089735645618481
 20
3.59293458049225
 42
0.1472695824370333
  0
LINE
  5
41E
330
2
100
AcDbEntity
  8
0
100
AcDbLine
 10
-1.089735645618481
 20
2.237062994434698
 30
0.0
 11
-1.089735645618481
 21
2.513737994434703
 31
0.0
  0
LWPOLYLINE
  5
41F
330
2
100
AcDbEntity
  8
0
100
AcDbPolyline
 90
        9
 70
     0
 43
0.0
 10
-1.089735645618481
 20
2.266387994434698
 42
0.1432467981947568
 10
-1.064510994763024
 20
2.273766091305948
 42
0.1071754848060475
 10
-1.039824828792439
 20
2.2983170164506
 42
0.0783035184710328
 10
-1.024878161170078
 20
2.331938270801398
 42
0.0656020556757086
 10
-1.019151091553971
 20
2.375400494434704
 42
0.0656020556757101
 10
-1.024878161170078
 20
2.418862718068002
 42
0.0783035184710357
 10
-1.039824828792439
 20
2.452483972418801
 42
0.1071754848060445
 10
-1.064510994763024
 20
2.477034897563453
 42
0.1432467981947535
 10
-1.089735645618481
 20
2.484412994434702
 42
0.1432467981947515
  0
LWPOLYLINE
  5
420
330
2
100
AcDbEntity
  8
0
100
AcDbPolyline
 90
        9
 70
     0
 43
0.0
 10
-1.089735645618481
 20
2.237062994434698
 42
0.0700628980345364
 10
-1.010616841818438
 20
2.248204270203569
 42
0.0818514225363451
 10
-0.9487205236919944
 20
2.277581110092303
 42
0.1069100077216601
 10
-0.9041223726264942
 20
2.325328022847334
 42
0.135394011665182
 10
-0.8903101476903483
 20
2.375400494434697
 42
0.1353940116651818
 10
-0.9041223726264942
 20
2.425472966022067
 42
0.1069100077216599
 10
-0.9487205236919944
 20
2.473219878777091
 42
0.0818514225363446
 10
-1.010616841818438
 20
2.502596718665831
 42
0.0700628980345367
 10
-1.089735645618481
 20
2.513737994434703
 42
0.0700628980345371
  0
LWPOLYLINE
  5
421
330
2
100
AcDbEntity
  8
0
100
AcDbPolyline
 90
        9
 70
     0
 43
0.0
 10
-1.089735645618481
 20
2.295712994434698
 42
0.147269582437036
 10
-1.07203922245594
 20
2.301040836122493
 42
0.1071386913803464
 10
-1.054487328792439
 20
2.319052922808897
 42
0.0765137470862007
 10
-1.04394541474567
 20
2.343557660843057
 42
0.063469041210727
 10
-1.039886997912268
 20
2.375400494434704
 42
0.0634690412107267
 10
-1.04394541474567
 20
2.407243328026343
 42
0.0765137470862059
 10
-1.054487328792439
 20
2.431748066060504
 42
0.1071386913803463
 10
-1.07203922245594
 20
2.449760152746908
 42
0.1472695824370325
 10
-1.089735645618481
 20
2.455087994434702
 42
0.1472695824370333
  0
LINE
  5
422
330
2
100
AcDbEntity
  8
0
100
AcDbLine
 10
-1.089735645618481
 20
0.4934071922425467
 30
0.0
 11
-1.089735645618481
 21
0.7700821922425511
 31
0.0
  0
LWPOLYLINE
  5
423
330
2
100
AcDbEntity
  8
0
100
AcDbPolyline
 90
        9
 70
     0
 43
0.0
 10
-1.089735645618481
 20
0.5227321922425467
 42
0.1432467981947568
 10
-1.064510994763024
 20
0.5301102891137965
 42
0.1071754848060475
 10
-1.039824828792439
 20
0.5546612142584486
 42
0.0783035184710328
 10
-1.024878161170078
 20
0.5882824686092469
 42
0.0656020556757086
 10
-1.019151091553971
 20
0.6317446922425525
 42
0.0656020556757101
 10
-1.024878161170078
 20
0.6752069158758509
 42
0.0783035184710357
 10
-1.039824828792439
 20
0.7088281702266492
 42
0.1071754848060445
 10
-1.064510994763024
 20
0.7333790953713013
 42
0.1432467981947535
 10
-1.089735645618481
 20
0.7407571922425511
 42
0.1432467981947515
  0
LWPOLYLINE
  5
424
330
2
100
AcDbEntity
  8
0
100
AcDbPolyline
 90
        9
 70
     0
 43
0.0
 10
-1.089735645618481
 20
0.4934071922425467
 42
0.0700628980345364
 10
-1.010616841818438
 20
0.5045484680114178
 42
0.0818514225363451
 10
-0.9487205236919944
 20
0.5339253079001516
 42
0.1069100077216601
 10
-0.9041223726264942
 20
0.5816722206551823
 42
0.135394011665182
 10
-0.8903101476903483
 20
0.6317446922425454
 42
0.1353940116651818
 10
-0.9041223726264942
 20
0.6818171638299155
 42
0.1069100077216599
 10
-0.9487205236919944
 20
0.7295640765849392
 42
0.0818514225363446
 10
-1.010616841818438
 20
0.75894091647368
 42
0.0700628980345367
 10
-1.089735645618481
 20
0.7700821922425511
 42
0.0700628980345371
  0
LWPOLYLINE
  5
425
330
2
100
AcDbEntity
  8
0
100
AcDbPolyline
 90
        9
 70
     0
 43
0.0
 10
-1.089735645618481
 20
0.5520571922425468
 42
0.147269582437036
 10
-1.07203922245594
 20
0.5573850339303412
 42
0.1071386913803464
 10
-1.054487328792439
 20
0.5753971206167456
 42
0.0765137470862007
 10
-1.04394541474567
 20
0.599901858650906
 42
0.063469041210727
 10
-1.039886997912268
 20
0.6317446922425525
 42
0.0634690412107267
 10
-1.04394541474567
 20
0.6635875258341919
 42
0.0765137470862059
 10
-1.054487328792439
 20
0.6880922638683522
 42
0.1071386913803463
 10
-1.07203922245594
 20
0.7061043505547566
 42
0.1472695824370325
 10
-1.089735645618481
 20
0.7114321922425511
 42
0.1472695824370333
  0
ENDSEC
  0
SECTION
  2
OBJECTS
  0
DICTIONARY
  5
9
330
0
100
AcDbDictionary
281
     1
  3
ACAD_COLOR
350
463
  3
ACAD_GROUP
350
23
  3
ACAD_LAYOUT
350
D
  3
ACAD_MATERIAL
350
462
  3
ACAD_MLINESTYLE
350
24
  3
ACAD_PLOTSETTINGS
350
25
  3
ACAD_PLOTSTYLENAME
350
8
  3
ACAD_TABLESTYLE
350
464
  3
ACDBHEADERROUNDTRIPXREC
350
4A4
  3
AcDbVariableDictionary
350
1B6
  0
DICTIONARY
  5
463
102
{ACAD_REACTORS
330
9
102
}
330
9
100
AcDbDictionary
281
     1
  0
DICTIONARY
  5
23
102
{ACAD_REACTORS
330
9
102
}
330
9
100
AcDbDictionary
281
     1
  0
DICTIONARY
  5
D
102
{ACAD_REACTORS
330
9
102
}
330
9
100
AcDbDictionary
281
     1
  3
Layout1
350
13
  3
Model
350
C
  0
DICTIONARY
  5
462
102
{ACAD_REACTORS
330
9
102
}
330
9
100
AcDbDictionary
281
     1
  0
DICTIONARY
  5
24
102
{ACAD_REACTORS
330
9
102
}
330
9
100
AcDbDictionary
281
     1
  3
Standard
350
26
  0
DICTIONARY
  5
25
102
{ACAD_REACTORS
330
9
102
}
330
9
100
AcDbDictionary
281
     1
  0
ACDBDICTIONARYWDFLT
  5
8
102
{ACAD_REACTORS
330
9
102
}
330
9
100
AcDbDictionary
281
     1
  3
Normal
350
7
100
AcDbDictionaryWithDefault
340
7
  0
DICTIONARY
  5
464
102
{ACAD_REACTORS
330
9
102
}
330
9
100
AcDbDictionary
281
     1
  3
Standard
350
465
  0
DICTIONARY
  5
4A4
102
{ACAD_REACTORS
330
9
102
}
330
9
100
AcDbDictionary
281
     1
  3
COLORDICT
350
4A5
  3
MATERIALDICT
350
4A6
  0
DICTIONARY
  5
1B6
102
{ACAD_REACTORS
330
9
102
}
330
9
100
AcDbDictionary
281
     1
  3
CTABLESTYLE
350
492
  3
HIDETEXT
350
4A3
  0
LAYOUT
  5
13
102
{ACAD_REACTORS
330
D
102
}
102
{ACAD_XDICTIONARY
360
4A7
102
}
330
D
100
AcDbPlotSettings
  1

  2

  4

  6

 40
0.0
 41
0.0
 42
0.0
 43
0.0
 44
0.0
 45
0.0
 46
0.0
 47
0.0
 48
0.0
 49
0.0
140
0.0
141
0.0
142
1.0
143
1.0
 70
   688
 72
     0
 73
     0
 74
     5
  7

 75
    16
147
1.0
148
0.0
149
0.0
100
AcDbLayout
  1
Layout1
 70
     1
 71
     1
 10
0.0
 20
0.0
 11
12.0
 21
9.0
 12
0.0
 22
0.0
 32
0.0
 14
1.000000000000000E+20
 24
1.000000000000000E+20
 34
1.000000000000000E+20
 15
-1.000000000000000E+20
 25
-1.000000000000000E+20
 35
-1.000000000000000E+20
146
0.0
 13
0.0
 23
0.0
 33
0.0
 16
1.0
 26
0.0
 36
0.0
 17
0.0
 27
1.0
 37
0.0
 76
     0
330
E
  0
LAYOUT
  5
C
102
{ACAD_REACTORS
330
D
102
}
102
{ACAD_XDICTIONARY
360
4A9
102
}
330
D
100
AcDbPlotSettings
  1

  2

  4

  6

 40
0.0
 41
0.0
 42
0.0
 43
0.0
 44
0.0
 45
0.0
 46
0.0
 47
0.0
 48
0.0
 49
0.0
140
0.0
141
0.0
142
1.0
143
1.0
 70
  1712
 72
     0
 73
     0
 74
     0
  7

 75
     0
147
1.0
148
0.0
149
0.0
100
AcDbLayout
  1
Model
 70
     1
 71
     0
 10
0.0
 20
0.0
 11
12.0
 21
9.0
 12
0.0
 22
0.0
 32
0.0
 14
0.0
 24
0.0
 34
0.0
 15
0.0
 25
0.0
 35
0.0
146
0.0
 13
0.0
 23
0.0
 33
0.0
 16
1.0
 26
0.0
 36
0.0
 17
0.0
 27
1.0
 37
0.0
 76
     0
330
2
  0
MLINESTYLE
  5
26
102
{ACAD_REACTORS
330
24
102
}
330
24
100
AcDbMlineStyle
  2
STANDARD
 70
     0
  3

 62
   256
 51
90.0
 52
90.0
 71
     2
 49
0.5
 62
   256
  6
BYLAYER
 49
-0.5
 62
   256
  6
BYLAYER
  0
ACDBPLACEHOLDER
  5
7
102
{ACAD_REACTORS
330
8
102
}
330
8
  0
ACAD_PROXY_OBJECT
  5
465
102
{ACAD_REACTORS
330
464
102
}
330
464
100
AcDbProxyObject
 90
      499
 91
      508
 95
   983063
 70
     0
 93
     1841
310
4214DD185B99185C9928B81E85EB51B8AE3F2E07A17AD46E2B8FC02B5E8DC0F42B1CFD028000000C1008070000C3001FDFF8000000C1003FBFF000000182007F7FE00000030400FEFFC00000060801FDFF8000000C1003FBFF00000018200000000000000681FA0B0000001820100E000186003FBFF000000182007F7FE000
310
00030400FEFFC00000060801FDFF8000000C1003FBFF000000182007F7FE000000304000AD7A3703D0AC73F4160000003040201C00030C007F7FE00000030400FEFFC00000060801FDFF8000000C1003FBFF000000182007F7FE00000030400FEFFC000000608000
340
16
340
16
340
16
 94
        0
  0
XRECORD
  5
4A5
102
{ACAD_REACTORS
330
4A4
102
}
330
4A4
100
AcDbXrecord
340
463
  0
XRECORD
  5
4A6
102
{ACAD_REACTORS
330
4A4
102
}
330
4A4
100
AcDbXrecord
340
462
  0
DICTIONARYVAR
  5
492
102
{ACAD_REACTORS
330
1B6
102
}
330
1B6
100
DictionaryVariables
280
     0
  1
STANDARD
  0
DICTIONARYVAR
  5
4A3
102
{ACAD_REACTORS
330
1B6
102
}
330
1B6
100
DictionaryVariables
280
     0
  1
1
  0
DICTIONARY
  5
4A7
330
13
100
AcDbDictionary
280
     1
281
     1
  3
ACAD_XREC_ROUNDTRIP
360
4A8
  0
DICTIONARY
  5
4A9
330
C
100
AcDbDictionary
280
     1
281
     1
  3
ACAD_XREC_ROUNDTRIP
360
4AA
  0
XRECORD
  5
4A8
102
{ACAD_REACTORS
330
4A7
102
}
330
4A7
100
AcDbXrecord
102
SHADEPLOT
 70
     0
102
SHADEPLOTRESLEVEL
 70
     2
102
SHADEPLOTCUSTOMDPI
 70
   300
  0
XRECORD
  5
4AA
102
{ACAD_REACTORS
330
4A9
102
}
330
4A9
100
AcDbXrecord
102
SHADEPLOT
 70
     0
102
SHADEPLOTRESLEVEL
 70
     2
102
SHADEPLOTCUSTOMDPI
 70
   300
  0
ENDSEC
  0
EOF
