  0
SECTION
  2
HEADER
  9
$ACADVER
  1
AC1015
  9
$ACADMAINTVER
 70
     6
  9
$DWGCODEPAGE
  3
ANSI_1252
  9
$INSBASE
 10
0.0
 20
0.0
 30
0.0
  9
$EXTMIN
 10
-10.61689329029305
 20
-0.0268025231976097
 30
-0.0000000349181948
  9
$EXTMAX
 10
10.61685579094561
 20
16.74162797776213
 30
0.0000000814935746
  9
$LIMMIN
 10
0.0
 20
0.0
  9
$LIMMAX
 10
12.0
 20
9.0
  9
$ORTHOMODE
 70
     1
  9
$REGENMODE
 70
     1
  9
$FILLMODE
 70
     1
  9
$QTEXTMODE
 70
     0
  9
$MIRRTEXT
 70
     1
  9
$LTSCALE
 40
1.0
  9
$ATTMODE
 70
     1
  9
$TEXTSIZE
 40
0.2
  9
$TRACEWID
 40
0.05
  9
$TEXTSTYLE
  7
Standard
  9
$CLAYER
  8
0
  9
$CELTYPE
  6
ByLayer
  9
$CECOLOR
 62
   256
  9
$CELTSCALE
 40
1.0
  9
$DISPSILH
 70
     0
  9
$DIMSCALE
 40
1.0
  9
$DIMASZ
 40
0.18
  9
$DIMEXO
 40
0.0625
  9
$DIMDLI
 40
0.38
  9
$DIMRND
 40
0.0
  9
$DIMDLE
 40
0.0
  9
$DIMEXE
 40
0.18
  9
$DIMTP
 40
0.0
  9
$DIMTM
 40
0.0
  9
$DIMTXT
 40
0.18
  9
$DIMCEN
 40
0.09
  9
$DIMTSZ
 40
0.0
  9
$DIMTOL
 70
     0
  9
$DIMLIM
 70
     0
  9
$DIMTIH
 70
     1
  9
$DIMTOH
 70
     1
  9
$DIMSE1
 70
     0
  9
$DIMSE2
 70
     0
  9
$DIMTAD
 70
     0
  9
$DIMZIN
 70
     0
  9
$DIMBLK
  1

  9
$DIMASO
 70
     1
  9
$DIMSHO
 70
     1
  9
$DIMPOST
  1

  9
$DIMAPOST
  1

  9
$DIMALT
 70
     0
  9
$DIMALTD
 70
     2
  9
$DIMALTF
 40
25.4
  9
$DIMLFAC
 40
1.0
  9
$DIMTOFL
 70
     0
  9
$DIMTVP
 40
0.0
  9
$DIMTIX
 70
     0
  9
$DIMSOXD
 70
     0
  9
$DIMSAH
 70
     0
  9
$DIMBLK1
  1

  9
$DIMBLK2
  1

  9
$DIMSTYLE
  2
Standard
  9
$DIMCLRD
 70
     0
  9
$DIMCLRE
 70
     0
  9
$DIMCLRT
 70
     0
  9
$DIMTFAC
 40
1.0
  9
$DIMGAP
 40
0.09
  9
$DIMJUST
 70
     0
  9
$DIMSD1
 70
     0
  9
$DIMSD2
 70
     0
  9
$DIMTOLJ
 70
     1
  9
$DIMTZIN
 70
     0
  9
$DIMALTZ
 70
     0
  9
$DIMALTTZ
 70
     0
  9
$DIMUPT
 70
     0
  9
$DIMDEC
 70
     4
  9
$DIMTDEC
 70
     4
  9
$DIMALTU
 70
     2
  9
$DIMALTTD
 70
     2
  9
$DIMTXSTY
  7
Standard
  9
$DIMAUNIT
 70
     0
  9
$DIMADEC
 70
     0
  9
$DIMALTRND
 40
0.0
  9
$DIMAZIN
 70
     0
  9
$DIMDSEP
 70
    46
  9
$DIMATFIT
 70
     3
  9
$DIMFRAC
 70
     0
  9
$DIMLDRBLK
  1

  9
$DIMLUNIT
 70
     2
  9
$DIMLWD
 70
    -2
  9
$DIMLWE
 70
    -2
  9
$DIMTMOVE
 70
     0
  9
$LUNITS
 70
     2
  9
$LUPREC
 70
     4
  9
$SKETCHINC
 40
0.1
  9
$FILLETRAD
 40
0.5
  9
$AUNITS
 70
     0
  9
$AUPREC
 70
     0
  9
$MENU
  1
.
  9
$ELEVATION
 40
0.0
  9
$PELEVATION
 40
0.0
  9
$THICKNESS
 40
0.0
  9
$LIMCHECK
 70
     0
  9
$CHAMFERA
 40
0.5
  9
$CHAMFERB
 40
0.5
  9
$CHAMFERC
 40
1.0
  9
$CHAMFERD
 40
0.0
  9
$SKPOLY
 70
     0
  9
$TDCREATE
 40
2451870.894198843
  9
$TDUCREATE
 40
2451871.227532176
  9
$TDUPDATE
 40
2454166.017682257
  9
$TDUUPDATE
 40
2454166.35101559
  9
$TDINDWG
 40
0.0069662731
  9
$TDUSRTIMER
 40
0.0069662731
  9
$USRTIMER
 70
     1
  9
$ANGBASE
 50
0.0
  9
$ANGDIR
 70
     0
  9
$PDMODE
 70
     0
  9
$PDSIZE
 40
0.0
  9
$PLINEWID
 40
0.0
  9
$SPLFRAME
 70
     0
  9
$SPLINETYPE
 70
     6
  9
$SPLINESEGS
 70
     8
  9
$HANDSEED
  5
49C
  9
$SURFTAB1
 70
     6
  9
$SURFTAB2
 70
     6
  9
$SURFTYPE
 70
     6
  9
$SURFU
 70
     6
  9
$SURFV
 70
     6
  9
$UCSBASE
  2

  9
$UCSNAME
  2

  9
$UCSORG
 10
0.0
 20
0.0
 30
0.0
  9
$UCSXDIR
 10
1.0
 20
0.0
 30
0.0
  9
$UCSYDIR
 10
0.0
 20
1.0
 30
0.0
  9
$UCSORTHOREF
  2

  9
$UCSORTHOVIEW
 70
     0
  9
$UCSORGTOP
 10
0.0
 20
0.0
 30
0.0
  9
$UCSORGBOTTOM
 10
0.0
 20
0.0
 30
0.0
  9
$UCSORGLEFT
 10
0.0
 20
0.0
 30
0.0
  9
$UCSORGRIGHT
 10
0.0
 20
0.0
 30
0.0
  9
$UCSORGFRONT
 10
0.0
 20
0.0
 30
0.0
  9
$UCSORGBACK
 10
0.0
 20
0.0
 30
0.0
  9
$PUCSBASE
  2

  9
$PUCSNAME
  2

  9
$PUCSORG
 10
0.0
 20
0.0
 30
0.0
  9
$PUCSXDIR
 10
1.0
 20
0.0
 30
0.0
  9
$PUCSYDIR
 10
0.0
 20
1.0
 30
0.0
  9
$PUCSORTHOREF
  2

  9
$PUCSORTHOVIEW
 70
     0
  9
$PUCSORGTOP
 10
0.0
 20
0.0
 30
0.0
  9
$PUCSORGBOTTOM
 10
0.0
 20
0.0
 30
0.0
  9
$PUCSORGLEFT
 10
0.0
 20
0.0
 30
0.0
  9
$PUCSORGRIGHT
 10
0.0
 20
0.0
 30
0.0
  9
$PUCSORGFRONT
 10
0.0
 20
0.0
 30
0.0
  9
$PUCSORGBACK
 10
0.0
 20
0.0
 30
0.0
  9
$USERI1
 70
     0
  9
$USERI2
 70
     0
  9
$USERI3
 70
     0
  9
$USERI4
 70
     0
  9
$USERI5
 70
     0
  9
$USERR1
 40
0.0
  9
$USERR2
 40
0.0
  9
$USERR3
 40
0.0
  9
$USERR4
 40
0.0
  9
$USERR5
 40
0.0
  9
$WORLDVIEW
 70
     1
  9
$SHADEDGE
 70
     3
  9
$SHADEDIF
 70
    70
  9
$TILEMODE
 70
     1
  9
$MAXACTVP
 70
    48
  9
$PINSBASE
 10
0.0
 20
0.0
 30
0.0
  9
$PLIMCHECK
 70
     0
  9
$PEXTMIN
 10
1.000000000000000E+20
 20
1.000000000000000E+20
 30
1.000000000000000E+20
  9
$PEXTMAX
 10
-1.000000000000000E+20
 20
-1.000000000000000E+20
 30
-1.000000000000000E+20
  9
$PLIMMIN
 10
0.0
 20
0.0
  9
$PLIMMAX
 10
12.0
 20
9.0
  9
$UNITMODE
 70
     0
  9
$VISRETAIN
 70
     1
  9
$PLINEGEN
 70
     0
  9
$PSLTSCALE
 70
     1
  9
$TREEDEPTH
 70
  3020
  9
$CMLSTYLE
  2
Standard
  9
$CMLJUST
 70
     0
  9
$CMLSCALE
 40
1.0
  9
$PROXYGRAPHICS
 70
     1
  9
$MEASUREMENT
 70
     0
  9
$CELWEIGHT
370
    -1
  9
$ENDCAPS
280
     0
  9
$JOINSTYLE
280
     0
  9
$LWDISPLAY
290
     0
  9
$INSUNITS
 70
     1
  9
$HYPERLINKBASE
  1

  9
$STYLESHEET
  1

  9
$XEDIT
290
     1
  9
$CEPSNTYPE
380
     0
  9
$PSTYLEMODE
290
     1
  9
$FINGERPRINTGUID
  2
{FDEAD576-A652-11D2-9A35-0060089B3A3F}
  9
$VERSIONGUID
  2
{D418A176-90C7-4C6C-A6DC-74C766AD55E7}
  9
$EXTNAMES
290
     1
  9
$PSVPSCALE
 40
0.0
  9
$OLESTARTUP
290
     0
  0
ENDSEC
  0
SECTION
  2
CLASSES
  0
CLASS
  1
ACDBDICTIONARYWDFLT
  2
AcDbDictionaryWithDefault
  3
AutoCAD 2000
 90
        0
280
     0
281
     0
  0
CLASS
  1
ACDBPLACEHOLDER
  2
AcDbPlaceHolder
  3
ObjectDBX Classes
 90
        0
280
     0
281
     0
  0
CLASS
  1
LAYOUT
  2
AcDbLayout
  3
ObjectDBX Classes
 90
        0
280
     0
281
     0
  0
CLASS
  1
LONG_TRANSACTION
  2
AcDbLongTransaction
  3
ObjectDBX Classes
 90
   -65536
280
     1
281
     0
  0
CLASS
  1
LWPOLYLINE
  2
AcDbPolyline
  3
AutoCAD 2000
 90
        0
280
     0
281
     1
  0
CLASS
  1
HATCH
  2
AcDbHatch
  3
AutoCAD 2000
 90
        0
280
     0
281
     1
  0
CLASS
  1
XRECORD
  2
AcDbXrecord
  3
AutoCAD 2000
 90
        0
280
     0
281
     0
  0
CLASS
  1
DICTIONARYVAR
  2
AcDbDictionaryVar
  3
AutoCAD 2000
 90
        0
280
     0
281
     0
  0
CLASS
  1
TABLESTYLE
  2
AcDbTableStyle
  3
ObjectDBX Classes
 90
     2047
280
     1
281
     0
  0
ENDSEC
  0
SECTION
  2
TABLES
  0
TABLE
  2
VPORT
  5
1D
330
0
100
AcDbSymbolTable
 70
     6
  0
VPORT
  5
48C
330
1D
100
AcDbSymbolTableRecord
100
AcDbViewportTableRecord
  2
*Active
 70
     0
 10
0.0
 20
0.0
 11
1.0
 21
1.0
 12
2.572273091499259
 22
8.811535517433313
 13
0.0
 23
0.0
 14
0.5
 24
0.5
 15
0.5
 25
0.5
 16
0.0
 26
0.0
 36
1.0
 17
0.0
 27
0.0
 37
0.0
 40
21.38761594051603
 41
1.814583333333333
 42
50.0
 43
0.0
 44
0.0
 50
0.0
 51
0.0
 71
     0
 72
   100
 73
     1
 74
     3
 75
     0
 76
     0
 77
     0
 78
     0
281
     0
 65
     1
110
0.0
120
0.0
130
0.0
111
1.0
121
0.0
131
0.0
112
0.0
122
1.0
132
0.0
 79
     0
146
0.0
  0
ENDTAB
  0
TABLE
  2
LTYPE
  5
18
330
0
100
AcDbSymbolTable
 70
     2
  0
LTYPE
  5
19
330
18
100
AcDbSymbolTableRecord
100
AcDbLinetypeTableRecord
  2
ByBlock
 70
     0
  3

 72
    65
 73
     0
 40
0.0
  0
LTYPE
  5
1A
330
18
100
AcDbSymbolTableRecord
100
AcDbLinetypeTableRecord
  2
ByLayer
 70
     0
  3

 72
    65
 73
     0
 40
0.0
  0
LTYPE
  5
A
330
18
100
AcDbSymbolTableRecord
100
AcDbLinetypeTableRecord
  2
Continuous
 70
     0
  3
Solid line
 72
    65
 73
     0
 40
0.0
  0
LTYPE
  5
33A
330
18
100
AcDbSymbolTableRecord
100
AcDbLinetypeTableRecord
  2
HIDDEN
 70
     0
  3
_ _ _ _ _ _ _ _ _ _ _ _ _ _ _ _ _ _ _ _ _ _ _
 72
    65
 73
     2
 40
0.375
 49
0.25
 74
     0
 49
-0.125
 74
     0
  0
ENDTAB
  0
TABLE
  2
LAYER
  5
14
330
0
100
AcDbSymbolTable
 70
     5
  0
LAYER
  5
6
330
14
100
AcDbSymbolTableRecord
100
AcDbLayerTableRecord
  2
0
 70
     0
 62
     7
  6
Continuous
370
    -3
390
7
  0
ENDTAB
  0
TABLE
  2
STYLE
  5
15
330
0
100
AcDbSymbolTable
 70
     1
  0
STYLE
  5
16
330
15
100
AcDbSymbolTableRecord
100
AcDbTextStyleTableRecord
  2
Standard
 70
     0
 40
0.0
 41
1.0
 50
0.0
 71
     0
 42
0.2
  3
txt
  4

  0
ENDTAB
  0
TABLE
  2
VIEW
  5
1B
330
0
100
AcDbSymbolTable
 70
     0
  0
ENDTAB
  0
TABLE
  2
UCS
  5
1C
330
0
100
AcDbSymbolTable
 70
     0
  0
ENDTAB
  0
TABLE
  2
APPID
  5
1F
330
0
100
AcDbSymbolTable
 70
     1
  0
APPID
  5
20
330
1F
100
AcDbSymbolTableRecord
100
AcDbRegAppTableRecord
  2
ACAD
 70
     0
  0
ENDTAB
  0
TABLE
  2
DIMSTYLE
  5
21
330
0
100
AcDbSymbolTable
 70
     1
100
AcDbDimStyleTable
  0
DIMSTYLE
105
27
330
21
100
AcDbSymbolTableRecord
100
AcDbDimStyleTableRecord
  2
Standard
 70
     0
  3

  4

340
16
  0
ENDTAB
  0
TABLE
  2
BLOCK_RECORD
  5
1
330
0
100
AcDbSymbolTable
 70
     1
  0
BLOCK_RECORD
  5
2
330
1
100
AcDbSymbolTableRecord
100
AcDbBlockTableRecord
  2
*Model_Space
340
C
  0
BLOCK_RECORD
  5
E
330
1
100
AcDbSymbolTableRecord
100
AcDbBlockTableRecord
  2
*Paper_Space
340
13
  0
ENDTAB
  0
ENDSEC
  0
SECTION
  2
BLOCKS
  0
BLOCK
  5
5
330
2
100
AcDbEntity
  8
0
100
AcDbBlockBegin
  2
*Model_Space
 70
     0
 10
0.0
 20
0.0
 30
0.0
  3
*Model_Space
  1

  4

  0
ENDBLK
  5
B
330
2
100
AcDbEntity
  8
0
100
AcDbBlockEnd
  0
BLOCK
  5
11
330
E
100
AcDbEntity
 67
     1
  8
0
100
AcDbBlockBegin
  2
*Paper_Space
 70
     0
 10
0.0
 20
0.0
 30
0.0
  3
*Paper_Space
  1

  4

  0
ENDBLK
  5
12
330
E
100
AcDbEntity
 67
     1
  8
0
100
AcDbBlockEnd
  0
ENDSEC
  0
SECTION
  2
ENTITIES
  0
ARC
  5
209
330
2
100
AcDbEntity
  8
0
100
AcDbCircle
 10
0.8559574957082952
 20
5.938507445140628
 30
0.0
 40
0.0821454866301451
100
AcDbArc
 50
32.92267190244962
 51
57.39207898480463
  0
LINE
  5
20A
330
2
100
AcDbEntity
  8
0
100
AcDbLine
 10
0.8750000000000782
 20
5.767733084951443
 30
0.0
 11
0.8750000000000782
 21
6.044408084951447
 31
0.0
  0
LINE
  5
20B
330
2
100
AcDbEntity
  8
0
100
AcDbLine
 10
0.8125000000000036
 20
9.159773959581711
 30
0.0
 11
0.8125000000000036
 21
0.1249999999999982
 31
0.0
  0
LINE
  5
20C
330
2
100
AcDbEntity
  8
0
100
AcDbLine
 10
-0.8125
 20
0.1250000000000018
 30
0.0
 11
-0.8125
 21
9.159773959581719
 31
0.0
  0
LINE
  5
20D
330
2
100
AcDbEntity
  8
0
100
AcDbLine
 10
0.8750000000000036
 20
9.159773959581711
 30
0.0
 11
0.875
 21
0.1249999999999982
 31
0.0
  0
LINE
  5
20E
330
2
100
AcDbEntity
  8
0
100
AcDbLine
 10
-0.8750000000000009
 20
0.1249999999999947
 30
0.0
 11
-0.875
 21
9.159773959581715
 31
0.0
  0
LINE
  5
20F
330
2
100
AcDbEntity
  8
0
100
AcDbLine
 10
2.562500000000004
 20
5.659773959581715
 30
0.0
 11
2.562500000000004
 21
6.159773959581715
 31
0.0
  0
LINE
  5
210
330
2
100
AcDbEntity
  8
0
100
AcDbLine
 10
-2.5625
 20
5.659773959581719
 30
0.0
 11
-2.5625
 21
6.159773959581719
 31
0.0
  0
LINE
  5
211
330
2
100
AcDbEntity
  8
0
100
AcDbLine
 10
2.257094513699567
 20
1.521199696946818
 30
0.0
 11
0.8750000000000036
 21
0.1867636147541329
 31
0.0
  0
ARC
  5
212
330
2
100
AcDbEntity
  8
0
100
AcDbCircle
 10
-0.8359215559125321
 20
0.9733636025233121
 30
0.0
 40
0.0876713959042276
100
AcDbArc
 50
147.9718933333757
 51
165.4734521831877
  0
ARC
  5
213
330
2
100
AcDbEntity
  8
0
100
AcDbCircle
 10
-0.777805538061866
 20
0.9635112593828339
 30
0.0
 40
0.167779016002644
100
AcDbArc
 50
164.9866289980043
 51
180.0000000000018
  0
LINE
  5
214
330
2
100
AcDbEntity
  8
0
100
AcDbLine
 10
-0.875
 20
0.8251737593828228
 30
0.0
 11
-0.875
 21
1.101848759382827
 31
0.0
  0
LINE
  5
215
330
2
100
AcDbEntity
  8
0
100
AcDbLine
 10
-2.257094513699567
 20
1.521199696946821
 30
0.0
 11
-0.875
 21
0.1867636147541329
 31
0.0
  0
LINE
  5
216
330
2
100
AcDbEntity
  8
0
100
AcDbLine
 10
0.75
 20
-0.0000000000000018
 30
0.0
 11
-0.75
 21
-0.0000000000000053
 31
0.0
  0
LINE
  5
217
330
2
100
AcDbEntity
  8
0
100
AcDbLine
 10
0.7500000000000036
 20
0.0624999999999982
 30
0.0
 11
-0.75
 21
0.0625000000000018
 31
0.0
  0
ARC
  5
218
330
2
100
AcDbEntity
  8
0
100
AcDbCircle
 10
-0.75
 20
0.1249999999999947
 30
0.0
 40
0.125
100
AcDbArc
 50
180.0
 51
269.9999999999999
  0
ARC
  5
219
330
2
100
AcDbEntity
  8
0
100
AcDbCircle
 10
-0.75
 20
0.1250000000000018
 30
0.0
 40
0.0625
100
AcDbArc
 50
180.0
 51
269.9999999999998
  0
ARC
  5
21A
330
2
100
AcDbEntity
  8
0
100
AcDbCircle
 10
-0.7978980607364201
 20
0.9635112593828521
 30
0.0
 40
0.1269505869697929
100
AcDbArc
 50
165.4734521832135
 51
180.0000000000106
  0
ARC
  5
21B
330
2
100
AcDbEntity
  8
0
100
AcDbCircle
 10
-0.7978980607363928
 20
0.9635112593828012
 30
0.0
 40
0.1269505869698202
100
AcDbArc
 50
179.9999999999877
 51
194.5265478167849
  0
ARC
  5
21C
330
2
100
AcDbEntity
  8
0
100
AcDbCircle
 10
-0.8359215559125266
 20
0.9536589162423403
 30
0.0
 40
0.0876713959042336
100
AcDbArc
 50
194.526547816813
 51
212.0281066666237
  0
ARC
  5
21D
330
2
100
AcDbEntity
  8
0
100
AcDbCircle
 10
-0.8599249814362098
 20
0.9386435336205405
 30
0.0
 40
0.0593583926698529
100
AcDbArc
 50
212.0281066666073
 51
236.4891770443287
  0
ARC
  5
21E
330
2
100
AcDbEntity
  8
0
100
AcDbCircle
 10
-0.8749999999999963
 20
0.9158770100059115
 30
0.0
 40
0.0320532506230886
100
AcDbArc
 50
236.4891770443232
 51
269.9999999999935
  0
ARC
  5
21F
330
2
100
AcDbEntity
  8
0
100
AcDbCircle
 10
-0.7778055380618352
 20
0.9635112593828201
 30
0.0
 40
0.1677790160026748
100
AcDbArc
 50
179.9999999999971
 51
195.0133710019943
  0
ARC
  5
220
330
2
100
AcDbEntity
  8
0
100
AcDbCircle
 10
-0.8256995843951718
 20
0.9506661081899127
 30
0.0
 40
0.1181923486076135
100
AcDbArc
 50
195.0133710020017
 51
212.9226719024542
  0
ARC
  5
221
330
2
100
AcDbEntity
  8
0
100
AcDbCircle
 10
-0.8559574957082186
 20
0.9310743991936408
 30
0.0
 40
0.082145486630143
100
AcDbArc
 50
212.9226719024493
 51
237.3920789848049
  0
ARC
  5
222
330
2
100
AcDbEntity
  8
0
100
AcDbCircle
 10
-0.874999999999996
 20
0.9013075324495568
 30
0.0
 40
0.0468087730667339
100
AcDbArc
 50
237.3920789847999
 51
269.9999999999951
  0
ARC
  5
223
330
2
100
AcDbEntity
  8
0
100
AcDbCircle
 10
0.75
 20
0.1249999999999982
 30
0.0
 40
0.125
100
AcDbArc
 50
270.0000000000001
 51
0.0
  0
ARC
  5
224
330
2
100
AcDbEntity
  8
0
100
AcDbCircle
 10
0.7500000000000036
 20
0.1249999999999982
 30
0.0
 40
0.0625
100
AcDbArc
 50
269.9999999999998
 51
0.0
  0
ARC
  5
225
330
2
100
AcDbEntity
  8
0
100
AcDbCircle
 10
0.8750000000000743
 20
0.6982385847661256
 30
0.0
 40
0.0320532506230894
100
AcDbArc
 50
56.48917704432362
 51
89.99999999999305
  0
ARC
  5
226
330
2
100
AcDbEntity
  8
0
100
AcDbCircle
 10
0.8599249814362879
 20
0.6754720611514972
 30
0.0
 40
0.059358392669853
100
AcDbArc
 50
32.02810666660739
 51
56.48917704432875
  0
ARC
  5
227
330
2
100
AcDbEntity
  8
0
100
AcDbCircle
 10
0.8359215559126103
 20
0.6604566785296999
 30
0.0
 40
0.0876713959042276
100
AcDbArc
 50
14.52654781681238
 51
32.02810666662427
  0
ARC
  5
228
330
2
100
AcDbEntity
  8
0
100
AcDbCircle
 10
0.7978980607364983
 20
0.6506043353892399
 30
0.0
 40
0.1269505869697929
100
AcDbArc
 50
359.9999999999894
 51
14.52654781678648
  0
ARC
  5
229
330
2
100
AcDbEntity
  8
0
100
AcDbCircle
 10
0.797898060736471
 20
0.6506043353891891
 30
0.0
 40
0.1269505869698202
100
AcDbArc
 50
345.4734521832152
 51
0.0000000000123263
  0
ARC
  5
22A
330
2
100
AcDbEntity
  8
0
100
AcDbCircle
 10
0.8359215559126048
 20
0.6407519922487281
 30
0.0
 40
0.0876713959042336
100
AcDbArc
 50
327.9718933333763
 51
345.473452183187
  0
ARC
  5
22B
330
2
100
AcDbEntity
  8
0
100
AcDbCircle
 10
0.8599249814362879
 20
0.6257366096269283
 30
0.0
 40
0.0593583926698529
100
AcDbArc
 50
303.5108229556714
 51
327.9718933333927
  0
ARC
  5
22C
330
2
100
AcDbEntity
  8
0
100
AcDbCircle
 10
0.8750000000000745
 20
0.6029700860122993
 30
0.0
 40
0.0320532506230886
100
AcDbArc
 50
270.0000000000065
 51
303.5108229556768
  0
ARC
  5
22D
330
2
100
AcDbEntity
  8
0
100
AcDbCircle
 10
0.8750000000000738
 20
0.7128080623224801
 30
0.0
 40
0.0468087730667349
100
AcDbArc
 50
57.39207898480021
 51
89.99999999999471
  0
ARC
  5
22E
330
2
100
AcDbEntity
  8
0
100
AcDbCircle
 10
0.8559574957082952
 20
0.6830411955783954
 30
0.0
 40
0.0821454866301452
100
AcDbArc
 50
32.92267190244969
 51
57.39207898480466
  0
ARC
  5
22F
330
2
100
AcDbEntity
  8
0
100
AcDbCircle
 10
0.8256995843952538
 20
0.6634494865821269
 30
0.0
 40
0.1181923486076092
100
AcDbArc
 50
15.01337100200138
 51
32.92267190245446
  0
ARC
  5
230
330
2
100
AcDbEntity
  8
0
100
AcDbCircle
 10
0.7778055380619442
 20
0.6506043353892217
 30
0.0
 40
0.167779016002644
100
AcDbArc
 50
359.9999999999982
 51
15.01337100199569
  0
ARC
  5
231
330
2
100
AcDbEntity
  8
0
100
AcDbCircle
 10
0.7778055380619133
 20
0.6506043353892079
 30
0.0
 40
0.1677790160026748
100
AcDbArc
 50
344.9866289980057
 51
0.0000000000028814
  0
ARC
  5
232
330
2
100
AcDbEntity
  8
0
100
AcDbCircle
 10
0.8256995843952499
 20
0.6377591841963005
 30
0.0
 40
0.1181923486076135
100
AcDbArc
 50
327.0773280975459
 51
344.9866289979983
  0
ARC
  5
233
330
2
100
AcDbEntity
  8
0
100
AcDbCircle
 10
0.8559574957082967
 20
0.6181674752000286
 30
0.0
 40
0.082145486630143
100
AcDbArc
 50
302.6079210151951
 51
327.0773280975507
  0
ARC
  5
234
330
2
100
AcDbEntity
  8
0
100
AcDbCircle
 10
0.8750000000000742
 20
0.5884006084559446
 30
0.0
 40
0.0468087730667339
100
AcDbArc
 50
270.0000000000049
 51
302.6079210152001
  0
LINE
  5
235
330
2
100
AcDbEntity
  8
0
100
AcDbLine
 10
0.8750000000000782
 20
0.5122668353892106
 30
0.0
 11
0.8750000000000782
 21
0.788941835389215
 31
0.0
  0
ARC
  5
236
330
2
100
AcDbEntity
  8
0
100
AcDbCircle
 10
-2.71875
 20
4.597273959581719
 30
0.0
 40
0.15625
100
AcDbArc
 50
180.0
 51
269.9999999999999
  0
ARC
  5
237
330
2
100
AcDbEntity
  8
0
100
AcDbCircle
 10
-2.71875
 20
5.347273959581719
 30
0.0
 40
0.15625
100
AcDbArc
 50
90.0
 51
180.0
  0
LINE
  5
238
330
2
100
AcDbEntity
  8
0
100
AcDbLine
 10
-2.875
 20
4.597273959581719
 30
0.0
 11
-2.875
 21
5.347273959581719
 31
0.0
  0
ARC
  5
239
330
2
100
AcDbEntity
  8
0
100
AcDbCircle
 10
0.8559574957082967
 20
3.562119863449727
 30
0.0
 40
0.0821454866301428
100
AcDbArc
 50
302.6079210151951
 51
327.0773280975508
  0
LINE
  5
23A
330
2
100
AcDbEntity
  8
0
100
AcDbLine
 10
0.8750000000000782
 20
3.456219223638909
 30
0.0
 11
0.8750000000000782
 21
3.732894223638914
 31
0.0
  0
LINE
  5
23B
330
2
100
AcDbEntity
  8
0
100
AcDbLine
 10
-2.5625
 20
2.24060115756423
 30
0.0
 11
-2.5625
 21
4.284773959581719
 31
0.0
  0
ARC
  5
23C
330
2
100
AcDbEntity
  8
0
100
AcDbCircle
 10
-1.562499999999998
 20
2.24060115756423
 30
0.0
 40
1.0
100
AcDbArc
 50
180.0
 51
226.0050860052541
  0
CIRCLE
  5
23D
330
2
100
AcDbEntity
  8
0
100
AcDbCircle
 10
-1.375
 20
1.122234566302216
 30
0.0
 40
0.085937500000002
  0
ARC
  5
23E
330
2
100
AcDbEntity
  8
0
100
AcDbCircle
 10
-0.8749999999999961
 20
1.011145508759738
 30
0.0
 40
0.0320532506230893
100
AcDbArc
 50
90.00000000000696
 51
123.5108229556765
  0
ARC
  5
23F
330
2
100
AcDbEntity
  8
0
100
AcDbCircle
 10
-0.8599249814362098
 20
0.9883789851451094
 30
0.0
 40
0.059358392669853
100
AcDbArc
 50
123.5108229556713
 51
147.9718933333926
  0
ARC
  5
240
330
2
100
AcDbEntity
  8
0
100
AcDbCircle
 10
-0.8749999999999957
 20
1.025714986316092
 30
0.0
 40
0.046808773066735
100
AcDbArc
 50
90.00000000000529
 51
122.6079210151997
  0
ARC
  5
241
330
2
100
AcDbEntity
  8
0
100
AcDbCircle
 10
-0.855957495708217
 20
0.9959481195720076
 30
0.0
 40
0.0821454866301452
100
AcDbArc
 50
122.6079210151953
 51
147.0773280975503
  0
ARC
  5
242
330
2
100
AcDbEntity
  8
0
100
AcDbCircle
 10
-0.8256995843951757
 20
0.9763564105757391
 30
0.0
 40
0.1181923486076092
100
AcDbArc
 50
147.0773280975455
 51
164.9866289979986
  0
ARC
  5
243
330
2
100
AcDbEntity
  8
0
100
AcDbCircle
 10
-0.875
 20
1.964283367718201
 30
0.0
 40
0.1875000000000025
100
AcDbArc
 50
90.0
 51
270.0
  0
CIRCLE
  5
244
330
2
100
AcDbEntity
  8
0
100
AcDbCircle
 10
-2.1875
 20
2.37857395958172
 30
0.0
 40
0.085937500000002
  0
ARC
  5
245
330
2
100
AcDbEntity
  8
0
100
AcDbCircle
 10
-0.8559574957082186
 20
2.931074399193665
 30
0.0
 40
0.0821454866301428
100
AcDbArc
 50
212.9226719024492
 51
237.3920789848049
  0
LINE
  5
246
330
2
100
AcDbEntity
  8
0
100
AcDbLine
 10
-0.875
 20
2.825173759382848
 30
0.0
 11
-0.875
 21
3.101848759382852
 31
0.0
  0
CIRCLE
  5
247
330
2
100
AcDbEntity
  8
0
100
AcDbCircle
 10
-1.375
 20
2.621989561292685
 30
0.0
 40
0.085937500000002
  0
ARC
  5
248
330
2
100
AcDbEntity
  8
0
100
AcDbCircle
 10
-0.874999999999996
 20
2.901307532449581
 30
0.0
 40
0.0468087730667337
100
AcDbArc
 50
237.3920789847998
 51
269.9999999999951
  0
ARC
  5
249
330
2
100
AcDbEntity
  8
0
100
AcDbCircle
 10
-0.8749999999999961
 20
3.011145508759762
 30
0.0
 40
0.0320532506230897
100
AcDbArc
 50
90.00000000000696
 51
123.5108229556761
  0
ARC
  5
24A
330
2
100
AcDbEntity
  8
0
100
AcDbCircle
 10
-0.8599249814362098
 20
2.988378985145134
 30
0.0
 40
0.0593583926698529
100
AcDbArc
 50
123.5108229556713
 51
147.9718933333927
  0
ARC
  5
24B
330
2
100
AcDbEntity
  8
0
100
AcDbCircle
 10
-0.8359215559125321
 20
2.973363602523337
 30
0.0
 40
0.0876713959042276
100
AcDbArc
 50
147.9718933333757
 51
165.4734521831877
  0
ARC
  5
24C
330
2
100
AcDbEntity
  8
0
100
AcDbCircle
 10
-0.7978980607364201
 20
2.963511259382877
 30
0.0
 40
0.1269505869697929
100
AcDbArc
 50
165.4734521832135
 51
180.0000000000106
  0
ARC
  5
24D
330
2
100
AcDbEntity
  8
0
100
AcDbCircle
 10
-0.7978980607363928
 20
2.963511259382826
 30
0.0
 40
0.1269505869698202
100
AcDbArc
 50
179.9999999999876
 51
194.5265478167848
  0
ARC
  5
24E
330
2
100
AcDbEntity
  8
0
100
AcDbCircle
 10
-0.8359215559125266
 20
2.953658916242365
 30
0.0
 40
0.0876713959042337
100
AcDbArc
 50
194.5265478168132
 51
212.0281066666238
  0
ARC
  5
24F
330
2
100
AcDbEntity
  8
0
100
AcDbCircle
 10
-0.8599249814362098
 20
2.938643533620565
 30
0.0
 40
0.0593583926698529
100
AcDbArc
 50
212.0281066666073
 51
236.4891770443287
  0
ARC
  5
250
330
2
100
AcDbEntity
  8
0
100
AcDbCircle
 10
-0.8749999999999963
 20
2.915877010005937
 30
0.0
 40
0.0320532506230888
100
AcDbArc
 50
236.4891770443234
 51
269.9999999999935
  0
ARC
  5
251
330
2
100
AcDbEntity
  8
0
100
AcDbCircle
 10
-0.8749999999999957
 20
3.025714986316117
 30
0.0
 40
0.046808773066735
100
AcDbArc
 50
90.00000000000529
 51
122.6079210151997
  0
ARC
  5
252
330
2
100
AcDbEntity
  8
0
100
AcDbCircle
 10
-0.855957495708217
 20
2.995948119572033
 30
0.0
 40
0.0821454866301451
100
AcDbArc
 50
122.6079210151954
 51
147.0773280975504
  0
ARC
  5
253
330
2
100
AcDbEntity
  8
0
100
AcDbCircle
 10
-0.8256995843951757
 20
2.976356410575764
 30
0.0
 40
0.1181923486076093
100
AcDbArc
 50
147.0773280975454
 51
164.9866289979985
  0
ARC
  5
254
330
2
100
AcDbEntity
  8
0
100
AcDbCircle
 10
-0.777805538061866
 20
2.963511259382859
 30
0.0
 40
0.167779016002644
100
AcDbArc
 50
164.9866289980043
 51
180.0000000000018
  0
ARC
  5
255
330
2
100
AcDbEntity
  8
0
100
AcDbCircle
 10
-0.7778055380618352
 20
2.963511259382845
 30
0.0
 40
0.1677790160026748
100
AcDbArc
 50
179.9999999999971
 51
195.0133710019943
  0
ARC
  5
256
330
2
100
AcDbEntity
  8
0
100
AcDbCircle
 10
-0.8256995843951718
 20
2.950666108189938
 30
0.0
 40
0.1181923486076134
100
AcDbArc
 50
195.0133710020017
 51
212.9226719024541
  0
CIRCLE
  5
257
330
2
100
AcDbEntity
  8
0
100
AcDbCircle
 10
1.375000000000004
 20
1.119761259382822
 30
0.0
 40
0.085937500000002
  0
ARC
  5
258
330
2
100
AcDbEntity
  8
0
100
AcDbCircle
 10
0.8750000000000036
 20
1.964283367718197
 30
0.0
 40
0.1875000000000025
100
AcDbArc
 50
270.0
 51
90.0
  0
ARC
  5
259
330
2
100
AcDbEntity
  8
0
100
AcDbCircle
 10
0.8750000000000738
 20
2.51891386451463
 30
0.0
 40
0.046808773066735
100
AcDbArc
 50
57.39207898480029
 51
89.99999999999471
  0
ARC
  5
25A
330
2
100
AcDbEntity
  8
0
100
AcDbCircle
 10
0.8559574957082952
 20
2.489146997770545
 30
0.0
 40
0.0821454866301451
100
AcDbArc
 50
32.92267190244962
 51
57.39207898480463
  0
ARC
  5
25B
330
2
100
AcDbEntity
  8
0
100
AcDbCircle
 10
0.8256995843952538
 20
2.469555288774276
 30
0.0
 40
0.1181923486076093
100
AcDbArc
 50
15.01337100200154
 51
32.9226719024546
  0
ARC
  5
25C
330
2
100
AcDbEntity
  8
0
100
AcDbCircle
 10
0.7778055380619442
 20
2.456710137581371
 30
0.0
 40
0.167779016002644
100
AcDbArc
 50
359.9999999999982
 51
15.01337100199569
  0
ARC
  5
25D
330
2
100
AcDbEntity
  8
0
100
AcDbCircle
 10
0.7778055380619133
 20
2.456710137581358
 30
0.0
 40
0.1677790160026748
100
AcDbArc
 50
344.9866289980057
 51
0.0000000000028814
  0
ARC
  5
25E
330
2
100
AcDbEntity
  8
0
100
AcDbCircle
 10
0.8256995843952499
 20
2.44386498638845
 30
0.0
 40
0.1181923486076134
100
AcDbArc
 50
327.0773280975459
 51
344.9866289979983
  0
ARC
  5
25F
330
2
100
AcDbEntity
  8
0
100
AcDbCircle
 10
0.8559574957082967
 20
2.424273277392178
 30
0.0
 40
0.0821454866301428
100
AcDbArc
 50
302.6079210151951
 51
327.0773280975508
  0
ARC
  5
260
330
2
100
AcDbEntity
  8
0
100
AcDbCircle
 10
0.8750000000000742
 20
2.394506410648094
 30
0.0
 40
0.0468087730667337
100
AcDbArc
 50
270.0000000000049
 51
302.6079210152003
  0
ARC
  5
261
330
2
100
AcDbEntity
  8
0
100
AcDbCircle
 10
0.8750000000000743
 20
2.504344386958275
 30
0.0
 40
0.0320532506230897
100
AcDbArc
 50
56.48917704432395
 51
89.99999999999305
  0
ARC
  5
262
330
2
100
AcDbEntity
  8
0
100
AcDbCircle
 10
0.8599249814362879
 20
2.481577863343647
 30
0.0
 40
0.0593583926698529
100
AcDbArc
 50
32.02810666660729
 51
56.48917704432868
  0
ARC
  5
263
330
2
100
AcDbEntity
  8
0
100
AcDbCircle
 10
0.8359215559126103
 20
2.46656248072185
 30
0.0
 40
0.0876713959042276
100
AcDbArc
 50
14.52654781681238
 51
32.02810666662427
  0
ARC
  5
264
330
2
100
AcDbEntity
  8
0
100
AcDbCircle
 10
0.7978980607364983
 20
2.45671013758139
 30
0.0
 40
0.1269505869697929
100
AcDbArc
 50
359.9999999999894
 51
14.52654781678648
  0
ARC
  5
265
330
2
100
AcDbEntity
  8
0
100
AcDbCircle
 10
0.797898060736471
 20
2.456710137581339
 30
0.0
 40
0.1269505869698202
100
AcDbArc
 50
345.4734521832153
 51
0.0000000000124265
  0
ARC
  5
266
330
2
100
AcDbEntity
  8
0
100
AcDbCircle
 10
0.8359215559126048
 20
2.446857794440878
 30
0.0
 40
0.0876713959042337
100
AcDbArc
 50
327.9718933333762
 51
345.4734521831869
  0
ARC
  5
267
330
2
100
AcDbEntity
  8
0
100
AcDbCircle
 10
0.8599249814362879
 20
2.431842411819078
 30
0.0
 40
0.0593583926698529
100
AcDbArc
 50
303.5108229556714
 51
327.9718933333927
  0
ARC
  5
268
330
2
100
AcDbEntity
  8
0
100
AcDbCircle
 10
0.8750000000000745
 20
2.409075888204449
 30
0.0
 40
0.0320532506230888
100
AcDbArc
 50
270.0000000000065
 51
303.5108229556766
  0
LINE
  5
269
330
2
100
AcDbEntity
  8
0
100
AcDbLine
 10
0.8750000000000782
 20
2.31837263758136
 30
0.0
 11
0.8750000000000782
 21
2.595047637581365
 31
0.0
  0
CIRCLE
  5
26A
330
2
100
AcDbEntity
  8
0
100
AcDbCircle
 10
1.375000000000004
 20
2.619761259382822
 30
0.0
 40
0.085937500000002
  0
ARC
  5
26B
330
2
100
AcDbEntity
  8
0
100
AcDbCircle
 10
0.8750000000000742
 20
3.532352996705643
 30
0.0
 40
0.0468087730667337
100
AcDbArc
 50
270.0000000000049
 51
302.6079210152003
  0
CIRCLE
  5
26C
330
2
100
AcDbEntity
  8
0
100
AcDbCircle
 10
-2.1875
 20
3.87857395958172
 30
0.0
 40
0.085937500000002
  0
ARC
  5
26D
330
2
100
AcDbEntity
  8
0
100
AcDbCircle
 10
-2.71875
 20
4.284773959581719
 30
0.0
 40
0.15625
100
AcDbArc
 50
0.0
 51
90.0
  0
LINE
  5
26E
330
2
100
AcDbEntity
  8
0
100
AcDbLine
 10
-2.71875
 20
4.441023959581719
 30
0.0
 11
-2.71875
 21
4.441023959581719
 31
0.0
  0
CIRCLE
  5
26F
330
2
100
AcDbEntity
  8
0
100
AcDbCircle
 10
-1.375
 20
3.620179898632179
 30
0.0
 40
0.085937500000002
  0
ARC
  5
270
330
2
100
AcDbEntity
  8
0
100
AcDbCircle
 10
-0.8749999999999961
 20
4.011145508759762
 30
0.0
 40
0.0320532506230897
100
AcDbArc
 50
90.00000000000696
 51
123.5108229556761
  0
ARC
  5
271
330
2
100
AcDbEntity
  8
0
100
AcDbCircle
 10
-0.8599249814362098
 20
3.988378985145134
 30
0.0
 40
0.0593583926698529
100
AcDbArc
 50
123.5108229556713
 51
147.9718933333927
  0
ARC
  5
272
330
2
100
AcDbEntity
  8
0
100
AcDbCircle
 10
-0.8359215559125321
 20
3.973363602523337
 30
0.0
 40
0.0876713959042276
100
AcDbArc
 50
147.9718933333757
 51
165.4734521831877
  0
ARC
  5
273
330
2
100
AcDbEntity
  8
0
100
AcDbCircle
 10
-0.7978980607364201
 20
3.963511259382877
 30
0.0
 40
0.1269505869697929
100
AcDbArc
 50
165.4734521832135
 51
180.0000000000106
  0
ARC
  5
274
330
2
100
AcDbEntity
  8
0
100
AcDbCircle
 10
-0.7978980607363928
 20
3.963511259382826
 30
0.0
 40
0.1269505869698202
100
AcDbArc
 50
179.9999999999876
 51
194.5265478167848
  0
ARC
  5
275
330
2
100
AcDbEntity
  8
0
100
AcDbCircle
 10
-0.8359215559125266
 20
3.953658916242365
 30
0.0
 40
0.0876713959042337
100
AcDbArc
 50
194.5265478168132
 51
212.0281066666238
  0
ARC
  5
276
330
2
100
AcDbEntity
  8
0
100
AcDbCircle
 10
-0.8599249814362098
 20
3.938643533620565
 30
0.0
 40
0.0593583926698529
100
AcDbArc
 50
212.0281066666073
 51
236.4891770443287
  0
ARC
  5
277
330
2
100
AcDbEntity
  8
0
100
AcDbCircle
 10
-0.8749999999999963
 20
3.915877010005937
 30
0.0
 40
0.0320532506230888
100
AcDbArc
 50
236.4891770443234
 51
269.9999999999935
  0
ARC
  5
278
330
2
100
AcDbEntity
  8
0
100
AcDbCircle
 10
-0.8749999999999957
 20
4.025714986316118
 30
0.0
 40
0.0468087730667347
100
AcDbArc
 50
90.00000000000529
 51
122.6079210152
  0
ARC
  5
279
330
2
100
AcDbEntity
  8
0
100
AcDbCircle
 10
-0.855957495708217
 20
3.995948119572033
 30
0.0
 40
0.0821454866301451
100
AcDbArc
 50
122.6079210151954
 51
147.0773280975504
  0
ARC
  5
27A
330
2
100
AcDbEntity
  8
0
100
AcDbCircle
 10
-0.8256995843951757
 20
3.976356410575764
 30
0.0
 40
0.1181923486076093
100
AcDbArc
 50
147.0773280975454
 51
164.9866289979985
  0
ARC
  5
27B
330
2
100
AcDbEntity
  8
0
100
AcDbCircle
 10
-0.777805538061866
 20
3.963511259382859
 30
0.0
 40
0.167779016002644
100
AcDbArc
 50
164.9866289980043
 51
180.0000000000018
  0
ARC
  5
27C
330
2
100
AcDbEntity
  8
0
100
AcDbCircle
 10
-0.7778055380618352
 20
3.963511259382845
 30
0.0
 40
0.1677790160026748
100
AcDbArc
 50
179.9999999999971
 51
195.0133710019943
  0
ARC
  5
27D
330
2
100
AcDbEntity
  8
0
100
AcDbCircle
 10
-0.8256995843951718
 20
3.950666108189938
 30
0.0
 40
0.1181923486076134
100
AcDbArc
 50
195.0133710020017
 51
212.9226719024541
  0
ARC
  5
27E
330
2
100
AcDbEntity
  8
0
100
AcDbCircle
 10
-0.8559574957082186
 20
3.931074399193665
 30
0.0
 40
0.0821454866301428
100
AcDbArc
 50
212.9226719024492
 51
237.3920789848049
  0
ARC
  5
27F
330
2
100
AcDbEntity
  8
0
100
AcDbCircle
 10
-0.874999999999996
 20
3.901307532449581
 30
0.0
 40
0.0468087730667337
100
AcDbArc
 50
237.3920789847998
 51
269.9999999999951
  0
LINE
  5
280
330
2
100
AcDbEntity
  8
0
100
AcDbLine
 10
-0.875
 20
3.825173759382848
 30
0.0
 11
-0.875
 21
4.101848759382852
 31
0.0
  0
CIRCLE
  5
281
330
2
100
AcDbEntity
  8
0
100
AcDbCircle
 10
-1.375
 20
4.618370235971673
 30
0.0
 40
0.085937500000002
  0
CIRCLE
  5
282
330
2
100
AcDbEntity
  8
0
100
AcDbCircle
 10
-2.5
 20
5.034823959581717
 30
0.0
 40
0.085937500000002
  0
CIRCLE
  5
283
330
2
100
AcDbEntity
  8
0
100
AcDbCircle
 10
-2.1875
 20
5.878573959581717
 30
0.0
 40
0.085937500000002
  0
ARC
  5
284
330
2
100
AcDbEntity
  8
0
100
AcDbCircle
 10
-2.71875
 20
5.659773959581719
 30
0.0
 40
0.15625
100
AcDbArc
 50
270.0
 51
359.9999999999999
  0
LINE
  5
285
330
2
100
AcDbEntity
  8
0
100
AcDbLine
 10
-2.71875
 20
5.503523959581719
 30
0.0
 11
-2.71875
 21
5.503523959581719
 31
0.0
  0
CIRCLE
  5
286
330
2
100
AcDbEntity
  8
0
100
AcDbCircle
 10
-1.375
 20
5.621855786612846
 30
0.0
 40
0.085937500000002
  0
ARC
  5
287
330
2
100
AcDbEntity
  8
0
100
AcDbCircle
 10
0.8750000000000743
 20
3.642190973015824
 30
0.0
 40
0.0320532506230897
100
AcDbArc
 50
56.48917704432395
 51
89.99999999999305
  0
ARC
  5
288
330
2
100
AcDbEntity
  8
0
100
AcDbCircle
 10
0.8599249814362879
 20
3.619424449401196
 30
0.0
 40
0.0593583926698529
100
AcDbArc
 50
32.02810666660729
 51
56.48917704432868
  0
ARC
  5
289
330
2
100
AcDbEntity
  8
0
100
AcDbCircle
 10
0.8359215559126103
 20
3.604409066779398
 30
0.0
 40
0.0876713959042276
100
AcDbArc
 50
14.52654781681238
 51
32.02810666662427
  0
ARC
  5
28A
330
2
100
AcDbEntity
  8
0
100
AcDbCircle
 10
0.7978980607364983
 20
3.594556723638938
 30
0.0
 40
0.1269505869697929
100
AcDbArc
 50
359.9999999999894
 51
14.52654781678648
  0
ARC
  5
28B
330
2
100
AcDbEntity
  8
0
100
AcDbCircle
 10
0.797898060736471
 20
3.594556723638887
 30
0.0
 40
0.1269505869698202
100
AcDbArc
 50
345.4734521832153
 51
0.0000000000124265
  0
ARC
  5
28C
330
2
100
AcDbEntity
  8
0
100
AcDbCircle
 10
0.8359215559126048
 20
3.584704380498427
 30
0.0
 40
0.0876713959042337
100
AcDbArc
 50
327.9718933333762
 51
345.4734521831869
  0
ARC
  5
28D
330
2
100
AcDbEntity
  8
0
100
AcDbCircle
 10
0.8599249814362879
 20
3.569688997876627
 30
0.0
 40
0.0593583926698529
100
AcDbArc
 50
303.5108229556714
 51
327.9718933333927
  0
ARC
  5
28E
330
2
100
AcDbEntity
  8
0
100
AcDbCircle
 10
0.8750000000000745
 20
3.546922474261998
 30
0.0
 40
0.0320532506230888
100
AcDbArc
 50
270.0000000000065
 51
303.5108229556766
  0
ARC
  5
28F
330
2
100
AcDbEntity
  8
0
100
AcDbCircle
 10
0.8750000000000738
 20
3.656760450572179
 30
0.0
 40
0.046808773066735
100
AcDbArc
 50
57.39207898480029
 51
89.99999999999471
  0
ARC
  5
290
330
2
100
AcDbEntity
  8
0
100
AcDbCircle
 10
0.8559574957082952
 20
3.626993583828094
 30
0.0
 40
0.0821454866301451
100
AcDbArc
 50
32.92267190244962
 51
57.39207898480463
  0
ARC
  5
291
330
2
100
AcDbEntity
  8
0
100
AcDbCircle
 10
0.8256995843952538
 20
3.607401874831825
 30
0.0
 40
0.1181923486076093
100
AcDbArc
 50
15.01337100200154
 51
32.9226719024546
  0
ARC
  5
292
330
2
100
AcDbEntity
  8
0
100
AcDbCircle
 10
0.7778055380619442
 20
3.59455672363892
 30
0.0
 40
0.167779016002644
100
AcDbArc
 50
359.9999999999982
 51
15.01337100199569
  0
ARC
  5
293
330
2
100
AcDbEntity
  8
0
100
AcDbCircle
 10
0.7778055380619133
 20
3.594556723638906
 30
0.0
 40
0.1677790160026748
100
AcDbArc
 50
344.9866289980057
 51
0.0000000000028814
  0
ARC
  5
294
330
2
100
AcDbEntity
  8
0
100
AcDbCircle
 10
0.8256995843952499
 20
3.581711572445999
 30
0.0
 40
0.1181923486076134
100
AcDbArc
 50
327.0773280975459
 51
344.9866289979983
  0
CIRCLE
  5
295
330
2
100
AcDbEntity
  8
0
100
AcDbCircle
 10
1.375000000000004
 20
3.619761259382822
 30
0.0
 40
0.085937500000002
  0
CIRCLE
  5
296
330
2
100
AcDbEntity
  8
0
100
AcDbCircle
 10
1.375000000000004
 20
4.619761259382818
 30
0.0
 40
0.085937500000002
  0
ARC
  5
297
330
2
100
AcDbEntity
  8
0
100
AcDbCircle
 10
0.8750000000000743
 20
5.953704834328358
 30
0.0
 40
0.0320532506230897
100
AcDbArc
 50
56.48917704432395
 51
89.99999999999305
  0
ARC
  5
298
330
2
100
AcDbEntity
  8
0
100
AcDbCircle
 10
0.8599249814362879
 20
5.93093831071373
 30
0.0
 40
0.0593583926698529
100
AcDbArc
 50
32.02810666660729
 51
56.48917704432868
  0
ARC
  5
299
330
2
100
AcDbEntity
  8
0
100
AcDbCircle
 10
0.8359215559126103
 20
5.915922928091932
 30
0.0
 40
0.0876713959042276
100
AcDbArc
 50
14.52654781681238
 51
32.02810666662427
  0
ARC
  5
29A
330
2
100
AcDbEntity
  8
0
100
AcDbCircle
 10
0.7978980607364983
 20
5.906070584951472
 30
0.0
 40
0.1269505869697929
100
AcDbArc
 50
359.9999999999895
 51
14.52654781678668
  0
ARC
  5
29B
330
2
100
AcDbEntity
  8
0
100
AcDbCircle
 10
0.797898060736471
 20
5.906070584951422
 30
0.0
 40
0.1269505869698203
100
AcDbArc
 50
345.4734521832149
 51
0.0000000000120257
  0
ARC
  5
29C
330
2
100
AcDbEntity
  8
0
100
AcDbCircle
 10
0.8359215559126048
 20
5.89621824181096
 30
0.0
 40
0.0876713959042332
100
AcDbArc
 50
327.9718933333767
 51
345.4734521831874
  0
ARC
  5
29D
330
2
100
AcDbEntity
  8
0
100
AcDbCircle
 10
0.8599249814362879
 20
5.881202859189161
 30
0.0
 40
0.0593583926698529
100
AcDbArc
 50
303.5108229556714
 51
327.9718933333927
  0
ARC
  5
29E
330
2
100
AcDbEntity
  8
0
100
AcDbCircle
 10
0.8750000000000745
 20
5.858436335574532
 30
0.0
 40
0.0320532506230888
100
AcDbArc
 50
270.0000000000065
 51
303.5108229556766
  0
ARC
  5
29F
330
2
100
AcDbEntity
  8
0
100
AcDbCircle
 10
0.8256995843952538
 20
5.91891573614436
 30
0.0
 40
0.1181923486076091
100
AcDbArc
 50
15.01337100200112
 51
32.92267190245424
  0
ARC
  5
2A0
330
2
100
AcDbEntity
  8
0
100
AcDbCircle
 10
0.7778055380619442
 20
5.906070584951454
 30
0.0
 40
0.167779016002644
100
AcDbArc
 50
359.9999999999982
 51
15.01337100199569
  0
ARC
  5
2A1
330
2
100
AcDbEntity
  8
0
100
AcDbCircle
 10
0.7778055380619133
 20
5.90607058495144
 30
0.0
 40
0.1677790160026747
100
AcDbArc
 50
344.9866289980059
 51
0.0000000000030331
  0
ARC
  5
2A2
330
2
100
AcDbEntity
  8
0
100
AcDbCircle
 10
0.8256995843952499
 20
5.893225433758532
 30
0.0
 40
0.1181923486076132
100
AcDbArc
 50
327.0773280975461
 51
344.9866289979985
  0
ARC
  5
2A3
330
2
100
AcDbEntity
  8
0
100
AcDbCircle
 10
0.8559574957082967
 20
5.873633724762261
 30
0.0
 40
0.0821454866301428
100
AcDbArc
 50
302.6079210151951
 51
327.0773280975508
  0
ARC
  5
2A4
330
2
100
AcDbEntity
  8
0
100
AcDbCircle
 10
0.8750000000000742
 20
5.843866858018177
 30
0.0
 40
0.0468087730667337
100
AcDbArc
 50
270.0000000000049
 51
302.6079210152003
  0
CIRCLE
  5
2A5
330
2
100
AcDbEntity
  8
0
100
AcDbCircle
 10
1.375000000000004
 20
5.619761259382822
 30
0.0
 40
0.085937500000002
  0
LINE
  5
2A6
330
2
100
AcDbEntity
  8
0
100
AcDbLine
 10
2.562500000000005
 20
2.240601157564226
 30
0.0
 11
2.562500000000004
 21
4.284773959581715
 31
0.0
  0
ARC
  5
2A7
330
2
100
AcDbEntity
  8
0
100
AcDbCircle
 10
1.5625
 20
2.240601157564226
 30
0.0
 40
1.0
100
AcDbArc
 50
313.9949139947457
 51
0.0
  0
CIRCLE
  5
2A8
330
2
100
AcDbEntity
  8
0
100
AcDbCircle
 10
2.187500000000004
 20
2.37857395958172
 30
0.0
 40
0.085937500000002
  0
LINE
  5
2A9
330
2
100
AcDbEntity
  8
0
100
AcDbLine
 10
2.875000000000004
 20
4.597273959581715
 30
0.0
 11
2.875000000000004
 21
5.347273959581715
 31
0.0
  0
CIRCLE
  5
2AA
330
2
100
AcDbEntity
  8
0
100
AcDbCircle
 10
2.187500000000004
 20
3.87857395958172
 30
0.0
 40
0.085937500000002
  0
LINE
  5
2AB
330
2
100
AcDbEntity
  8
0
100
AcDbLine
 10
2.718750000000004
 20
4.441023959581715
 30
0.0
 11
2.718750000000004
 21
4.441023959581715
 31
0.0
  0
ARC
  5
2AC
330
2
100
AcDbEntity
  8
0
100
AcDbCircle
 10
2.718750000000004
 20
4.597273959581715
 30
0.0
 40
0.15625
100
AcDbArc
 50
270.0000000000001
 51
0.0
  0
ARC
  5
2AD
330
2
100
AcDbEntity
  8
0
100
AcDbCircle
 10
2.718750000000004
 20
4.284773959581715
 30
0.0
 40
0.15625
100
AcDbArc
 50
89.99999999999999
 51
180.0
  0
ARC
  5
2AE
330
2
100
AcDbEntity
  8
0
100
AcDbCircle
 10
2.718750000000004
 20
5.347273959581715
 30
0.0
 40
0.15625
100
AcDbArc
 50
0.0
 51
89.99999999999999
  0
CIRCLE
  5
2AF
330
2
100
AcDbEntity
  8
0
100
AcDbCircle
 10
2.500000000000004
 20
5.034823959581717
 30
0.0
 40
0.085937500000002
  0
CIRCLE
  5
2B0
330
2
100
AcDbEntity
  8
0
100
AcDbCircle
 10
2.187500000000004
 20
5.878573959581717
 30
0.0
 40
0.085937500000002
  0
LINE
  5
2B1
330
2
100
AcDbEntity
  8
0
100
AcDbLine
 10
2.718750000000004
 20
5.503523959581715
 30
0.0
 11
2.718750000000004
 21
5.503523959581715
 31
0.0
  0
ARC
  5
2B2
330
2
100
AcDbEntity
  8
0
100
AcDbCircle
 10
2.718750000000004
 20
5.659773959581715
 30
0.0
 40
0.15625
100
AcDbArc
 50
180.0000000000001
 51
270.0
  0
LINE
  5
2B3
330
2
100
AcDbEntity
  8
0
100
AcDbLine
 10
2.875000000000004
 20
9.159773959581715
 30
0.0
 11
0.8125000000000036
 21
9.159773959581715
 31
0.0
  0
LINE
  5
2B4
330
2
100
AcDbEntity
  8
0
100
AcDbLine
 10
-2.875
 20
9.159773959581715
 30
0.0
 11
-0.8125
 21
9.159773959581719
 31
0.0
  0
ARC
  5
2B5
330
2
100
AcDbEntity
  8
0
100
AcDbCircle
 10
-2.71875
 20
6.472273959581719
 30
0.0
 40
0.15625
100
AcDbArc
 50
180.0
 51
269.9999999999999
  0
ARC
  5
2B6
330
2
100
AcDbEntity
  8
0
100
AcDbCircle
 10
-2.71875
 20
7.222273959581719
 30
0.0
 40
0.15625
100
AcDbArc
 50
90.0
 51
180.0
  0
ARC
  5
2B7
330
2
100
AcDbEntity
  8
0
100
AcDbCircle
 10
-2.71875
 20
8.472273959581719
 30
0.0
 40
0.15625
100
AcDbArc
 50
180.0
 51
269.9999999999999
  0
LINE
  5
2B8
330
2
100
AcDbEntity
  8
0
100
AcDbLine
 10
-2.875
 20
8.472273959581719
 30
0.0
 11
-2.875
 21
9.159773959581715
 31
0.0
  0
LINE
  5
2B9
330
2
100
AcDbEntity
  8
0
100
AcDbLine
 10
-2.875
 20
6.472273959581719
 30
0.0
 11
-2.875
 21
7.222273959581719
 31
0.0
  0
ARC
  5
2BA
330
2
100
AcDbEntity
  8
0
100
AcDbCircle
 10
-2.71875
 20
6.159773959581719
 30
0.0
 40
0.15625
100
AcDbArc
 50
0.0
 51
90.0
  0
LINE
  5
2BB
330
2
100
AcDbEntity
  8
0
100
AcDbLine
 10
-2.71875
 20
6.012336659780617
 30
0.0
 11
-2.71875
 21
6.012336659780617
 31
0.0
  0
CIRCLE
  5
2BC
330
2
100
AcDbEntity
  8
0
100
AcDbCircle
 10
-2.5
 20
6.878573959581717
 30
0.0
 40
0.085937500000002
  0
ARC
  5
2BD
330
2
100
AcDbEntity
  8
0
100
AcDbCircle
 10
-0.8750000000000121
 20
6.198645508759737
 30
0.0
 40
0.0320532506230897
100
AcDbArc
 50
90.00000000000696
 51
123.5108229556761
  0
ARC
  5
2BE
330
2
100
AcDbEntity
  8
0
100
AcDbCircle
 10
-0.8599249814362258
 20
6.17587898514511
 30
0.0
 40
0.0593583926698529
100
AcDbArc
 50
123.5108229556713
 51
147.9718933333927
  0
ARC
  5
2BF
330
2
100
AcDbEntity
  8
0
100
AcDbCircle
 10
-0.8359215559125481
 20
6.160863602523312
 30
0.0
 40
0.0876713959042276
100
AcDbArc
 50
147.9718933333757
 51
165.4734521831877
  0
ARC
  5
2C0
330
2
100
AcDbEntity
  8
0
100
AcDbCircle
 10
-0.7978980607364361
 20
6.151011259382852
 30
0.0
 40
0.1269505869697929
100
AcDbArc
 50
165.4734521832133
 51
180.0000000000104
  0
ARC
  5
2C1
330
2
100
AcDbEntity
  8
0
100
AcDbCircle
 10
-0.7978980607364088
 20
6.151011259382802
 30
0.0
 40
0.1269505869698203
100
AcDbArc
 50
179.999999999988
 51
194.5265478167852
  0
ARC
  5
2C2
330
2
100
AcDbEntity
  8
0
100
AcDbCircle
 10
-0.8359215559125426
 20
6.14115891624234
 30
0.0
 40
0.0876713959042332
100
AcDbArc
 50
194.5265478168126
 51
212.0281066666233
  0
ARC
  5
2C3
330
2
100
AcDbEntity
  8
0
100
AcDbCircle
 10
-0.8599249814362258
 20
6.126143533620541
 30
0.0
 40
0.0593583926698529
100
AcDbArc
 50
212.0281066666073
 51
236.4891770443287
  0
ARC
  5
2C4
330
2
100
AcDbEntity
  8
0
100
AcDbCircle
 10
-0.8750000000000123
 20
6.103377010005912
 30
0.0
 40
0.0320532506230888
100
AcDbArc
 50
236.4891770443234
 51
269.9999999999935
  0
ARC
  5
2C5
330
2
100
AcDbEntity
  8
0
100
AcDbCircle
 10
-0.8750000000000117
 20
6.213214986316093
 30
0.0
 40
0.0468087730667347
100
AcDbArc
 50
90.00000000000529
 51
122.6079210152
  0
ARC
  5
2C6
330
2
100
AcDbEntity
  8
0
100
AcDbCircle
 10
-0.855957495708233
 20
6.183448119572008
 30
0.0
 40
0.0821454866301451
100
AcDbArc
 50
122.6079210151954
 51
147.0773280975504
  0
ARC
  5
2C7
330
2
100
AcDbEntity
  8
0
100
AcDbCircle
 10
-0.8256995843951916
 20
6.16385641057574
 30
0.0
 40
0.1181923486076091
100
AcDbArc
 50
147.0773280975458
 51
164.9866289979989
  0
ARC
  5
2C8
330
2
100
AcDbEntity
  8
0
100
AcDbCircle
 10
-0.777805538061882
 20
6.151011259382834
 30
0.0
 40
0.167779016002644
100
AcDbArc
 50
164.9866289980043
 51
180.0000000000018
  0
ARC
  5
2C9
330
2
100
AcDbEntity
  8
0
100
AcDbCircle
 10
-0.7778055380618512
 20
6.15101125938282
 30
0.0
 40
0.1677790160026747
100
AcDbArc
 50
179.999999999997
 51
195.0133710019941
  0
ARC
  5
2CA
330
2
100
AcDbEntity
  8
0
100
AcDbCircle
 10
-0.8256995843951878
 20
6.138166108189912
 30
0.0
 40
0.1181923486076132
100
AcDbArc
 50
195.0133710020015
 51
212.9226719024539
  0
ARC
  5
2CB
330
2
100
AcDbEntity
  8
0
100
AcDbCircle
 10
-0.8559574957082345
 20
6.118574399193641
 30
0.0
 40
0.0821454866301428
100
AcDbArc
 50
212.9226719024492
 51
237.3920789848049
  0
ARC
  5
2CC
330
2
100
AcDbEntity
  8
0
100
AcDbCircle
 10
-0.875000000000012
 20
6.088807532449557
 30
0.0
 40
0.0468087730667337
100
AcDbArc
 50
237.3920789847998
 51
269.9999999999951
  0
LINE
  5
2CD
330
2
100
AcDbEntity
  8
0
100
AcDbLine
 10
-0.875000000000016
 20
6.012673759382823
 30
0.0
 11
-0.875000000000016
 21
6.289348759382827
 31
0.0
  0
CIRCLE
  5
2CE
330
2
100
AcDbEntity
  8
0
100
AcDbCircle
 10
-1.375
 20
6.743370152929151
 30
0.0
 40
0.085937500000002
  0
CIRCLE
  5
2CF
330
2
100
AcDbEntity
  8
0
100
AcDbCircle
 10
-2.1875
 20
7.878573959581717
 30
0.0
 40
0.085937500000002
  0
LINE
  5
2D0
330
2
100
AcDbEntity
  8
0
100
AcDbLine
 10
-2.5625
 20
7.534773959581719
 30
0.0
 11
-2.5625
 21
8.159773959581719
 31
0.0
  0
ARC
  5
2D1
330
2
100
AcDbEntity
  8
0
100
AcDbCircle
 10
-2.71875
 20
7.534773959581719
 30
0.0
 40
0.15625
100
AcDbArc
 50
270.0
 51
359.9999999999999
  0
LINE
  5
2D2
330
2
100
AcDbEntity
  8
0
100
AcDbLine
 10
-2.71875
 20
7.378523959581719
 30
0.0
 11
-2.71875
 21
7.378523959581719
 31
0.0
  0
ARC
  5
2D3
330
2
100
AcDbEntity
  8
0
100
AcDbCircle
 10
-2.71875
 20
8.159773959581719
 30
0.0
 40
0.15625
100
AcDbArc
 50
0.0
 51
90.0
  0
LINE
  5
2D4
330
2
100
AcDbEntity
  8
0
100
AcDbLine
 10
-2.71875
 20
8.316023959581719
 30
0.0
 11
-2.71875
 21
8.316023959581719
 31
0.0
  0
CIRCLE
  5
2D5
330
2
100
AcDbEntity
  8
0
100
AcDbCircle
 10
-1.375
 20
7.621989561292685
 30
0.0
 40
0.085937500000002
  0
ARC
  5
2D6
330
2
100
AcDbEntity
  8
0
100
AcDbCircle
 10
-0.8750000000000121
 20
8.073471653777753
 30
0.0
 40
0.0320532506230897
100
AcDbArc
 50
90.00000000000696
 51
123.5108229556761
  0
ARC
  5
2D7
330
2
100
AcDbEntity
  8
0
100
AcDbCircle
 10
-0.8599249814362258
 20
8.050705130163125
 30
0.0
 40
0.0593583926698529
100
AcDbArc
 50
123.5108229556713
 51
147.9718933333927
  0
ARC
  5
2D8
330
2
100
AcDbEntity
  8
0
100
AcDbCircle
 10
-0.8359215559125481
 20
8.035689747541328
 30
0.0
 40
0.0876713959042276
100
AcDbArc
 50
147.9718933333757
 51
165.4734521831877
  0
ARC
  5
2D9
330
2
100
AcDbEntity
  8
0
100
AcDbCircle
 10
-0.7978980607364361
 20
8.025837404400868
 30
0.0
 40
0.1269505869697929
100
AcDbArc
 50
165.4734521832133
 51
180.0000000000104
  0
ARC
  5
2DA
330
2
100
AcDbEntity
  8
0
100
AcDbCircle
 10
-0.7978980607364088
 20
8.025837404400816
 30
0.0
 40
0.1269505869698199
100
AcDbArc
 50
179.9999999999872
 51
194.5265478167843
  0
ARC
  5
2DB
330
2
100
AcDbEntity
  8
0
100
AcDbCircle
 10
-0.8359215559125426
 20
8.015985061260357
 30
0.0
 40
0.0876713959042342
100
AcDbArc
 50
194.5265478168137
 51
212.0281066666243
  0
ARC
  5
2DC
330
2
100
AcDbEntity
  8
0
100
AcDbCircle
 10
-0.8599249814362258
 20
8.000969678638557
 30
0.0
 40
0.0593583926698529
100
AcDbArc
 50
212.0281066666073
 51
236.4891770443287
  0
ARC
  5
2DD
330
2
100
AcDbEntity
  8
0
100
AcDbCircle
 10
-0.8750000000000123
 20
7.978203155023928
 30
0.0
 40
0.0320532506230888
100
AcDbArc
 50
236.4891770443234
 51
269.9999999999935
  0
ARC
  5
2DE
330
2
100
AcDbEntity
  8
0
100
AcDbCircle
 10
-0.8750000000000117
 20
8.088041131334109
 30
0.0
 40
0.0468087730667347
100
AcDbArc
 50
90.00000000000529
 51
122.6079210152
  0
ARC
  5
2DF
330
2
100
AcDbEntity
  8
0
100
AcDbCircle
 10
-0.855957495708233
 20
8.058274264590024
 30
0.0
 40
0.0821454866301451
100
AcDbArc
 50
122.6079210151954
 51
147.0773280975504
  0
ARC
  5
2E0
330
2
100
AcDbEntity
  8
0
100
AcDbCircle
 10
-0.8256995843951916
 20
8.038682555593756
 30
0.0
 40
0.1181923486076091
100
AcDbArc
 50
147.0773280975458
 51
164.9866289979989
  0
ARC
  5
2E1
330
2
100
AcDbEntity
  8
0
100
AcDbCircle
 10
-0.777805538061882
 20
8.02583740440085
 30
0.0
 40
0.167779016002644
100
AcDbArc
 50
164.9866289980043
 51
180.0000000000018
  0
ARC
  5
2E2
330
2
100
AcDbEntity
  8
0
100
AcDbCircle
 10
-0.7778055380618512
 20
8.025837404400837
 30
0.0
 40
0.1677790160026752
100
AcDbArc
 50
179.9999999999976
 51
195.0133710019947
  0
ARC
  5
2E3
330
2
100
AcDbEntity
  8
0
100
AcDbCircle
 10
-0.8256995843951878
 20
8.012992253207928
 30
0.0
 40
0.1181923486076132
100
AcDbArc
 50
195.0133710020015
 51
212.9226719024539
  0
ARC
  5
2E4
330
2
100
AcDbEntity
  8
0
100
AcDbCircle
 10
-0.8559574957082345
 20
7.993400544211657
 30
0.0
 40
0.0821454866301428
100
AcDbArc
 50
212.9226719024492
 51
237.3920789848049
  0
ARC
  5
2E5
330
2
100
AcDbEntity
  8
0
100
AcDbCircle
 10
-0.875000000000012
 20
7.963633677467572
 30
0.0
 40
0.0468087730667337
100
AcDbArc
 50
237.3920789847998
 51
269.9999999999951
  0
LINE
  5
2E6
330
2
100
AcDbEntity
  8
0
100
AcDbLine
 10
-0.875000000000016
 20
7.887499904400839
 30
0.0
 11
-0.875000000000016
 21
8.164174904400843
 31
0.0
  0
ARC
  5
2E7
330
2
100
AcDbEntity
  8
0
100
AcDbCircle
 10
0.8750000000000738
 20
5.968274311884713
 30
0.0
 40
0.0468087730667347
100
AcDbArc
 50
57.39207898479999
 51
89.99999999999471
  0
CIRCLE
  5
2E8
330
2
100
AcDbEntity
  8
0
100
AcDbCircle
 10
1.375000000000004
 20
6.744761259382818
 30
0.0
 40
0.085937500000002
  0
ARC
  5
2E9
330
2
100
AcDbEntity
  8
0
100
AcDbCircle
 10
0.7778055380619133
 20
7.901011259382816
 30
0.0
 40
0.1677790160026747
100
AcDbArc
 50
344.9866289980059
 51
0.0000000000030331
  0
ARC
  5
2EA
330
2
100
AcDbEntity
  8
0
100
AcDbCircle
 10
0.797898060736471
 20
7.901011259382798
 30
0.0
 40
0.1269505869698203
100
AcDbArc
 50
345.4734521832149
 51
0.0000000000120257
  0
LINE
  5
2EB
330
2
100
AcDbEntity
  8
0
100
AcDbLine
 10
0.8750000000000782
 20
7.762673759382819
 30
0.0
 11
0.8750000000000782
 21
8.039348759382824
 31
0.0
  0
ARC
  5
2EC
330
2
100
AcDbEntity
  8
0
100
AcDbCircle
 10
0.8256995843952499
 20
7.888166108189909
 30
0.0
 40
0.1181923486076132
100
AcDbArc
 50
327.0773280975461
 51
344.9866289979985
  0
ARC
  5
2ED
330
2
100
AcDbEntity
  8
0
100
AcDbCircle
 10
0.8559574957082967
 20
7.868574399193637
 30
0.0
 40
0.0821454866301428
100
AcDbArc
 50
302.6079210151951
 51
327.0773280975508
  0
ARC
  5
2EE
330
2
100
AcDbEntity
  8
0
100
AcDbCircle
 10
0.8750000000000742
 20
7.838807532449553
 30
0.0
 40
0.0468087730667337
100
AcDbArc
 50
270.0000000000049
 51
302.6079210152003
  0
ARC
  5
2EF
330
2
100
AcDbEntity
  8
0
100
AcDbCircle
 10
0.8359215559126048
 20
7.891158916242336
 30
0.0
 40
0.0876713959042332
100
AcDbArc
 50
327.9718933333767
 51
345.4734521831874
  0
ARC
  5
2F0
330
2
100
AcDbEntity
  8
0
100
AcDbCircle
 10
0.8599249814362879
 20
7.876143533620537
 30
0.0
 40
0.0593583926698529
100
AcDbArc
 50
303.5108229556714
 51
327.9718933333927
  0
ARC
  5
2F1
330
2
100
AcDbEntity
  8
0
100
AcDbCircle
 10
0.8750000000000745
 20
7.853377010005908
 30
0.0
 40
0.0320532506230888
100
AcDbArc
 50
270.0000000000065
 51
303.5108229556766
  0
CIRCLE
  5
2F2
330
2
100
AcDbEntity
  8
0
100
AcDbCircle
 10
1.375000000000004
 20
7.619761259382818
 30
0.0
 40
0.085937500000002
  0
ARC
  5
2F3
330
2
100
AcDbEntity
  8
0
100
AcDbCircle
 10
0.8750000000000738
 20
7.963214986316089
 30
0.0
 40
0.0468087730667347
100
AcDbArc
 50
57.39207898479999
 51
89.99999999999471
  0
ARC
  5
2F4
330
2
100
AcDbEntity
  8
0
100
AcDbCircle
 10
0.8559574957082952
 20
7.933448119572004
 30
0.0
 40
0.0821454866301451
100
AcDbArc
 50
32.92267190244962
 51
57.39207898480463
  0
ARC
  5
2F5
330
2
100
AcDbEntity
  8
0
100
AcDbCircle
 10
0.8256995843952538
 20
7.913856410575736
 30
0.0
 40
0.1181923486076091
100
AcDbArc
 50
15.01337100200112
 51
32.92267190245424
  0
ARC
  5
2F6
330
2
100
AcDbEntity
  8
0
100
AcDbCircle
 10
0.7778055380619442
 20
7.90101125938283
 30
0.0
 40
0.167779016002644
100
AcDbArc
 50
359.9999999999982
 51
15.01337100199569
  0
ARC
  5
2F7
330
2
100
AcDbEntity
  8
0
100
AcDbCircle
 10
0.8750000000000743
 20
7.948645508759734
 30
0.0
 40
0.0320532506230897
100
AcDbArc
 50
56.48917704432395
 51
89.99999999999305
  0
ARC
  5
2F8
330
2
100
AcDbEntity
  8
0
100
AcDbCircle
 10
0.8599249814362879
 20
7.925878985145106
 30
0.0
 40
0.0593583926698529
100
AcDbArc
 50
32.02810666660729
 51
56.48917704432868
  0
ARC
  5
2F9
330
2
100
AcDbEntity
  8
0
100
AcDbCircle
 10
0.8359215559126103
 20
7.910863602523309
 30
0.0
 40
0.0876713959042276
100
AcDbArc
 50
14.52654781681238
 51
32.02810666662427
  0
ARC
  5
2FA
330
2
100
AcDbEntity
  8
0
100
AcDbCircle
 10
0.7978980607364983
 20
7.901011259382848
 30
0.0
 40
0.1269505869697929
100
AcDbArc
 50
359.9999999999895
 51
14.52654781678668
  0
CIRCLE
  5
2FB
330
2
100
AcDbEntity
  8
0
100
AcDbCircle
 10
-2.5
 20
8.753573959581717
 30
0.0
 40
0.085937500000002
  0
CIRCLE
  5
2FC
330
2
100
AcDbEntity
  8
0
100
AcDbCircle
 10
-1.375
 20
8.619761259382818
 30
0.0
 40
0.085937500000002
  0
CIRCLE
  5
2FD
330
2
100
AcDbEntity
  8
0
100
AcDbCircle
 10
1.375000000000004
 20
8.619761259382818
 30
0.0
 40
0.085937500000002
  0
LINE
  5
2FE
330
2
100
AcDbEntity
  8
0
100
AcDbLine
 10
2.875000000000004
 20
8.472273959581715
 30
0.0
 11
2.875000000000004
 21
9.159773959581715
 31
0.0
  0
ARC
  5
2FF
330
2
100
AcDbEntity
  8
0
100
AcDbCircle
 10
2.718750000000004
 20
7.222273959581715
 30
0.0
 40
0.15625
100
AcDbArc
 50
0.0
 51
89.99999999999999
  0
LINE
  5
300
330
2
100
AcDbEntity
  8
0
100
AcDbLine
 10
2.875000000000004
 20
6.472273959581715
 30
0.0
 11
2.875000000000004
 21
7.222273959581715
 31
0.0
  0
LINE
  5
301
330
2
100
AcDbEntity
  8
0
100
AcDbLine
 10
2.718750000000004
 20
6.441023959581715
 30
0.0
 11
2.718750000000004
 21
6.441023959581715
 31
0.0
  0
ARC
  5
302
330
2
100
AcDbEntity
  8
0
100
AcDbCircle
 10
2.718750000000004
 20
6.472273959581715
 30
0.0
 40
0.15625
100
AcDbArc
 50
270.0000000000001
 51
0.0
  0
ARC
  5
303
330
2
100
AcDbEntity
  8
0
100
AcDbCircle
 10
2.718750000000004
 20
6.159773959581715
 30
0.0
 40
0.15625
100
AcDbArc
 50
89.99999999999999
 51
180.0
  0
CIRCLE
  5
304
330
2
100
AcDbEntity
  8
0
100
AcDbCircle
 10
2.500000000000004
 20
6.878573959581717
 30
0.0
 40
0.085937500000002
  0
CIRCLE
  5
305
330
2
100
AcDbEntity
  8
0
100
AcDbCircle
 10
2.187500000000004
 20
7.878573959581717
 30
0.0
 40
0.085937500000002
  0
LINE
  5
306
330
2
100
AcDbEntity
  8
0
100
AcDbLine
 10
2.562500000000004
 20
7.534773959581715
 30
0.0
 11
2.562500000000004
 21
8.159773959581715
 31
0.0
  0
LINE
  5
307
330
2
100
AcDbEntity
  8
0
100
AcDbLine
 10
2.718750000000004
 20
7.378523959581715
 30
0.0
 11
2.718750000000004
 21
7.378523959581715
 31
0.0
  0
ARC
  5
308
330
2
100
AcDbEntity
  8
0
100
AcDbCircle
 10
2.718750000000004
 20
7.534773959581715
 30
0.0
 40
0.15625
100
AcDbArc
 50
180.0000000000001
 51
270.0
  0
LINE
  5
309
330
2
100
AcDbEntity
  8
0
100
AcDbLine
 10
2.718750000000004
 20
8.316023959581715
 30
0.0
 11
2.718750000000004
 21
8.316023959581715
 31
0.0
  0
ARC
  5
30A
330
2
100
AcDbEntity
  8
0
100
AcDbCircle
 10
2.718750000000004
 20
8.472273959581715
 30
0.0
 40
0.15625
100
AcDbArc
 50
270.0000000000001
 51
0.0
  0
ARC
  5
30B
330
2
100
AcDbEntity
  8
0
100
AcDbCircle
 10
2.718750000000004
 20
8.159773959581715
 30
0.0
 40
0.15625
100
AcDbArc
 50
89.99999999999999
 51
180.0
  0
CIRCLE
  5
30C
330
2
100
AcDbEntity
  8
0
100
AcDbCircle
 10
2.500000000000004
 20
8.753573959581717
 30
0.0
 40
0.085937500000002
  0
LINE
  5
397
330
2
100
AcDbEntity
  8
0
100
AcDbLine
 10
10.61556862659201
 20
9.078464316435049
 30
0.0
 11
10.61556862659201
 21
0.1809803148918583
 31
0.0
  0
LINE
  5
398
330
2
100
AcDbEntity
  8
0
100
AcDbLine
 10
10.55306862659201
 20
9.078464316435049
 30
0.0
 11
10.55306862659201
 21
0.1809803148918583
 31
0.0
  0
LINE
  5
399
330
2
100
AcDbEntity
  8
0
100
AcDbLine
 10
8.935163140291573
 20
1.517650737365091
 30
0.0
 11
7.580771369742225
 21
0.2099621313174431
 31
0.0
  0
LINE
  5
39A
330
2
100
AcDbEntity
  8
0
100
AcDbLine
 10
7.47534931278023
 20
-0.0000000000000036
 30
0.0
 11
10.47534931278019
 21
-0.0000000000000036
 31
0.0
  0
LINE
  5
39B
330
2
100
AcDbEntity
  8
0
  6
HIDDEN
100
AcDbLine
 10
7.47534931278023
 20
0.0624999999999964
 30
0.0
 11
10.47534931278019
 21
0.0624999999999964
 31
0.0
  0
LINE
  5
39D
330
2
100
AcDbEntity
  8
0
100
AcDbLine
 10
10.61556862659201
 20
0.1809803148918583
 30
0.0
 11
10.55306862659201
 21
0.1809803148918583
 31
0.0
  0
LINE
  5
39E
330
2
100
AcDbEntity
  8
0
100
AcDbLine
 10
10.47534931278019
 20
0.0624999999999964
 30
0.0
 11
10.47534931278019
 21
-0.0000000000000036
 31
0.0
  0
ARC
  5
39F
330
2
100
AcDbEntity
  8
0
100
AcDbCircle
 10
10.92806862659201
 20
-0.1497385989912594
 30
0.0
 40
0.5
100
AcDbArc
 50
138.5903778907219
 51
154.8824237621768
  0
LINE
  5
3A1
330
2
100
AcDbEntity
  8
0
100
AcDbLine
 10
7.47534931278023
 20
0.0624999999999964
 30
0.0
 11
7.47534931278023
 21
-0.0000000000000036
 31
0.0
  0
ARC
  5
3A2
330
2
100
AcDbEntity
  8
0
100
AcDbCircle
 10
7.928068626592006
 20
-0.1497385989912594
 30
0.0
 40
0.5
100
AcDbArc
 50
133.9949139947459
 51
154.882423762177
  0
ARC
  5
3AD
330
2
100
AcDbEntity
  8
0
100
AcDbCircle
 10
9.396818626592006
 20
5.609714316435048
 30
0.0
 40
0.15625
100
AcDbArc
 50
180.0
 51
270.0
  0
LINE
  5
3AF
330
2
100
AcDbEntity
  8
0
100
AcDbLine
 10
9.240568626592006
 20
2.237052197982504
 30
0.0
 11
9.240568626592006
 21
4.234714316435049
 31
0.0
  0
ARC
  5
3B0
330
2
100
AcDbEntity
  8
0
100
AcDbCircle
 10
10.55306862659201
 20
1.937499999999996
 30
0.0
 40
0.1875000000000025
100
AcDbArc
 50
90.0
 51
270.0
  0
ARC
  5
3B2
330
2
100
AcDbEntity
  8
0
100
AcDbCircle
 10
8.240568626592006
 20
2.237052197982504
 30
0.0
 40
1.0
100
AcDbArc
 50
313.9949139947459
 51
0.0
  0
ARC
  5
3B4
330
2
100
AcDbEntity
  8
0
100
AcDbCircle
 10
9.396818626592006
 20
4.547214316435048
 30
0.0
 40
0.15625
100
AcDbArc
 50
270.0
 51
0.0
  0
ARC
  5
3B5
330
2
100
AcDbEntity
  8
0
100
AcDbCircle
 10
9.396818626592006
 20
5.297214316435048
 30
0.0
 40
0.15625
100
AcDbArc
 50
0.0
 51
90.0
  0
LINE
  5
3BE
330
2
100
AcDbEntity
  8
0
100
AcDbLine
 10
9.553068626592006
 20
4.547214316435049
 30
0.0
 11
9.553068626592006
 21
5.297214316435049
 31
0.0
  0
ARC
  5
3C0
330
2
100
AcDbEntity
  8
0
100
AcDbCircle
 10
9.396818626592006
 20
4.234714316435048
 30
0.0
 40
0.15625
100
AcDbArc
 50
90.0
 51
180.0
  0
LINE
  5
3C1
330
2
100
AcDbEntity
  8
0
100
AcDbLine
 10
9.396818626592006
 20
4.390964316435049
 30
0.0
 11
9.396818626592006
 21
4.390964316435049
 31
0.0
  0
LINE
  5
3C2
330
2
100
AcDbEntity
  8
0
100
AcDbLine
 10
9.396818626592006
 20
5.453464316435049
 30
0.0
 11
9.396818626592006
 21
5.453464316435049
 31
0.0
  0
LINE
  5
3C9
330
2
100
AcDbEntity
  8
0
100
AcDbLine
 10
9.240568626592006
 20
7.484714316435049
 30
0.0
 11
9.240568626592006
 21
8.109714316435049
 31
0.0
  0
ARC
  5
3CA
330
2
100
AcDbEntity
  8
0
100
AcDbCircle
 10
9.396818626592006
 20
6.422214316435048
 30
0.0
 40
0.15625
100
AcDbArc
 50
270.0
 51
0.0
  0
ARC
  5
3CB
330
2
100
AcDbEntity
  8
0
100
AcDbCircle
 10
9.396818626592006
 20
7.172214316435048
 30
0.0
 40
0.15625
100
AcDbArc
 50
0.0
 51
90.0
  0
LINE
  5
3CC
330
2
100
AcDbEntity
  8
0
100
AcDbLine
 10
9.553068626592006
 20
6.422214316435049
 30
0.0
 11
9.553068626592006
 21
7.172214316435049
 31
0.0
  0
LINE
  5
3CE
330
2
100
AcDbEntity
  8
0
100
AcDbLine
 10
9.240568626592006
 20
5.609714316435049
 30
0.0
 11
9.240568626592006
 21
6.109714316435049
 31
0.0
  0
ARC
  5
3CF
330
2
100
AcDbEntity
  8
0
100
AcDbCircle
 10
9.396818626592006
 20
6.109714316435048
 30
0.0
 40
0.15625
100
AcDbArc
 50
90.0
 51
180.0
  0
LINE
  5
3D0
330
2
100
AcDbEntity
  8
0
100
AcDbLine
 10
9.396818626592006
 20
6.265964316435049
 30
0.0
 11
9.396818626592006
 21
6.265964316435049
 31
0.0
  0
ARC
  5
3D1
330
2
100
AcDbEntity
  8
0
100
AcDbCircle
 10
9.396818626592006
 20
7.484714316435048
 30
0.0
 40
0.15625
100
AcDbArc
 50
180.0
 51
270.0
  0
LINE
  5
3D2
330
2
100
AcDbEntity
  8
0
100
AcDbLine
 10
9.396818626592006
 20
7.328464316435049
 30
0.0
 11
9.396818626592006
 21
7.328464316435049
 31
0.0
  0
ARC
  5
3D3
330
2
100
AcDbEntity
  8
0
100
AcDbCircle
 10
9.396818626592006
 20
8.422214316435049
 30
0.0
 40
0.15625
100
AcDbArc
 50
270.0
 51
0.0
  0
LINE
  5
3D4
330
2
100
AcDbEntity
  8
0
100
AcDbLine
 10
9.553068626592006
 20
8.422214316435049
 30
0.0
 11
9.55306862659201
 21
9.078464316435049
 31
0.0
  0
LINE
  5
3D5
330
2
100
AcDbEntity
  8
0
100
AcDbLine
 10
10.61556862659201
 20
9.078464316435049
 30
0.0
 11
9.553068626592006
 21
9.078464316435049
 31
0.0
  0
ARC
  5
3DA
330
2
100
AcDbEntity
  8
0
100
AcDbCircle
 10
9.396818626592006
 20
8.109714316435049
 30
0.0
 40
0.15625
100
AcDbArc
 50
90.0
 51
180.0
  0
LINE
  5
3DB
330
2
100
AcDbEntity
  8
0
100
AcDbLine
 10
9.396818626592006
 20
8.265964316435049
 30
0.0
 11
9.396818626592006
 21
8.265964316435049
 31
0.0
  0
LINE
  5
3EA
330
2
100
AcDbEntity
  8
0
100
AcDbLine
 10
-0.8749999999999218
 20
13.57475564641349
 30
0.0
 11
-0.8749999999999218
 21
15.86586330787363
 31
0.0
  0
LINE
  5
3EB
330
2
100
AcDbEntity
  8
0
100
AcDbLine
 10
0.8750000000000497
 20
13.5747556464135
 30
0.0
 11
0.8750000000000497
 21
15.86586330787363
 31
0.0
  0
LINE
  5
3EC
330
2
100
AcDbEntity
  8
0
100
AcDbLine
 10
2.875000000000078
 20
16.71497496022531
 30
0.0
 11
0.9375000000000497
 21
16.71497496022531
 31
0.0
  0
LINE
  5
3ED
330
2
100
AcDbEntity
  8
0
100
AcDbLine
 10
2.875000000000078
 20
16.65247496022531
 30
0.0
 11
0.9375000000000497
 21
16.65247496022531
 31
0.0
  0
LINE
  5
3EE
330
2
100
AcDbEntity
  8
0
100
AcDbLine
 10
-0.8749999999999218
 20
15.86586330787363
 30
0.0
 11
-0.8749999999999218
 21
16.58997496022531
 31
0.0
  0
LINE
  5
3EF
330
2
100
AcDbEntity
  8
0
100
AcDbLine
 10
0.8750000000000497
 20
15.86586330787363
 30
0.0
 11
0.8750000000000497
 21
16.58997496022531
 31
0.0
  0
LINE
  5
3F0
330
2
100
AcDbEntity
  8
0
100
AcDbLine
 10
-0.9374999999999432
 20
16.71497496022531
 30
0.0
 11
-2.874999999999922
 21
16.71497496022531
 31
0.0
  0
LINE
  5
3F1
330
2
100
AcDbEntity
  8
0
100
AcDbLine
 10
-0.9374999999999218
 20
16.65247496022531
 30
0.0
 11
-2.874999999999922
 21
16.65247496022531
 31
0.0
  0
LINE
  5
3F2
330
2
100
AcDbEntity
  8
0
100
AcDbLine
 10
-2.874999999999922
 20
16.65247496022531
 30
0.0
 11
-2.874999999999922
 21
16.71497496022531
 31
0.0
  0
ARC
  5
3F3
330
2
100
AcDbEntity
  8
0
100
AcDbCircle
 10
-0.6002614010086944
 20
17.02747496022531
 30
0.0
 40
0.5
100
AcDbArc
 50
244.8824237621772
 51
269.9999999999999
  0
ARC
  5
3F4
330
2
100
AcDbEntity
  8
0
100
AcDbCircle
 10
-0.4060863443592524
 20
16.52747496022531
 30
0.0
 40
0.09375
100
AcDbArc
 50
180.0000000000004
 51
0.0000000000025585
  0
ARC
  5
3F5
330
2
100
AcDbEntity
  8
0
100
AcDbCircle
 10
0.4062500000000497
 20
16.5274749602253
 30
0.0
 40
0.09375
100
AcDbArc
 50
180.0000000000004
 51
0.0000000000025585
  0
ARC
  5
3F6
330
2
100
AcDbEntity
  8
0
100
AcDbCircle
 10
0.600261401008801
 20
17.02747496022531
 30
0.0
 40
0.5
100
AcDbArc
 50
270.0
 51
295.1175762378232
  0
ARC
  5
3F7
330
2
100
AcDbEntity
  8
0
100
AcDbCircle
 10
-0.9374999999999432
 20
16.58997496022531
 30
0.0
 40
0.125
100
AcDbArc
 50
0.0
 51
90.00000000000003
  0
ARC
  5
3F8
330
2
100
AcDbEntity
  8
0
100
AcDbCircle
 10
-0.9374999999999218
 20
16.58997496022531
 30
0.0
 40
0.0625
100
AcDbArc
 50
0.0
 51
90.00000000000003
  0
LINE
  5
3F9
330
2
100
AcDbEntity
  8
0
100
AcDbLine
 10
-0.8124999999999432
 20
16.5747556464135
 30
0.0
 11
-0.8124999999999432
 21
16.58997496022531
 31
0.0
  0
ARC
  5
3FA
330
2
100
AcDbEntity
  8
0
100
AcDbCircle
 10
0.9375000000000497
 20
16.58997496022531
 30
0.0
 40
0.125
100
AcDbArc
 50
90.00000000000006
 51
180.0
  0
ARC
  5
3FB
330
2
100
AcDbEntity
  8
0
100
AcDbCircle
 10
0.9375000000000497
 20
16.58997496022531
 30
0.0
 40
0.0625
100
AcDbArc
 50
90.00000000000006
 51
180.0
  0
LINE
  5
3FC
330
2
100
AcDbEntity
  8
0
100
AcDbLine
 10
0.8125000000000497
 20
16.5747556464135
 30
0.0
 11
0.8125000000000497
 21
16.58997496022531
 31
0.0
  0
LINE
  5
3FD
330
2
100
AcDbEntity
  8
0
100
AcDbLine
 10
-0.3123363443593163
 20
16.5274749602253
 30
0.0
 11
0.312500000000064
 21
16.52747496022531
 31
0.0
  0
LINE
  5
3FE
330
2
100
AcDbEntity
  8
0
100
AcDbLine
 10
-0.6002614010086944
 20
16.52747496022531
 30
0.0
 11
-0.4998363443592524
 21
16.52747496022531
 31
0.0
  0
LINE
  5
3FF
330
2
100
AcDbEntity
  8
0
100
AcDbLine
 10
0.5003392839808072
 20
16.52747496022531
 30
0.0
 11
0.600261401008801
 21
16.52747496022531
 31
0.0
  0
LINE
  5
400
330
2
100
AcDbEntity
  8
0
100
AcDbLine
 10
0.5000000000000497
 20
16.52747496022531
 30
0.0
 11
0.600261401008801
 21
16.52747496022531
 31
0.0
  0
LINE
  5
401
330
2
100
AcDbEntity
  8
0
100
AcDbLine
 10
2.875000000000078
 20
16.65247496022531
 30
0.0
 11
2.875000000000078
 21
16.71497496022531
 31
0.0
  0
LINE
  5
402
330
2
100
AcDbEntity
  8
0
100
AcDbLine
 10
-0.1101312332720568
 20
14.91716630236021
 30
0.0
 11
0.0001774245930406
 21
15.02747496022531
 31
0.0
  0
LINE
  5
403
330
2
100
AcDbEntity
  8
0
100
AcDbLine
 10
0.0001774245930406
 20
15.02747496022531
 30
0.0
 11
0.1104860824581451
 21
14.91716630236021
 31
0.0
  0
LINE
  5
404
330
2
100
AcDbEntity
  8
0
100
AcDbLine
 10
0.0001774245930406
 20
14.80685764449511
 30
0.0
 11
-0.1101312332720568
 21
14.91716630236021
 31
0.0
  0
LINE
  5
405
330
2
100
AcDbEntity
  8
0
100
AcDbLine
 10
0.1104860824581451
 20
14.91716630236021
 30
0.0
 11
0.0001774245930406
 21
14.80685764449511
 31
0.0
  0
ARC
  5
406
330
2
100
AcDbEntity
  8
0
100
AcDbCircle
 10
-0.4062499999999432
 20
13.5274749602253
 30
0.0
 40
0.09375
100
AcDbArc
 50
359.9999999999978
 51
180.0
  0
ARC
  5
407
330
2
100
AcDbEntity
  8
0
100
AcDbCircle
 10
0.4062500000000497
 20
13.52747496022531
 30
0.0
 40
0.09375
100
AcDbArc
 50
359.9999999999978
 51
180.0
  0
LINE
  5
408
330
2
100
AcDbEntity
  8
0
100
AcDbLine
 10
-0.3125000000000924
 20
13.5274749602253
 30
0.0
 11
0.3125000000000995
 21
13.5274749602253
 31
0.0
  0
LINE
  5
409
330
2
100
AcDbEntity
  8
0
100
AcDbLine
 10
-0.6002614010086944
 20
13.5274749602253
 30
0.0
 11
-0.4998363443592524
 21
13.5274749602253
 31
0.0
  0
LINE
  5
40A
330
2
100
AcDbEntity
  8
0
100
AcDbLine
 10
-0.6002614010086944
 20
13.5274749602253
 30
0.0
 11
-0.4999999999999432
 21
13.5274749602253
 31
0.0
  0
LINE
  5
40B
330
2
100
AcDbEntity
  8
0
100
AcDbLine
 10
-0.8749999999999218
 20
13.57475564641349
 30
0.0
 11
-0.8124999999999218
 21
13.57475564641349
 31
0.0
  0
LINE
  5
40C
330
2
100
AcDbEntity
  8
0
100
AcDbLine
 10
-0.8749999999999218
 20
13.57475564641349
 30
0.0
 11
-0.8124999999999218
 21
13.57475564641349
 31
0.0
  0
ARC
  5
40D
330
2
100
AcDbEntity
  8
0
100
AcDbCircle
 10
-0.6002614010086944
 20
14.0274749602253
 30
0.0
 40
0.5
100
AcDbArc
 50
244.8824237621802
 51
269.9999999999999
  0
ARC
  5
40E
330
2
100
AcDbEntity
  8
0
100
AcDbCircle
 10
0.600261401008801
 20
14.0274749602253
 30
0.0
 40
0.5
100
AcDbArc
 50
270.0
 51
295.1175762378231
  0
LINE
  5
40F
330
2
100
AcDbEntity
  8
0
100
AcDbLine
 10
0.5003392839808072
 20
13.5274749602253
 30
0.0
 11
0.600261401008801
 21
13.5274749602253
 31
0.0
  0
LINE
  5
410
330
2
100
AcDbEntity
  8
0
100
AcDbLine
 10
0.5000000000000497
 20
13.52747496022531
 30
0.0
 11
0.600261401008801
 21
13.5274749602253
 31
0.0
  0
LINE
  5
411
330
2
100
AcDbEntity
  8
0
100
AcDbLine
 10
0.8750000000000497
 20
13.5747556464135
 30
0.0
 11
0.8125000000000497
 21
13.5747556464135
 31
0.0
  0
LINE
  5
412
330
2
100
AcDbEntity
  8
0
100
AcDbLine
 10
9.502795939095146
 20
7.681364116236156
 30
0.0
 11
9.502795939095146
 21
7.958039116236161
 31
0.0
  0
LWPOLYLINE
  5
413
330
2
100
AcDbEntity
  8
0
100
AcDbPolyline
 90
        9
 70
     0
 43
0.0
 10
9.502795939095146
 20
7.710689116236156
 42
0.1432467981947568
 10
9.528020589950602
 20
7.718067213107406
 42
0.1071754848060475
 10
9.552706755921188
 20
7.742618138252058
 42
0.0783035184710328
 10
9.567653423543549
 20
7.776239392602856
 42
0.0656020556757086
 10
9.573380493159656
 20
7.819701616236162
 42
0.0656020556757101
 10
9.567653423543549
 20
7.86316383986946
 42
0.0783035184710357
 10
9.552706755921188
 20
7.89678509422026
 42
0.1071754848060445
 10
9.528020589950602
 20
7.921336019364912
 42
0.1432467981947535
 10
9.502795939095146
 20
7.928714116236161
 42
0.1432467981947515
  0
LWPOLYLINE
  5
414
330
2
100
AcDbEntity
  8
0
100
AcDbPolyline
 90
        9
 70
     0
 43
0.0
 10
9.502795939095146
 20
7.681364116236156
 42
0.0700628980345364
 10
9.581914742895188
 20
7.692505392005027
 42
0.0818514225363451
 10
9.643811061021632
 20
7.721882231893761
 42
0.1069100077216601
 10
9.688409212087132
 20
7.769629144648792
 42
0.135394011665182
 10
9.702221437023278
 20
7.819701616236155
 42
0.1353940116651818
 10
9.688409212087132
 20
7.869774087823525
 42
0.1069100077216599
 10
9.643811061021632
 20
7.91752100057855
 42
0.0818514225363446
 10
9.581914742895188
 20
7.94689784046729
 42
0.0700628980345367
 10
9.502795939095146
 20
7.958039116236161
 42
0.0700628980345371
  0
LWPOLYLINE
  5
415
330
2
100
AcDbEntity
  8
0
100
AcDbPolyline
 90
        9
 70
     0
 43
0.0
 10
9.502795939095146
 20
7.740014116236156
 42
0.147269582437036
 10
9.520492362257686
 20
7.745341957923951
 42
0.1071386913803464
 10
9.538044255921188
 20
7.763354044610355
 42
0.0765137470862007
 10
9.548586169967956
 20
7.787858782644515
 42
0.063469041210727
 10
9.552644586801359
 20
7.819701616236162
 42
0.0634690412107267
 10
9.548586169967956
 20
7.851544449827801
 42
0.0765137470862059
 10
9.538044255921188
 20
7.876049187861962
 42
0.1071386913803463
 10
9.520492362257686
 20
7.894061274548367
 42
0.1472695824370325
 10
9.502795939095146
 20
7.899389116236161
 42
0.1472695824370333
  0
LINE
  5
416
330
2
100
AcDbEntity
  8
0
100
AcDbLine
 10
9.502795939095146
 20
5.81142344180478
 30
0.0
 11
9.502795939095146
 21
6.088098441804784
 31
0.0
  0
LWPOLYLINE
  5
417
330
2
100
AcDbEntity
  8
0
100
AcDbPolyline
 90
        9
 70
     0
 43
0.0
 10
9.502795939095146
 20
5.84074844180478
 42
0.1432467981947568
 10
9.528020589950602
 20
5.84812653867603
 42
0.1071754848060475
 10
9.552706755921188
 20
5.872677463820682
 42
0.0783035184710328
 10
9.567653423543549
 20
5.90629871817148
 42
0.0656020556757086
 10
9.573380493159656
 20
5.949760941804786
 42
0.0656020556757101
 10
9.567653423543549
 20
5.993223165438084
 42
0.0783035184710357
 10
9.552706755921188
 20
6.026844419788882
 42
0.1071754848060445
 10
9.528020589950602
 20
6.051395344933535
 42
0.1432467981947535
 10
9.502795939095146
 20
6.058773441804784
 42
0.1432467981947515
  0
LWPOLYLINE
  5
418
330
2
100
AcDbEntity
  8
0
100
AcDbPolyline
 90
        9
 70
     0
 43
0.0
 10
9.502795939095146
 20
5.81142344180478
 42
0.0700628980345364
 10
9.581914742895188
 20
5.822564717573651
 42
0.0818514225363451
 10
9.643811061021632
 20
5.851941557462385
 42
0.1069100077216601
 10
9.688409212087132
 20
5.899688470217416
 42
0.135394011665182
 10
9.702221437023278
 20
5.949760941804779
 42
0.1353940116651818
 10
9.688409212087132
 20
5.999833413392149
 42
0.1069100077216599
 10
9.643811061021632
 20
6.047580326147172
 42
0.0818514225363446
 10
9.581914742895188
 20
6.076957166035913
 42
0.0700628980345367
 10
9.502795939095146
 20
6.088098441804784
 42
0.0700628980345371
  0
LWPOLYLINE
  5
419
330
2
100
AcDbEntity
  8
0
100
AcDbPolyline
 90
        9
 70
     0
 43
0.0
 10
9.502795939095146
 20
5.87007344180478
 42
0.147269582437036
 10
9.520492362257686
 20
5.875401283492574
 42
0.1071386913803464
 10
9.538044255921188
 20
5.893413370178979
 42
0.0765137470862007
 10
9.548586169967956
 20
5.917918108213139
 42
0.063469041210727
 10
9.552644586801359
 20
5.949760941804786
 42
0.0634690412107267
 10
9.548586169967956
 20
5.981603775396425
 42
0.0765137470862059
 10
9.538044255921188
 20
6.006108513430585
 42
0.1071386913803463
 10
9.520492362257686
 20
6.02412060011699
 42
0.1472695824370325
 10
9.502795939095146
 20
6.029448441804784
 42
0.1472695824370333
  0
LINE
  5
41A
330
2
100
AcDbEntity
  8
0
100
AcDbLine
 10
9.502795939095146
 20
3.374909580492246
 30
0.0
 11
9.502795939095146
 21
3.65158458049225
 31
0.0
  0
LWPOLYLINE
  5
41B
330
2
100
AcDbEntity
  8
0
100
AcDbPolyline
 90
        9
 70
     0
 43
0.0
 10
9.502795939095146
 20
3.404234580492246
 42
0.1432467981947568
 10
9.528020589950602
 20
3.411612677363496
 42
0.1071754848060475
 10
9.552706755921188
 20
3.436163602508148
 42
0.0783035184710328
 10
9.567653423543549
 20
3.469784856858946
 42
0.0656020556757086
 10
9.573380493159656
 20
3.513247080492252
 42
0.0656020556757101
 10
9.567653423543549
 20
3.55670930412555
 42
0.0783035184710357
 10
9.552706755921188
 20
3.590330558476349
 42
0.1071754848060445
 10
9.528020589950602
 20
3.614881483621001
 42
0.1432467981947535
 10
9.502795939095146
 20
3.62225958049225
 42
0.1432467981947515
  0
LWPOLYLINE
  5
41C
330
2
100
AcDbEntity
  8
0
100
AcDbPolyline
 90
        9
 70
     0
 43
0.0
 10
9.502795939095146
 20
3.374909580492246
 42
0.0700628980345364
 10
9.581914742895188
 20
3.386050856261117
 42
0.0818514225363451
 10
9.643811061021632
 20
3.415427696149851
 42
0.1069100077216601
 10
9.688409212087132
 20
3.463174608904882
 42
0.135394011665182
 10
9.702221437023278
 20
3.513247080492245
 42
0.1353940116651818
 10
9.688409212087132
 20
3.563319552079615
 42
0.1069100077216599
 10
9.643811061021632
 20
3.611066464834638
 42
0.0818514225363446
 10
9.581914742895188
 20
3.640443304723379
 42
0.0700628980345367
 10
9.502795939095146
 20
3.65158458049225
 42
0.0700628980345371
  0
LWPOLYLINE
  5
41D
330
2
100
AcDbEntity
  8
0
100
AcDbPolyline
 90
        9
 70
     0
 43
0.0
 10
9.502795939095146
 20
3.433559580492246
 42
0.147269582437036
 10
9.520492362257686
 20
3.438887422180041
 42
0.1071386913803464
 10
9.538044255921188
 20
3.456899508866445
 42
0.0765137470862007
 10
9.548586169967956
 20
3.481404246900605
 42
0.063469041210727
 10
9.552644586801359
 20
3.513247080492252
 42
0.0634690412107267
 10
9.548586169967956
 20
3.545089914083891
 42
0.0765137470862059
 10
9.538044255921188
 20
3.569594652118052
 42
0.1071386913803463
 10
9.520492362257686
 20
3.587606738804456
 42
0.1472695824370325
 10
9.502795939095146
 20
3.59293458049225
 42
0.1472695824370333
  0
LINE
  5
41E
330
2
100
AcDbEntity
  8
0
100
AcDbLine
 10
9.502795939095146
 20
2.237062994434698
 30
0.0
 11
9.502795939095146
 21
2.513737994434703
 31
0.0
  0
LWPOLYLINE
  5
41F
330
2
100
AcDbEntity
  8
0
100
AcDbPolyline
 90
        9
 70
     0
 43
0.0
 10
9.502795939095146
 20
2.266387994434698
 42
0.1432467981947568
 10
9.528020589950602
 20
2.273766091305948
 42
0.1071754848060475
 10
9.552706755921188
 20
2.2983170164506
 42
0.0783035184710328
 10
9.567653423543549
 20
2.331938270801398
 42
0.0656020556757086
 10
9.573380493159656
 20
2.375400494434704
 42
0.0656020556757101
 10
9.567653423543549
 20
2.418862718068002
 42
0.0783035184710357
 10
9.552706755921188
 20
2.452483972418801
 42
0.1071754848060445
 10
9.528020589950602
 20
2.477034897563453
 42
0.1432467981947535
 10
9.502795939095146
 20
2.484412994434702
 42
0.1432467981947515
  0
LWPOLYLINE
  5
420
330
2
100
AcDbEntity
  8
0
100
AcDbPolyline
 90
        9
 70
     0
 43
0.0
 10
9.502795939095146
 20
2.237062994434698
 42
0.0700628980345364
 10
9.581914742895188
 20
2.248204270203569
 42
0.0818514225363451
 10
9.643811061021632
 20
2.277581110092303
 42
0.1069100077216601
 10
9.688409212087132
 20
2.325328022847334
 42
0.135394011665182
 10
9.702221437023278
 20
2.375400494434697
 42
0.1353940116651818
 10
9.688409212087132
 20
2.425472966022067
 42
0.1069100077216599
 10
9.643811061021632
 20
2.473219878777091
 42
0.0818514225363446
 10
9.581914742895188
 20
2.502596718665831
 42
0.0700628980345367
 10
9.502795939095146
 20
2.513737994434703
 42
0.0700628980345371
  0
LWPOLYLINE
  5
421
330
2
100
AcDbEntity
  8
0
100
AcDbPolyline
 90
        9
 70
     0
 43
0.0
 10
9.502795939095146
 20
2.295712994434698
 42
0.147269582437036
 10
9.520492362257686
 20
2.301040836122493
 42
0.1071386913803464
 10
9.538044255921188
 20
2.319052922808897
 42
0.0765137470862007
 10
9.548586169967956
 20
2.343557660843057
 42
0.063469041210727
 10
9.552644586801359
 20
2.375400494434704
 42
0.0634690412107267
 10
9.548586169967956
 20
2.407243328026343
 42
0.0765137470862059
 10
9.538044255921188
 20
2.431748066060504
 42
0.1071386913803463
 10
9.520492362257686
 20
2.449760152746908
 42
0.1472695824370325
 10
9.502795939095146
 20
2.455087994434702
 42
0.1472695824370333
  0
LINE
  5
422
330
2
100
AcDbEntity
  8
0
100
AcDbLine
 10
9.502795939095146
 20
0.4934071922425467
 30
0.0
 11
9.502795939095146
 21
0.7700821922425511
 31
0.0
  0
LWPOLYLINE
  5
423
330
2
100
AcDbEntity
  8
0
100
AcDbPolyline
 90
        9
 70
     0
 43
0.0
 10
9.502795939095146
 20
0.5227321922425467
 42
0.1432467981947568
 10
9.528020589950602
 20
0.5301102891137965
 42
0.1071754848060475
 10
9.552706755921188
 20
0.5546612142584486
 42
0.0783035184710328
 10
9.567653423543549
 20
0.5882824686092469
 42
0.0656020556757086
 10
9.573380493159656
 20
0.6317446922425525
 42
0.0656020556757101
 10
9.567653423543549
 20
0.6752069158758509
 42
0.0783035184710357
 10
9.552706755921188
 20
0.7088281702266492
 42
0.1071754848060445
 10
9.528020589950602
 20
0.7333790953713013
 42
0.1432467981947535
 10
9.502795939095146
 20
0.7407571922425511
 42
0.1432467981947515
  0
LWPOLYLINE
  5
424
330
2
100
AcDbEntity
  8
0
100
AcDbPolyline
 90
        9
 70
     0
 43
0.0
 10
9.502795939095146
 20
0.4934071922425467
 42
0.0700628980345364
 10
9.581914742895188
 20
0.5045484680114178
 42
0.0818514225363451
 10
9.643811061021632
 20
0.5339253079001516
 42
0.1069100077216601
 10
9.688409212087132
 20
0.5816722206551823
 42
0.135394011665182
 10
9.702221437023278
 20
0.6317446922425454
 42
0.1353940116651818
 10
9.688409212087132
 20
0.6818171638299155
 42
0.1069100077216599
 10
9.643811061021632
 20
0.7295640765849392
 42
0.0818514225363446
 10
9.581914742895188
 20
0.75894091647368
 42
0.0700628980345367
 10
9.502795939095146
 20
0.7700821922425511
 42
0.0700628980345371
  0
LWPOLYLINE
  5
425
330
2
100
AcDbEntity
  8
0
100
AcDbPolyline
 90
        9
 70
     0
 43
0.0
 10
9.502795939095146
 20
0.5520571922425468
 42
0.147269582437036
 10
9.520492362257686
 20
0.5573850339303412
 42
0.1071386913803464
 10
9.538044255921188
 20
0.5753971206167456
 42
0.0765137470862007
 10
9.548586169967956
 20
0.599901858650906
 42
0.063469041210727
 10
9.552644586801359
 20
0.6317446922425525
 42
0.0634690412107267
 10
9.548586169967956
 20
0.6635875258341919
 42
0.0765137470862059
 10
9.538044255921188
 20
0.6880922638683522
 42
0.1071386913803463
 10
9.520492362257686
 20
0.7061043505547566
 42
0.1472695824370325
 10
9.502795939095146
 20
0.7114321922425511
 42
0.1472695824370333
  0
ARC
  5
426
330
2
100
AcDbEntity
  8
0
100
AcDbCircle
 10
-9.396818626592008
 20
4.234714316435048
 30
0.0
 40
0.15625
100
AcDbArc
 50
0.000000000000007
 51
90.0
  0
LINE
  5
427
330
2
100
AcDbEntity
  8
0
100
AcDbLine
 10
-10.55306862659201
 20
9.078464316435049
 30
0.0
 11
-10.55306862659201
 21
0.1809803148918583
 31
0.0
  0
LINE
  5
428
330
2
100
AcDbEntity
  8
0
100
AcDbLine
 10
-10.61556862659201
 20
9.078464316435049
 30
0.0
 11
-10.61556862659201
 21
0.1809803148918583
 31
0.0
  0
LINE
  5
429
330
2
100
AcDbEntity
  8
0
  6
HIDDEN
100
AcDbLine
 10
-7.475349312780228
 20
0.0624999999999964
 30
0.0
 11
-10.4753493127802
 21
0.0624999999999964
 31
0.0
  0
LINE
  5
42A
330
2
100
AcDbEntity
  8
0
100
AcDbLine
 10
-7.475349312780228
 20
-0.0000000000000036
 30
0.0
 11
-10.4753493127802
 21
-0.0000000000000036
 31
0.0
  0
LINE
  5
42B
330
2
100
AcDbEntity
  8
0
100
AcDbLine
 10
-8.935163140291573
 20
1.517650737365091
 30
0.0
 11
-7.580771369742225
 21
0.2099621313174431
 31
0.0
  0
ARC
  5
42C
330
2
100
AcDbEntity
  8
0
100
AcDbCircle
 10
-7.928068626592008
 20
-0.1497385989912594
 30
0.0
 40
0.5
100
AcDbArc
 50
25.117576237823
 51
46.00508600525413
  0
LINE
  5
42D
330
2
100
AcDbEntity
  8
0
100
AcDbLine
 10
-7.475349312780228
 20
0.0624999999999964
 30
0.0
 11
-7.475349312780228
 21
-0.0000000000000036
 31
0.0
  0
ARC
  5
42E
330
2
100
AcDbEntity
  8
0
100
AcDbCircle
 10
-10.92806862659201
 20
-0.1497385989912594
 30
0.0
 40
0.5
100
AcDbArc
 50
25.11757623782325
 51
41.40962210927812
  0
LINE
  5
42F
330
2
100
AcDbEntity
  8
0
100
AcDbLine
 10
-10.4753493127802
 20
0.0624999999999964
 30
0.0
 11
-10.4753493127802
 21
-0.0000000000000036
 31
0.0
  0
LINE
  5
430
330
2
100
AcDbEntity
  8
0
100
AcDbLine
 10
-10.61556862659201
 20
0.1809803148918583
 30
0.0
 11
-10.55306862659201
 21
0.1809803148918583
 31
0.0
  0
LWPOLYLINE
  5
431
330
2
100
AcDbEntity
  8
0
100
AcDbPolyline
 90
        9
 70
     0
 43
0.0
 10
-9.502795939095146
 20
0.6988023028471222
 42
-0.147269582437036
 10
-9.520492362257686
 20
0.7041301445349166
 42
-0.1071386913803464
 10
-9.538044255921188
 20
0.722142231221321
 42
-0.0765137470862007
 10
-9.548586169967956
 20
0.7466469692554814
 42
-0.063469041210727
 10
-9.552644586801359
 20
0.7784898028471279
 42
-0.0634690412107267
 10
-9.548586169967956
 20
0.8103326364387673
 42
-0.0765137470862059
 10
-9.538044255921188
 20
0.8348373744729276
 42
-0.1071386913803463
 10
-9.520492362257686
 20
0.852849461159332
 42
-0.1472695824370325
 10
-9.502795939095146
 20
0.8581773028471265
 42
-0.1472695824370333
  0
LWPOLYLINE
  5
432
330
2
100
AcDbEntity
  8
0
100
AcDbPolyline
 90
        9
 70
     0
 43
0.0
 10
-9.502795939095146
 20
0.6401523028471221
 42
-0.0700628980345364
 10
-9.581914742895188
 20
0.6512935786159932
 42
-0.0818514225363451
 10
-9.643811061021632
 20
0.680670418504727
 42
-0.1069100077216601
 10
-9.688409212087132
 20
0.7284173312597577
 42
-0.135394011665182
 10
-9.702221437023278
 20
0.7784898028471208
 42
-0.1353940116651818
 10
-9.688409212087132
 20
0.8285622744344909
 42
-0.1069100077216599
 10
-9.643811061021632
 20
0.8763091871895146
 42
-0.0818514225363446
 10
-9.581914742895188
 20
0.9056860270782554
 42
-0.0700628980345367
 10
-9.502795939095146
 20
0.9168273028471266
 42
-0.0700628980345371
  0
LWPOLYLINE
  5
433
330
2
100
AcDbEntity
  8
0
100
AcDbPolyline
 90
        9
 70
     0
 43
0.0
 10
-9.502795939095146
 20
0.6694773028471222
 42
-0.1432467981947568
 10
-9.528020589950602
 20
0.6768553997183719
 42
-0.1071754848060475
 10
-9.552706755921188
 20
0.701406324863024
 42
-0.0783035184710328
 10
-9.567653423543549
 20
0.7350275792138223
 42
-0.0656020556757086
 10
-9.573380493159656
 20
0.7784898028471279
 42
-0.0656020556757101
 10
-9.567653423543549
 20
0.8219520264804263
 42
-0.0783035184710357
 10
-9.552706755921188
 20
0.8555732808312246
 42
-0.1071754848060445
 10
-9.528020589950602
 20
0.8801242059758767
 42
-0.1432467981947535
 10
-9.502795939095146
 20
0.8875023028471265
 42
-0.1432467981947515
  0
LINE
  5
434
330
2
100
AcDbEntity
  8
0
100
AcDbLine
 10
-9.502795939095146
 20
0.6401523028471221
 30
0.0
 11
-9.502795939095146
 21
0.9168273028471266
 31
0.0
  0
LINE
  5
435
330
2
100
AcDbEntity
  8
0
100
AcDbLine
 10
-9.240568626592006
 20
2.237052197982504
 30
0.0
 11
-9.240568626592008
 21
4.234714316435049
 31
0.0
  0
ARC
  5
436
330
2
100
AcDbEntity
  8
0
100
AcDbCircle
 10
-10.55306862659201
 20
1.937499999999996
 30
0.0
 40
0.1875000000000025
100
AcDbArc
 50
270.0
 51
90.0
  0
ARC
  5
437
330
2
100
AcDbEntity
  8
0
100
AcDbCircle
 10
-8.240568626592006
 20
2.237052197982504
 30
0.0
 40
1.0
100
AcDbArc
 50
180.0
 51
226.0050860052542
  0
LWPOLYLINE
  5
438
330
2
100
AcDbEntity
  8
0
100
AcDbPolyline
 90
        9
 70
     0
 43
0.0
 10
-9.502795939095146
 20
2.442458105039274
 42
-0.147269582437036
 10
-9.520492362257686
 20
2.447785946727068
 42
-0.1071386913803464
 10
-9.538044255921188
 20
2.465798033413472
 42
-0.0765137470862007
 10
-9.548586169967956
 20
2.490302771447633
 42
-0.063469041210727
 10
-9.552644586801359
 20
2.522145605039279
 42
-0.0634690412107267
 10
-9.548586169967956
 20
2.553988438630919
 42
-0.0765137470862059
 10
-9.538044255921188
 20
2.578493176665079
 42
-0.1071386913803463
 10
-9.520492362257686
 20
2.596505263351483
 42
-0.1472695824370325
 10
-9.502795939095146
 20
2.601833105039278
 42
-0.1472695824370333
  0
LWPOLYLINE
  5
439
330
2
100
AcDbEntity
  8
0
100
AcDbPolyline
 90
        9
 70
     0
 43
0.0
 10
-9.502795939095146
 20
2.383808105039273
 42
-0.0700628980345364
 10
-9.581914742895188
 20
2.394949380808145
 42
-0.0818514225363451
 10
-9.643811061021632
 20
2.424326220696878
 42
-0.1069100077216601
 10
-9.688409212087132
 20
2.472073133451909
 42
-0.135394011665182
 10
-9.702221437023278
 20
2.522145605039272
 42
-0.1353940116651818
 10
-9.688409212087132
 20
2.572218076626642
 42
-0.1069100077216599
 10
-9.643811061021632
 20
2.619964989381666
 42
-0.0818514225363446
 10
-9.581914742895188
 20
2.649341829270407
 42
-0.0700628980345367
 10
-9.502795939095146
 20
2.660483105039278
 42
-0.0700628980345371
  0
LWPOLYLINE
  5
43A
330
2
100
AcDbEntity
  8
0
100
AcDbPolyline
 90
        9
 70
     0
 43
0.0
 10
-9.502795939095146
 20
2.413133105039274
 42
-0.1432467981947568
 10
-9.528020589950602
 20
2.420511201910523
 42
-0.1071754848060475
 10
-9.552706755921188
 20
2.445062127055175
 42
-0.0783035184710328
 10
-9.567653423543549
 20
2.478683381405974
 42
-0.0656020556757086
 10
-9.573380493159656
 20
2.522145605039279
 42
-0.0656020556757101
 10
-9.567653423543549
 20
2.565607828672578
 42
-0.0783035184710357
 10
-9.552706755921188
 20
2.599229083023376
 42
-0.1071754848060445
 10
-9.528020589950602
 20
2.623780008168028
 42
-0.1432467981947535
 10
-9.502795939095146
 20
2.631158105039278
 42
-0.1432467981947515
  0
LINE
  5
43B
330
2
100
AcDbEntity
  8
0
100
AcDbLine
 10
-9.502795939095146
 20
2.383808105039273
 30
0.0
 11
-9.502795939095146
 21
2.660483105039278
 31
0.0
  0
LWPOLYLINE
  5
43C
330
2
100
AcDbEntity
  8
0
100
AcDbPolyline
 90
        9
 70
     0
 43
0.0
 10
-9.502795939095146
 20
3.580304691096822
 42
-0.147269582437036
 10
-9.520492362257686
 20
3.585632532784616
 42
-0.1071386913803464
 10
-9.538044255921188
 20
3.60364461947102
 42
-0.0765137470862007
 10
-9.548586169967956
 20
3.628149357505181
 42
-0.063469041210727
 10
-9.552644586801359
 20
3.659992191096827
 42
-0.0634690412107267
 10
-9.548586169967956
 20
3.691835024688467
 42
-0.0765137470862059
 10
-9.538044255921188
 20
3.716339762722627
 42
-0.1071386913803463
 10
-9.520492362257686
 20
3.734351849409031
 42
-0.1472695824370325
 10
-9.502795939095146
 20
3.739679691096826
 42
-0.1472695824370333
  0
LWPOLYLINE
  5
43D
330
2
100
AcDbEntity
  8
0
100
AcDbPolyline
 90
        9
 70
     0
 43
0.0
 10
-9.502795939095146
 20
3.521654691096821
 42
-0.0700628980345364
 10
-9.581914742895188
 20
3.532795966865693
 42
-0.0818514225363451
 10
-9.643811061021632
 20
3.562172806754426
 42
-0.1069100077216601
 10
-9.688409212087132
 20
3.609919719509457
 42
-0.135394011665182
 10
-9.702221437023278
 20
3.65999219109682
 42
-0.1353940116651818
 10
-9.688409212087132
 20
3.71006466268419
 42
-0.1069100077216599
 10
-9.643811061021632
 20
3.757811575439214
 42
-0.0818514225363446
 10
-9.581914742895188
 20
3.787188415327955
 42
-0.0700628980345367
 10
-9.502795939095146
 20
3.798329691096826
 42
-0.0700628980345371
  0
LWPOLYLINE
  5
43E
330
2
100
AcDbEntity
  8
0
100
AcDbPolyline
 90
        9
 70
     0
 43
0.0
 10
-9.502795939095146
 20
3.550979691096821
 42
-0.1432467981947568
 10
-9.528020589950602
 20
3.558357787968071
 42
-0.1071754848060475
 10
-9.552706755921188
 20
3.582908713112723
 42
-0.0783035184710328
 10
-9.567653423543549
 20
3.616529967463522
 42
-0.0656020556757086
 10
-9.573380493159656
 20
3.659992191096827
 42
-0.0656020556757101
 10
-9.567653423543549
 20
3.703454414730126
 42
-0.0783035184710357
 10
-9.552706755921188
 20
3.737075669080924
 42
-0.1071754848060445
 10
-9.528020589950602
 20
3.761626594225576
 42
-0.1432467981947535
 10
-9.502795939095146
 20
3.769004691096826
 42
-0.1432467981947515
  0
LINE
  5
43F
330
2
100
AcDbEntity
  8
0
100
AcDbLine
 10
-9.502795939095146
 20
3.521654691096821
 30
0.0
 11
-9.502795939095146
 21
3.798329691096826
 31
0.0
  0
ARC
  5
440
330
2
100
AcDbEntity
  8
0
100
AcDbCircle
 10
-9.396818626592008
 20
7.172214316435048
 30
0.0
 40
0.15625
100
AcDbArc
 50
90.0
 51
180.0
  0
LINE
  5
441
330
2
100
AcDbEntity
  8
0
100
AcDbLine
 10
-9.240568626592008
 20
5.609714316435049
 30
0.0
 11
-9.240568626592008
 21
6.109714316435049
 31
0.0
  0
LINE
  5
442
330
2
100
AcDbEntity
  8
0
100
AcDbLine
 10
-9.553068626592008
 20
4.547214316435049
 30
0.0
 11
-9.553068626592008
 21
5.297214316435049
 31
0.0
  0
ARC
  5
443
330
2
100
AcDbEntity
  8
0
100
AcDbCircle
 10
-9.396818626592008
 20
4.547214316435048
 30
0.0
 40
0.15625
100
AcDbArc
 50
180.0
 51
270.0
  0
LINE
  5
444
330
2
100
AcDbEntity
  8
0
100
AcDbLine
 10
-9.396818626592008
 20
4.390964316435049
 30
0.0
 11
-9.396818626592008
 21
4.390964316435049
 31
0.0
  0
ARC
  5
445
330
2
100
AcDbEntity
  8
0
100
AcDbCircle
 10
-9.396818626592008
 20
5.297214316435048
 30
0.0
 40
0.15625
100
AcDbArc
 50
90.0
 51
180.0
  0
ARC
  5
446
330
2
100
AcDbEntity
  8
0
100
AcDbCircle
 10
-9.396818626592008
 20
5.609714316435048
 30
0.0
 40
0.15625
100
AcDbArc
 50
270.0
 51
0.000000000000007
  0
LINE
  5
447
330
2
100
AcDbEntity
  8
0
100
AcDbLine
 10
-9.396818626592008
 20
5.453464316435049
 30
0.0
 11
-9.396818626592008
 21
5.453464316435049
 31
0.0
  0
LINE
  5
448
330
2
100
AcDbEntity
  8
0
100
AcDbLine
 10
-9.553068626592008
 20
6.422214316435049
 30
0.0
 11
-9.553068626592008
 21
7.172214316435049
 31
0.0
  0
ARC
  5
449
330
2
100
AcDbEntity
  8
0
100
AcDbCircle
 10
-9.396818626592008
 20
6.109714316435048
 30
0.0
 40
0.15625
100
AcDbArc
 50
0.000000000000007
 51
90.0
  0
LWPOLYLINE
  5
44A
330
2
100
AcDbEntity
  8
0
100
AcDbPolyline
 90
        9
 70
     0
 43
0.0
 10
-9.502795939095146
 20
6.016818552409355
 42
-0.147269582437036
 10
-9.520492362257686
 20
6.02214639409715
 42
-0.1071386913803464
 10
-9.538044255921188
 20
6.040158480783554
 42
-0.0765137470862007
 10
-9.548586169967956
 20
6.064663218817715
 42
-0.063469041210727
 10
-9.552644586801359
 20
6.096506052409361
 42
-0.0634690412107267
 10
-9.548586169967956
 20
6.128348886001001
 42
-0.0765137470862059
 10
-9.538044255921188
 20
6.152853624035161
 42
-0.1071386913803463
 10
-9.520492362257686
 20
6.170865710721565
 42
-0.1472695824370325
 10
-9.502795939095146
 20
6.17619355240936
 42
-0.1472695824370333
  0
LWPOLYLINE
  5
44B
330
2
100
AcDbEntity
  8
0
100
AcDbPolyline
 90
        9
 70
     0
 43
0.0
 10
-9.502795939095146
 20
5.958168552409355
 42
-0.0700628980345364
 10
-9.581914742895188
 20
5.969309828178226
 42
-0.0818514225363451
 10
-9.643811061021632
 20
5.99868666806696
 42
-0.1069100077216601
 10
-9.688409212087132
 20
6.046433580821991
 42
-0.135394011665182
 10
-9.702221437023278
 20
6.096506052409354
 42
-0.1353940116651818
 10
-9.688409212087132
 20
6.146578523996724
 42
-0.1069100077216599
 10
-9.643811061021632
 20
6.194325436751748
 42
-0.0818514225363446
 10
-9.581914742895188
 20
6.223702276640489
 42
-0.0700628980345367
 10
-9.502795939095146
 20
6.23484355240936
 42
-0.0700628980345371
  0
LWPOLYLINE
  5
44C
330
2
100
AcDbEntity
  8
0
100
AcDbPolyline
 90
        9
 70
     0
 43
0.0
 10
-9.502795939095146
 20
5.987493552409355
 42
-0.1432467981947568
 10
-9.528020589950602
 20
5.994871649280605
 42
-0.1071754848060475
 10
-9.552706755921188
 20
6.019422574425257
 42
-0.0783035184710328
 10
-9.567653423543549
 20
6.053043828776056
 42
-0.0656020556757086
 10
-9.573380493159656
 20
6.096506052409361
 42
-0.0656020556757101
 10
-9.567653423543549
 20
6.13996827604266
 42
-0.0783035184710357
 10
-9.552706755921188
 20
6.173589530393458
 42
-0.1071754848060445
 10
-9.528020589950602
 20
6.19814045553811
 42
-0.1432467981947535
 10
-9.502795939095146
 20
6.20551855240936
 42
-0.1432467981947515
  0
LINE
  5
44D
330
2
100
AcDbEntity
  8
0
100
AcDbLine
 10
-9.502795939095146
 20
5.958168552409355
 30
0.0
 11
-9.502795939095146
 21
6.23484355240936
 31
0.0
  0
ARC
  5
44E
330
2
100
AcDbEntity
  8
0
100
AcDbCircle
 10
-9.396818626592008
 20
6.422214316435048
 30
0.0
 40
0.15625
100
AcDbArc
 50
180.0
 51
270.0
  0
LINE
  5
44F
330
2
100
AcDbEntity
  8
0
100
AcDbLine
 10
-9.396818626592008
 20
6.265964316435049
 30
0.0
 11
-9.396818626592008
 21
6.265964316435049
 31
0.0
  0
LINE
  5
450
330
2
100
AcDbEntity
  8
0
100
AcDbLine
 10
-9.553068626592008
 20
8.422214316435049
 30
0.0
 11
-9.55306862659201
 21
9.078464316435049
 31
0.0
  0
LINE
  5
451
330
2
100
AcDbEntity
  8
0
100
AcDbLine
 10
-9.240568626592008
 20
7.484714316435049
 30
0.0
 11
-9.240568626592008
 21
8.109714316435049
 31
0.0
  0
ARC
  5
452
330
2
100
AcDbEntity
  8
0
100
AcDbCircle
 10
-9.396818626592008
 20
7.484714316435048
 30
0.0
 40
0.15625
100
AcDbArc
 50
270.0
 51
0.000000000000007
  0
LINE
  5
453
330
2
100
AcDbEntity
  8
0
100
AcDbLine
 10
-9.396818626592008
 20
7.328464316435049
 30
0.0
 11
-9.396818626592008
 21
7.328464316435049
 31
0.0
  0
LWPOLYLINE
  5
454
330
2
100
AcDbEntity
  8
0
100
AcDbPolyline
 90
        9
 70
     0
 43
0.0
 10
-9.502795939095146
 20
7.886759226840732
 42
-0.147269582437036
 10
-9.520492362257686
 20
7.892087068528526
 42
-0.1071386913803464
 10
-9.538044255921188
 20
7.910099155214931
 42
-0.0765137470862007
 10
-9.548586169967956
 20
7.93460389324909
 42
-0.063469041210727
 10
-9.552644586801359
 20
7.966446726840736
 42
-0.0634690412107267
 10
-9.548586169967956
 20
7.998289560432376
 42
-0.0765137470862059
 10
-9.538044255921188
 20
8.022794298466536
 42
-0.1071386913803463
 10
-9.520492362257686
 20
8.040806385152942
 42
-0.1472695824370325
 10
-9.502795939095146
 20
8.046134226840737
 42
-0.1472695824370333
  0
LWPOLYLINE
  5
455
330
2
100
AcDbEntity
  8
0
100
AcDbPolyline
 90
        9
 70
     0
 43
0.0
 10
-9.502795939095146
 20
7.828109226840732
 42
-0.0700628980345364
 10
-9.581914742895188
 20
7.839250502609603
 42
-0.0818514225363451
 10
-9.643811061021632
 20
7.868627342498336
 42
-0.1069100077216601
 10
-9.688409212087132
 20
7.916374255253367
 42
-0.135394011665182
 10
-9.702221437023278
 20
7.966446726840729
 42
-0.1353940116651818
 10
-9.688409212087132
 20
8.0165191984281
 42
-0.1069100077216599
 10
-9.643811061021632
 20
8.064266111183125
 42
-0.0818514225363446
 10
-9.581914742895188
 20
8.093642951071866
 42
-0.0700628980345367
 10
-9.502795939095146
 20
8.104784226840737
 42
-0.0700628980345371
  0
LWPOLYLINE
  5
456
330
2
100
AcDbEntity
  8
0
100
AcDbPolyline
 90
        9
 70
     0
 43
0.0
 10
-9.502795939095146
 20
7.857434226840732
 42
-0.1432467981947568
 10
-9.528020589950602
 20
7.864812323711981
 42
-0.1071754848060475
 10
-9.552706755921188
 20
7.889363248856633
 42
-0.0783035184710328
 10
-9.567653423543549
 20
7.922984503207431
 42
-0.0656020556757086
 10
-9.573380493159656
 20
7.966446726840736
 42
-0.0656020556757101
 10
-9.567653423543549
 20
8.009908950474035
 42
-0.0783035184710357
 10
-9.552706755921188
 20
8.043530204824835
 42
-0.1071754848060445
 10
-9.528020589950602
 20
8.068081129969487
 42
-0.1432467981947535
 10
-9.502795939095146
 20
8.075459226840737
 42
-0.1432467981947515
  0
LINE
  5
457
330
2
100
AcDbEntity
  8
0
100
AcDbLine
 10
-9.502795939095146
 20
7.828109226840732
 30
0.0
 11
-9.502795939095146
 21
8.104784226840737
 31
0.0
  0
ARC
  5
458
330
2
100
AcDbEntity
  8
0
100
AcDbCircle
 10
-9.396818626592008
 20
8.422214316435049
 30
0.0
 40
0.15625
100
AcDbArc
 50
180.0
 51
270.0
  0
ARC
  5
459
330
2
100
AcDbEntity
  8
0
100
AcDbCircle
 10
-9.396818626592008
 20
8.109714316435049
 30
0.0
 40
0.15625
100
AcDbArc
 50
0.000000000000007
 51
90.0
  0
LINE
  5
45B
330
2
100
AcDbEntity
  8
0
100
AcDbLine
 10
-10.61556862659201
 20
9.078464316435049
 30
0.0
 11
-9.553068626592008
 21
9.078464316435049
 31
0.0
  0
LINE
  5
47A
330
2
100
AcDbEntity
  8
0
100
AcDbLine
 10
-0.8124999999999433
 20
16.5747556464135
 30
0.0
 11
-0.8124999999999195
 21
13.57475564641349
 31
0.0
  0
LINE
  5
47B
330
2
100
AcDbEntity
  8
0
100
AcDbLine
 10
0.8125000000000496
 20
16.5747556464135
 30
0.0
 11
0.8125000000000517
 21
13.5747556464135
 31
0.0
  0
ENDSEC
  0
SECTION
  2
OBJECTS
  0
DICTIONARY
  5
9
330
0
100
AcDbDictionary
281
     1
  3
ACAD_COLOR
350
463
  3
ACAD_GROUP
350
23
  3
ACAD_LAYOUT
350
D
  3
ACAD_MATERIAL
350
462
  3
ACAD_MLINESTYLE
350
24
  3
ACAD_PLOTSETTINGS
350
25
  3
ACAD_PLOTSTYLENAME
350
8
  3
ACAD_TABLESTYLE
350
464
  3
ACDBHEADERROUNDTRIPXREC
350
495
  3
AcDbVariableDictionary
350
1B6
  0
DICTIONARY
  5
463
102
{ACAD_REACTORS
330
9
102
}
330
9
100
AcDbDictionary
281
     1
  0
DICTIONARY
  5
23
102
{ACAD_REACTORS
330
9
102
}
330
9
100
AcDbDictionary
281
     1
  0
DICTIONARY
  5
D
102
{ACAD_REACTORS
330
9
102
}
330
9
100
AcDbDictionary
281
     1
  3
Layout1
350
13
  3
Model
350
C
  0
DICTIONARY
  5
462
102
{ACAD_REACTORS
330
9
102
}
330
9
100
AcDbDictionary
281
     1
  0
DICTIONARY
  5
24
102
{ACAD_REACTORS
330
9
102
}
330
9
100
AcDbDictionary
281
     1
  3
Standard
350
26
  0
DICTIONARY
  5
25
102
{ACAD_REACTORS
330
9
102
}
330
9
100
AcDbDictionary
281
     1
  0
ACDBDICTIONARYWDFLT
  5
8
102
{ACAD_REACTORS
330
9
102
}
330
9
100
AcDbDictionary
281
     1
  3
Normal
350
7
100
AcDbDictionaryWithDefault
340
7
  0
DICTIONARY
  5
464
102
{ACAD_REACTORS
330
9
102
}
330
9
100
AcDbDictionary
281
     1
  3
Standard
350
465
  0
DICTIONARY
  5
495
102
{ACAD_REACTORS
330
9
102
}
330
9
100
AcDbDictionary
281
     1
  3
COLORDICT
350
496
  3
MATERIALDICT
350
497
  0
DICTIONARY
  5
1B6
102
{ACAD_REACTORS
330
9
102
}
330
9
100
AcDbDictionary
281
     1
  3
CTABLESTYLE
350
492
  3
HIDETEXT
350
494
  0
LAYOUT
  5
13
102
{ACAD_REACTORS
330
D
102
}
102
{ACAD_XDICTIONARY
360
498
102
}
330
D
100
AcDbPlotSettings
  1

  2

  4

  6

 40
0.0
 41
0.0
 42
0.0
 43
0.0
 44
0.0
 45
0.0
 46
0.0
 47
0.0
 48
0.0
 49
0.0
140
0.0
141
0.0
142
1.0
143
1.0
 70
   688
 72
     0
 73
     0
 74
     5
  7

 75
    16
147
1.0
148
0.0
149
0.0
100
AcDbLayout
  1
Layout1
 70
     1
 71
     1
 10
0.0
 20
0.0
 11
12.0
 21
9.0
 12
0.0
 22
0.0
 32
0.0
 14
1.000000000000000E+20
 24
1.000000000000000E+20
 34
1.000000000000000E+20
 15
-1.000000000000000E+20
 25
-1.000000000000000E+20
 35
-1.000000000000000E+20
146
0.0
 13
0.0
 23
0.0
 33
0.0
 16
1.0
 26
0.0
 36
0.0
 17
0.0
 27
1.0
 37
0.0
 76
     0
330
E
  0
LAYOUT
  5
C
102
{ACAD_REACTORS
330
D
102
}
102
{ACAD_XDICTIONARY
360
49A
102
}
330
D
100
AcDbPlotSettings
  1

  2

  4

  6

 40
0.0
 41
0.0
 42
0.0
 43
0.0
 44
0.0
 45
0.0
 46
0.0
 47
0.0
 48
0.0
 49
0.0
140
0.0
141
0.0
142
1.0
143
1.0
 70
  1712
 72
     0
 73
     0
 74
     0
  7

 75
     0
147
1.0
148
0.0
149
0.0
100
AcDbLayout
  1
Model
 70
     1
 71
     0
 10
0.0
 20
0.0
 11
12.0
 21
9.0
 12
0.0
 22
0.0
 32
0.0
 14
0.0
 24
0.0
 34
0.0
 15
0.0
 25
0.0
 35
0.0
146
0.0
 13
0.0
 23
0.0
 33
0.0
 16
1.0
 26
0.0
 36
0.0
 17
0.0
 27
1.0
 37
0.0
 76
     0
330
2
  0
MLINESTYLE
  5
26
102
{ACAD_REACTORS
330
24
102
}
330
24
100
AcDbMlineStyle
  2
STANDARD
 70
     0
  3

 62
   256
 51
90.0
 52
90.0
 71
     2
 49
0.5
 62
   256
  6
BYLAYER
 49
-0.5
 62
   256
  6
BYLAYER
  0
ACDBPLACEHOLDER
  5
7
102
{ACAD_REACTORS
330
8
102
}
330
8
  0
ACAD_PROXY_OBJECT
  5
465
102
{ACAD_REACTORS
330
464
102
}
330
464
100
AcDbProxyObject
 90
      499
 91
      508
 95
   983063
 70
     0
 93
     1841
310
4214DD185B99185C9928B81E85EB51B8AE3F2E07A17AD46E2B8FC02B5E8DC0F42B1CFD028000000C1008070000C3001FDFF8000000C1003FBFF000000182007F7FE00000030400FEFFC00000060801FDFF8000000C1003FBFF00000018200000000000000681FA0B0000001820100E000186003FBFF000000182007F7FE000
310
00030400FEFFC00000060801FDFF8000000C1003FBFF000000182007F7FE000000304000AD7A3703D0AC73F4160000003040201C00030C007F7FE00000030400FEFFC00000060801FDFF8000000C1003FBFF000000182007F7FE00000030400FEFFC000000608000
340
16
340
16
340
16
 94
        0
  0
XRECORD
  5
496
102
{ACAD_REACTORS
330
495
102
}
330
495
100
AcDbXrecord
340
463
  0
XRECORD
  5
497
102
{ACAD_REACTORS
330
495
102
}
330
495
100
AcDbXrecord
340
462
  0
DICTIONARYVAR
  5
492
102
{ACAD_REACTORS
330
1B6
102
}
330
1B6
100
DictionaryVariables
280
     0
  1
STANDARD
  0
DICTIONARYVAR
  5
494
102
{ACAD_REACTORS
330
1B6
102
}
330
1B6
100
DictionaryVariables
280
     0
  1
1
  0
DICTIONARY
  5
498
330
13
100
AcDbDictionary
280
     1
281
     1
  3
ACAD_XREC_ROUNDTRIP
360
499
  0
DICTIONARY
  5
49A
330
C
100
AcDbDictionary
280
     1
281
     1
  3
ACAD_XREC_ROUNDTRIP
360
49B
  0
XRECORD
  5
499
102
{ACAD_REACTORS
330
498
102
}
330
498
100
AcDbXrecord
102
SHADEPLOT
 70
     0
102
SHADEPLOTRESLEVEL
 70
     2
102
SHADEPLOTCUSTOMDPI
 70
   300
  0
XRECORD
  5
49B
102
{ACAD_REACTORS
330
49A
102
}
330
49A
100
AcDbXrecord
102
SHADEPLOT
 70
     0
102
SHADEPLOTRESLEVEL
 70
     2
102
SHADEPLOTCUSTOMDPI
 70
   300
  0
ENDSEC
  0
EOF
