  0
SECTION
  2
HEADER
  9
$ACADVER
  1
AC1015
  9
$ACADMAINTVER
 70
     6
  9
$DWGCODEPAGE
  3
ANSI_1252
  9
$INSBASE
 10
0.0
 20
0.0
 30
0.0
  9
$EXTMIN
 10
-11.45435852868444
 20
-0.0309751051458989
 30
-0.0000000000000058
  9
$EXTMAX
 10
11.45427580539997
 20
20.16810519443666
 30
0.0000000000000104
  9
$LIMMIN
 10
0.0
 20
0.0
  9
$LIMMAX
 10
26.6664
 20
34.99965
  9
$ORTHOMODE
 70
     1
  9
$REGENMODE
 70
     1
  9
$FILLMODE
 70
     1
  9
$QTEXTMODE
 70
     0
  9
$MIRRTEXT
 70
     0
  9
$LTSCALE
 40
1.0
  9
$ATTMODE
 70
     1
  9
$TEXTSIZE
 40
0.299997
  9
$TRACEWID
 40
0.05
  9
$TEXTSTYLE
  7
STANDARD
  9
$CLAYER
  8
0
  9
$CELTYPE
  6
BYLAYER
  9
$CECOLOR
 62
   256
  9
$CELTSCALE
 40
1.0
  9
$DISPSILH
 70
     0
  9
$DIMSCALE
 40
3.3333
  9
$DIMASZ
 40
0.125
  9
$DIMEXO
 40
0.062
  9
$DIMDLI
 40
0.375
  9
$DIMRND
 40
0.0
  9
$DIMDLE
 40
0.0
  9
$DIMEXE
 40
0.08
  9
$DIMTP
 40
0.0
  9
$DIMTM
 40
0.0
  9
$DIMTXT
 40
0.09
  9
$DIMCEN
 40
-0.03125
  9
$DIMTSZ
 40
0.0
  9
$DIMTOL
 70
     0
  9
$DIMLIM
 70
     0
  9
$DIMTIH
 70
     1
  9
$DIMTOH
 70
     1
  9
$DIMSE1
 70
     0
  9
$DIMSE2
 70
     0
  9
$DIMTAD
 70
     0
  9
$DIMZIN
 70
     0
  9
$DIMBLK
  1

  9
$DIMASO
 70
     0
  9
$DIMSHO
 70
     0
  9
$DIMPOST
  1

  9
$DIMAPOST
  1

  9
$DIMALT
 70
     0
  9
$DIMALTD
 70
     2
  9
$DIMALTF
 40
25.4
  9
$DIMLFAC
 40
1.0
  9
$DIMTOFL
 70
     0
  9
$DIMTVP
 40
0.0
  9
$DIMTIX
 70
     0
  9
$DIMSOXD
 70
     0
  9
$DIMSAH
 70
     0
  9
$DIMBLK1
  1

  9
$DIMBLK2
  1

  9
$DIMSTYLE
  2
STANDARD
  9
$DIMCLRD
 70
     0
  9
$DIMCLRE
 70
     0
  9
$DIMCLRT
 70
     0
  9
$DIMTFAC
 40
1.0
  9
$DIMGAP
 40
0.08984375
  9
$DIMJUST
 70
     0
  9
$DIMSD1
 70
     0
  9
$DIMSD2
 70
     0
  9
$DIMTOLJ
 70
     1
  9
$DIMTZIN
 70
     0
  9
$DIMALTZ
 70
     0
  9
$DIMALTTZ
 70
     0
  9
$DIMUPT
 70
     0
  9
$DIMDEC
 70
     5
  9
$DIMTDEC
 70
     6
  9
$DIMALTU
 70
     5
  9
$DIMALTTD
 70
     2
  9
$DIMTXSTY
  7
STANDARD
  9
$DIMAUNIT
 70
     0
  9
$DIMADEC
 70
     0
  9
$DIMALTRND
 40
0.0
  9
$DIMAZIN
 70
     0
  9
$DIMDSEP
 70
    46
  9
$DIMATFIT
 70
     3
  9
$DIMFRAC
 70
     2
  9
$DIMLDRBLK
  1

  9
$DIMLUNIT
 70
     5
  9
$DIMLWD
 70
    -2
  9
$DIMLWE
 70
    -2
  9
$DIMTMOVE
 70
     2
  9
$LUNITS
 70
     5
  9
$LUPREC
 70
     6
  9
$SKETCHINC
 40
0.1
  9
$FILLETRAD
 40
0.0
  9
$AUNITS
 70
     0
  9
$AUPREC
 70
     0
  9
$MENU
  1
acad
  9
$ELEVATION
 40
0.0
  9
$PELEVATION
 40
0.0
  9
$THICKNESS
 40
0.0
  9
$LIMCHECK
 70
     0
  9
$CHAMFERA
 40
0.0
  9
$CHAMFERB
 40
0.0
  9
$CHAMFERC
 40
0.0
  9
$CHAMFERD
 40
0.0
  9
$SKPOLY
 70
     0
  9
$TDCREATE
 40
2449876.866235417
  9
$TDUCREATE
 40
2449877.19956875
  9
$TDUPDATE
 40
2454166.748555417
  9
$TDUUPDATE
 40
2454167.08188875
  9
$TDINDWG
 40
0.063909919
  9
$TDUSRTIMER
 40
0.063909919
  9
$USRTIMER
 70
     1
  9
$ANGBASE
 50
0.0
  9
$ANGDIR
 70
     0
  9
$PDMODE
 70
     0
  9
$PDSIZE
 40
0.0
  9
$PLINEWID
 40
0.0
  9
$SPLFRAME
 70
     0
  9
$SPLINETYPE
 70
     6
  9
$SPLINESEGS
 70
     8
  9
$HANDSEED
  5
278
  9
$SURFTAB1
 70
     6
  9
$SURFTAB2
 70
     6
  9
$SURFTYPE
 70
     6
  9
$SURFU
 70
     6
  9
$SURFV
 70
     6
  9
$UCSBASE
  2

  9
$UCSNAME
  2

  9
$UCSORG
 10
0.0
 20
0.0
 30
0.0
  9
$UCSXDIR
 10
1.0
 20
0.0
 30
0.0
  9
$UCSYDIR
 10
0.0
 20
1.0
 30
0.0
  9
$UCSORTHOREF
  2

  9
$UCSORTHOVIEW
 70
     0
  9
$UCSORGTOP
 10
0.0
 20
0.0
 30
0.0
  9
$UCSORGBOTTOM
 10
0.0
 20
0.0
 30
0.0
  9
$UCSORGLEFT
 10
0.0
 20
0.0
 30
0.0
  9
$UCSORGRIGHT
 10
0.0
 20
0.0
 30
0.0
  9
$UCSORGFRONT
 10
0.0
 20
0.0
 30
0.0
  9
$UCSORGBACK
 10
0.0
 20
0.0
 30
0.0
  9
$PUCSBASE
  2

  9
$PUCSNAME
  2

  9
$PUCSORG
 10
0.0
 20
0.0
 30
0.0
  9
$PUCSXDIR
 10
1.0
 20
0.0
 30
0.0
  9
$PUCSYDIR
 10
0.0
 20
1.0
 30
0.0
  9
$PUCSORTHOREF
  2

  9
$PUCSORTHOVIEW
 70
     0
  9
$PUCSORGTOP
 10
0.0
 20
0.0
 30
0.0
  9
$PUCSORGBOTTOM
 10
0.0
 20
0.0
 30
0.0
  9
$PUCSORGLEFT
 10
0.0
 20
0.0
 30
0.0
  9
$PUCSORGRIGHT
 10
0.0
 20
0.0
 30
0.0
  9
$PUCSORGFRONT
 10
0.0
 20
0.0
 30
0.0
  9
$PUCSORGBACK
 10
0.0
 20
0.0
 30
0.0
  9
$USERI1
 70
     0
  9
$USERI2
 70
     0
  9
$USERI3
 70
     0
  9
$USERI4
 70
     0
  9
$USERI5
 70
     0
  9
$USERR1
 40
0.0
  9
$USERR2
 40
0.0
  9
$USERR3
 40
0.0
  9
$USERR4
 40
0.0
  9
$USERR5
 40
0.0
  9
$WORLDVIEW
 70
     1
  9
$SHADEDGE
 70
     3
  9
$SHADEDIF
 70
    70
  9
$TILEMODE
 70
     1
  9
$MAXACTVP
 70
    16
  9
$PINSBASE
 10
0.0
 20
0.0
 30
0.0
  9
$PLIMCHECK
 70
     0
  9
$PEXTMIN
 10
1.000000000000000E+20
 20
1.000000000000000E+20
 30
1.000000000000000E+20
  9
$PEXTMAX
 10
-1.000000000000000E+20
 20
-1.000000000000000E+20
 30
-1.000000000000000E+20
  9
$PLIMMIN
 10
0.0
 20
0.0
  9
$PLIMMAX
 10
12.0
 20
9.0
  9
$UNITMODE
 70
     0
  9
$VISRETAIN
 70
     0
  9
$PLINEGEN
 70
     1
  9
$PSLTSCALE
 70
     0
  9
$TREEDEPTH
 70
  3020
  9
$CMLSTYLE
  2
STANDARD
  9
$CMLJUST
 70
     0
  9
$CMLSCALE
 40
1.0
  9
$PROXYGRAPHICS
 70
     1
  9
$MEASUREMENT
 70
     0
  9
$CELWEIGHT
370
    -1
  9
$ENDCAPS
280
     0
  9
$JOINSTYLE
280
     0
  9
$LWDISPLAY
290
     0
  9
$INSUNITS
 70
     0
  9
$HYPERLINKBASE
  1

  9
$STYLESHEET
  1

  9
$XEDIT
290
     1
  9
$CEPSNTYPE
380
     0
  9
$PSTYLEMODE
290
     1
  9
$FINGERPRINTGUID
  2
{98CAEB6D-8980-40EA-91B8-80AAA9195AA7}
  9
$VERSIONGUID
  2
{C3421937-72D7-4A5D-813E-AF694BD762A8}
  9
$EXTNAMES
290
     1
  9
$PSVPSCALE
 40
0.0
  9
$OLESTARTUP
290
     0
  0
ENDSEC
  0
SECTION
  2
CLASSES
  0
CLASS
  1
DICTIONARYVAR
  2
AcDbDictionaryVar
  3
AutoCAD 2000
 90
        0
280
     0
281
     0
  0
CLASS
  1
LWPOLYLINE
  2
AcDbPolyline
  3
AutoCAD 2000
 90
        0
280
     0
281
     1
  0
CLASS
  1
ACDBDICTIONARYWDFLT
  2
AcDbDictionaryWithDefault
  3
AutoCAD 2000
 90
        0
280
     0
281
     0
  0
CLASS
  1
ACDBPLACEHOLDER
  2
AcDbPlaceHolder
  3
ObjectDBX Classes
 90
        0
280
     0
281
     0
  0
CLASS
  1
LAYOUT
  2
AcDbLayout
  3
ObjectDBX Classes
 90
        0
280
     0
281
     0
  0
CLASS
  1
LONG_TRANSACTION
  2
AcDbLongTransaction
  3
ObjectDBX Classes
 90
   -65536
280
     1
281
     0
  0
CLASS
  1
LWPOLYLINE
  2
AcDbPolyline
  3
AutoCAD 2000
 90
        0
280
     0
281
     1
  0
CLASS
  1
HATCH
  2
AcDbHatch
  3
AutoCAD 2000
 90
        0
280
     0
281
     1
  0
CLASS
  1
XRECORD
  2
AcDbXrecord
  3
AutoCAD 2000
 90
        0
280
     0
281
     0
  0
CLASS
  1
LONG_TRANSACTION
  2
AcDbLongTransaction
  3
ObjectDBX Classes
 90
   -65536
280
     1
281
     0
  0
CLASS
  1
LWPOLYLINE
  2
AcDbPolyline
  3
AutoCAD 2000
 90
        0
280
     0
281
     1
  0
CLASS
  1
HATCH
  2
AcDbHatch
  3
AutoCAD 2000
 90
        0
280
     0
281
     1
  0
CLASS
  1
XRECORD
  2
AcDbXrecord
  3
AutoCAD 2000
 90
        0
280
     0
281
     0
  0
CLASS
  1
LONG_TRANSACTION
  2
AcDbLongTransaction
  3
ObjectDBX Classes
 90
   -65536
280
     1
281
     0
  0
CLASS
  1
LWPOLYLINE
  2
AcDbPolyline
  3
AutoCAD 2000
 90
        0
280
     0
281
     1
  0
CLASS
  1
HATCH
  2
AcDbHatch
  3
AutoCAD 2000
 90
        0
280
     0
281
     1
  0
CLASS
  1
XRECORD
  2
AcDbXrecord
  3
AutoCAD 2000
 90
        0
280
     0
281
     0
  0
CLASS
  1
LONG_TRANSACTION
  2
AcDbLongTransaction
  3
ObjectDBX Classes
 90
   -65536
280
     1
281
     0
  0
CLASS
  1
LWPOLYLINE
  2
AcDbPolyline
  3
AutoCAD 2000
 90
        0
280
     0
281
     1
  0
CLASS
  1
HATCH
  2
AcDbHatch
  3
AutoCAD 2000
 90
        0
280
     0
281
     1
  0
CLASS
  1
XRECORD
  2
AcDbXrecord
  3
AutoCAD 2000
 90
        0
280
     0
281
     0
  0
CLASS
  1
LONG_TRANSACTION
  2
AcDbLongTransaction
  3
ObjectDBX Classes
 90
   -65536
280
     1
281
     0
  0
CLASS
  1
LWPOLYLINE
  2
AcDbPolyline
  3
AutoCAD 2000
 90
        0
280
     0
281
     1
  0
CLASS
  1
HATCH
  2
AcDbHatch
  3
AutoCAD 2000
 90
        0
280
     0
281
     1
  0
CLASS
  1
XRECORD
  2
AcDbXrecord
  3
AutoCAD 2000
 90
        0
280
     0
281
     0
  0
CLASS
  1
TABLESTYLE
  2
AcDbTableStyle
  3
ObjectDBX Classes
 90
     2047
280
     1
281
     0
  0
ENDSEC
  0
SECTION
  2
TABLES
  0
TABLE
  2
VPORT
  5
1D
330
0
100
AcDbSymbolTable
 70
     6
  0
VPORT
  5
268
330
1D
100
AcDbSymbolTableRecord
100
AcDbViewportTableRecord
  2
*Active
 70
     0
 10
0.0
 20
0.0
 11
1.0
 21
1.0
 12
8.714383060771205
 22
14.01146849747173
 13
0.0
 23
0.0
 14
0.063
 24
0.063
 15
0.25
 25
0.25
 16
0.0
 26
0.0
 36
1.0
 17
0.0
 27
0.0
 37
0.0
 40
35.46759754501886
 41
1.814583333333333
 42
50.0
 43
0.0
 44
0.0
 50
0.0
 51
0.0
 71
     0
 72
   100
 73
     1
 74
     0
 75
     0
 76
     0
 77
     0
 78
     0
281
     0
 65
     1
110
0.0
120
0.0
130
0.0
111
1.0
121
0.0
131
0.0
112
0.0
122
1.0
132
0.0
 79
     0
146
0.0
  0
ENDTAB
  0
TABLE
  2
LTYPE
  5
18
330
0
100
AcDbSymbolTable
 70
     2
  0
LTYPE
  5
19
330
18
100
AcDbSymbolTableRecord
100
AcDbLinetypeTableRecord
  2
BYBLOCK
 70
     0
  3

 72
    65
 73
     0
 40
0.0
  0
LTYPE
  5
1A
330
18
100
AcDbSymbolTableRecord
100
AcDbLinetypeTableRecord
  2
BYLAYER
 70
     0
  3

 72
    65
 73
     0
 40
0.0
  0
LTYPE
  5
A
330
18
100
AcDbSymbolTableRecord
100
AcDbLinetypeTableRecord
  2
CONTINUOUS
 70
     0
  3
Solid line
 72
    65
 73
     0
 40
0.0
  0
LTYPE
  5
24F
330
18
100
AcDbSymbolTableRecord
100
AcDbLinetypeTableRecord
  2
HIDDEN
 70
     0
  3
Hidden __ __ __ __ __ __ __ __ __ __ __ __ __ _
 72
    65
 73
     2
 40
0.375
 49
0.25
 74
     0
 49
-0.125
 74
     0
  0
ENDTAB
  0
TABLE
  2
LAYER
  5
14
330
0
100
AcDbSymbolTable
 70
     2
  0
LAYER
  5
6
330
14
100
AcDbSymbolTableRecord
100
AcDbLayerTableRecord
  2
0
 70
     0
 62
     7
  6
CONTINUOUS
370
    -3
390
7
  0
ENDTAB
  0
TABLE
  2
STYLE
  5
15
330
0
100
AcDbSymbolTable
 70
     2
  0
STYLE
  5
16
330
15
100
AcDbSymbolTableRecord
100
AcDbTextStyleTableRecord
  2
STANDARD
 70
     0
 40
0.0
 41
1.0
 50
0.0
 71
     0
 42
0.299997
  3
TXT
  4

  0
STYLE
  5
24E
330
15
100
AcDbSymbolTableRecord
100
AcDbTextStyleTableRecord
  2

 70
     1
 40
0.0
 41
1.0
 50
0.0
 71
     0
 42
0.299997
  3
ltypeshp.shx
  4

  0
ENDTAB
  0
TABLE
  2
VIEW
  5
1B
330
0
100
AcDbSymbolTable
 70
     0
  0
ENDTAB
  0
TABLE
  2
UCS
  5
1C
330
0
100
AcDbSymbolTable
 70
     0
  0
ENDTAB
  0
TABLE
  2
APPID
  5
1F
330
0
100
AcDbSymbolTable
 70
     1
  0
APPID
  5
20
330
1F
100
AcDbSymbolTableRecord
100
AcDbRegAppTableRecord
  2
ACAD
 70
     0
  0
ENDTAB
  0
TABLE
  2
DIMSTYLE
  5
21
330
0
100
AcDbSymbolTable
 70
     1
100
AcDbDimStyleTable
  0
DIMSTYLE
105
28
330
21
100
AcDbSymbolTableRecord
100
AcDbDimStyleTableRecord
  2
STANDARD
 70
     0
  3

  4

340
16
  0
ENDTAB
  0
TABLE
  2
BLOCK_RECORD
  5
1
330
0
100
AcDbSymbolTable
 70
     0
  0
BLOCK_RECORD
  5
2
330
1
100
AcDbSymbolTableRecord
100
AcDbBlockTableRecord
  2
*MODEL_SPACE
340
C
  0
BLOCK_RECORD
  5
E
330
1
100
AcDbSymbolTableRecord
100
AcDbBlockTableRecord
  2
*PAPER_SPACE
340
13
  0
ENDTAB
  0
ENDSEC
  0
SECTION
  2
BLOCKS
  0
BLOCK
  5
5
330
2
100
AcDbEntity
  8
0
100
AcDbBlockBegin
  2
*MODEL_SPACE
 70
     0
 10
0.0
 20
0.0
 30
0.0
  3
*MODEL_SPACE
  1

  4

  0
ENDBLK
  5
B
330
2
100
AcDbEntity
  8
0
100
AcDbBlockEnd
  0
BLOCK
  5
11
330
E
100
AcDbEntity
 67
     1
  8
0
100
AcDbBlockBegin
  2
*PAPER_SPACE
 70
     0
 10
0.0
 20
0.0
 30
0.0
  3
*PAPER_SPACE
  1

  4

  0
ENDBLK
  5
12
330
E
100
AcDbEntity
 67
     1
  8
0
100
AcDbBlockEnd
  0
ENDSEC
  0
SECTION
  2
ENTITIES
  0
ARC
  5
116
330
2
100
AcDbEntity
  8
0
100
AcDbCircle
 10
-2.509841292761426
 20
6.461318801567023
 30
0.0
 40
0.2
100
AcDbArc
 50
180.0
 51
257.3643749069807
  0
LINE
  5
117
330
2
100
AcDbEntity
  8
0
100
AcDbLine
 10
-1.562500000000001
 20
0.1400000000000006
 30
0.0
 11
-1.562500000000001
 21
10.82
 31
0.0
  0
LINE
  5
118
330
2
100
AcDbEntity
  8
0
100
AcDbLine
 10
-1.632499999999998
 20
0.1400000000000006
 30
0.0
 11
-1.632500000000001
 21
10.82
 31
0.0
  0
LINE
  5
119
330
2
100
AcDbEntity
  8
0
100
AcDbLine
 10
1.632499999999998
 20
0.1400000000000006
 30
0.0
 11
1.632499999999999
 21
10.82
 31
0.0
  0
LINE
  5
11A
330
2
100
AcDbEntity
  8
0
100
AcDbLine
 10
1.562499999999999
 20
0.1400000000000006
 30
0.0
 11
1.562499999999999
 21
10.82
 31
0.0
  0
ARC
  5
11B
330
2
100
AcDbEntity
  8
0
100
AcDbCircle
 10
2.509841292761426
 20
6.461318801567023
 30
0.0
 40
0.2
100
AcDbArc
 50
282.6356250930193
 51
0.0
  0
LINE
  5
11C
330
2
100
AcDbEntity
  8
0
100
AcDbLine
 10
-1.632500000000001
 20
0.9031192372166537
 30
0.0
 11
-2.67381815557311
 21
2.315964253707644
 31
0.0
  0
LINE
  5
11D
330
2
100
AcDbEntity
  8
0
100
AcDbLine
 10
-2.397341292761422
 20
4.07100642666707
 30
0.0
 11
-2.397341292761422
 21
3.471006426667071
 31
0.0
  0
LINE
  5
11E
330
2
100
AcDbEntity
  8
0
100
AcDbLine
 10
-2.700372927641255
 20
2.424946415029975
 30
0.0
 11
-2.700372927641255
 21
3.114859217515875
 31
0.0
  0
CIRCLE
  5
11F
330
2
100
AcDbEntity
  8
0
100
AcDbCircle
 10
-2.396243129721847
 20
2.755484217515873
 30
0.0
 40
0.0855
  0
ARC
  5
120
330
2
100
AcDbEntity
  8
0
100
AcDbCircle
 10
-2.521243129721847
 20
2.424946415029975
 30
0.0
 40
0.1875
100
AcDbArc
 50
180.0
 51
215.5376777919745
  0
ARC
  5
121
330
2
100
AcDbEntity
  8
0
100
AcDbCircle
 10
-2.597341292761425
 20
3.471006426667071
 30
0.0
 40
0.2
100
AcDbArc
 50
282.6356250930186
 51
0.0000000000000254
  0
ARC
  5
122
330
2
100
AcDbEntity
  8
0
100
AcDbCircle
 10
-2.509841292761426
 20
3.080694051767107
 30
0.0
 40
0.2
100
AcDbArc
 50
102.6356250930189
 51
180.0
  0
LINE
  5
123
330
2
100
AcDbEntity
  8
0
100
AcDbLine
 10
-2.717113331802442
 20
4.438655262220072
 30
0.0
 11
-2.717113331802442
 21
5.128568064705975
 31
0.0
  0
ARC
  5
124
330
2
100
AcDbEntity
  8
0
100
AcDbCircle
 10
-2.597341292761421
 20
4.07100642666707
 30
0.0
 40
0.2
100
AcDbArc
 50
0.0000000000000254
 51
77.36437490698125
  0
ARC
  5
125
330
2
100
AcDbEntity
  8
0
100
AcDbCircle
 10
-2.509841292761426
 20
4.461318801567023
 30
0.0
 40
0.2
100
AcDbArc
 50
180.0
 51
257.3643749069807
  0
CIRCLE
  5
126
330
2
100
AcDbEntity
  8
0
100
AcDbCircle
 10
-2.396243129721847
 20
4.755484217515873
 30
0.0
 40
0.0855
  0
ARC
  5
127
330
2
100
AcDbEntity
  8
0
100
AcDbCircle
 10
-2.518211494842018
 20
5.080694051767102
 30
0.0
 40
0.2
100
AcDbArc
 50
102.6356250930189
 51
180.0
  0
LINE
  5
128
330
2
100
AcDbEntity
  8
0
100
AcDbLine
 10
-2.397341292761422
 20
6.07100642666707
 30
0.0
 11
-2.397341292761422
 21
5.471006426667069
 31
0.0
  0
ARC
  5
129
330
2
100
AcDbEntity
  8
0
100
AcDbCircle
 10
-2.597341292761425
 20
5.471006426667069
 30
0.0
 40
0.2
100
AcDbArc
 50
282.6356250930186
 51
0.0000000000000254
  0
ARC
  5
12A
330
2
100
AcDbEntity
  8
0
100
AcDbCircle
 10
-2.597341292761421
 20
6.07100642666707
 30
0.0
 40
0.2
100
AcDbArc
 50
0.0000000000000254
 51
77.36437490698125
  0
LINE
  5
12B
330
2
100
AcDbEntity
  8
0
100
AcDbLine
 10
1.492499999999997
 20
0.0
 30
0.0
 11
-1.492500000000001
 21
0.0
 31
0.0
  0
LINE
  5
12C
330
2
100
AcDbEntity
  8
0
100
AcDbLine
 10
1.492499999999999
 20
0.0700000000000003
 30
0.0
 11
-1.492500000000001
 21
0.0699999999999985
 31
0.0
  0
ARC
  5
12D
330
2
100
AcDbEntity
  8
0
100
AcDbCircle
 10
-1.492499999999997
 20
0.1400000000000006
 30
0.0
 40
0.14
100
AcDbArc
 50
180.0
 51
270.0
  0
ARC
  5
12E
330
2
100
AcDbEntity
  8
0
100
AcDbCircle
 10
-1.492500000000001
 20
0.1400000000000006
 30
0.0
 40
0.14
100
AcDbArc
 50
180.0
 51
270.0
  0
ARC
  5
12F
330
2
100
AcDbEntity
  8
0
100
AcDbCircle
 10
-1.492500000000001
 20
0.1400000000000006
 30
0.0
 40
0.07
100
AcDbArc
 50
180.0
 51
270.0
  0
ARC
  5
130
330
2
100
AcDbEntity
  8
0
100
AcDbCircle
 10
-1.492500000000001
 20
0.1399999999999988
 30
0.0
 40
0.07
100
AcDbArc
 50
180.0
 51
270.0
  0
ARC
  5
131
330
2
100
AcDbEntity
  8
0
100
AcDbCircle
 10
1.492499999999997
 20
0.1400000000000006
 30
0.0
 40
0.14
100
AcDbArc
 50
270.0
 51
0.0
  0
ARC
  5
132
330
2
100
AcDbEntity
  8
0
100
AcDbCircle
 10
1.492499999999999
 20
0.1400000000000006
 30
0.0
 40
0.07
100
AcDbArc
 50
270.0
 51
0.0
  0
ARC
  5
134
330
2
100
AcDbEntity
  8
0
100
AcDbCircle
 10
-1.594136472572488
 20
4.320000000000002
 30
0.0
 40
0.25
100
AcDbArc
 50
98.82715068361172
 51
261.1728493163883
  0
LINE
  5
137
330
2
100
AcDbEntity
  8
0
100
AcDbLine
 10
2.39734129276142
 20
4.07100642666707
 30
0.0
 11
2.39734129276142
 21
3.471006426667071
 31
0.0
  0
ARC
  5
138
330
2
100
AcDbEntity
  8
0
100
AcDbCircle
 10
2.509841292761425
 20
3.080694051767107
 30
0.0
 40
0.2
100
AcDbArc
 50
0.0
 51
77.36437490698107
  0
LINE
  5
139
330
2
100
AcDbEntity
  8
0
100
AcDbLine
 10
1.632500000000001
 20
0.9031192372166537
 30
0.0
 11
2.673818155573108
 21
2.315964253707644
 31
0.0
  0
LINE
  5
13B
330
2
100
AcDbEntity
  8
0
100
AcDbLine
 10
2.700372927641253
 20
2.424946415029975
 30
0.0
 11
2.700372927641253
 21
3.114859217515875
 31
0.0
  0
CIRCLE
  5
13C
330
2
100
AcDbEntity
  8
0
100
AcDbCircle
 10
2.396243129721845
 20
2.754543077266797
 30
0.0
 40
0.0855
  0
ARC
  5
13D
330
2
100
AcDbEntity
  8
0
100
AcDbCircle
 10
2.521243129721845
 20
2.424946415029975
 30
0.0
 40
0.1875
100
AcDbArc
 50
324.4623222080255
 51
0.0
  0
ARC
  5
13E
330
2
100
AcDbEntity
  8
0
100
AcDbCircle
 10
2.597341292761423
 20
3.471006426667071
 30
0.0
 40
0.2
100
AcDbArc
 50
180.0
 51
257.3643749069813
  0
ARC
  5
13F
330
2
100
AcDbEntity
  8
0
100
AcDbCircle
 10
2.509841292761425
 20
4.461318801567023
 30
0.0
 40
0.2
100
AcDbArc
 50
282.6356250930193
 51
0.0
  0
ARC
  5
140
330
2
100
AcDbEntity
  8
0
100
AcDbCircle
 10
2.518211494842018
 20
5.080694051767102
 30
0.0
 40
0.2
100
AcDbArc
 50
0.0
 51
77.36437490698107
  0
LINE
  5
141
330
2
100
AcDbEntity
  8
0
100
AcDbLine
 10
2.71711333180244
 20
4.438655262220072
 30
0.0
 11
2.717113331802442
 21
5.128568064705975
 31
0.0
  0
ARC
  5
142
330
2
100
AcDbEntity
  8
0
100
AcDbCircle
 10
1.594136472572472
 20
4.320000000000002
 30
0.0
 40
0.25
100
AcDbArc
 50
278.8271506836109
 51
81.17284931638909
  0
ARC
  5
144
330
2
100
AcDbEntity
  8
0
100
AcDbCircle
 10
2.59734129276142
 20
4.07100642666707
 30
0.0
 40
0.2
100
AcDbArc
 50
102.6356250930187
 51
180.0
  0
CIRCLE
  5
145
330
2
100
AcDbEntity
  8
0
100
AcDbCircle
 10
2.396243129721845
 20
4.754543077266797
 30
0.0
 40
0.0855
  0
LINE
  5
147
330
2
100
AcDbEntity
  8
0
100
AcDbLine
 10
2.397341292761422
 20
6.07100642666707
 30
0.0
 11
2.397341292761422
 21
5.471006426667069
 31
0.0
  0
ARC
  5
148
330
2
100
AcDbEntity
  8
0
100
AcDbCircle
 10
2.597341292761425
 20
5.471006426667069
 30
0.0
 40
0.2
100
AcDbArc
 50
180.0
 51
257.3643749069813
  0
ARC
  5
149
330
2
100
AcDbEntity
  8
0
100
AcDbCircle
 10
2.597341292761421
 20
6.07100642666707
 30
0.0
 40
0.2
100
AcDbArc
 50
102.6356250930187
 51
180.0
  0
LINE
  5
14A
330
2
100
AcDbEntity
  8
0
100
AcDbLine
 10
-1.562500000000001
 20
10.82
 30
0.0
 11
-2.717113331802442
 21
10.82000000000001
 31
0.0
  0
LINE
  5
14B
330
2
100
AcDbEntity
  8
0
100
AcDbLine
 10
-2.717113331802442
 20
8.438655262220072
 30
0.0
 11
-2.717113331802442
 21
9.128568064705975
 31
0.0
  0
LINE
  5
14C
330
2
100
AcDbEntity
  8
0
100
AcDbLine
 10
-2.397341292761422
 20
8.07100642666707
 30
0.0
 11
-2.397341292761422
 21
7.471006426667069
 31
0.0
  0
ARC
  5
14D
330
2
100
AcDbEntity
  8
0
100
AcDbCircle
 10
-2.518211494842018
 20
7.080694051767102
 30
0.0
 40
0.2
100
AcDbArc
 50
102.6356250930189
 51
180.0
  0
LINE
  5
14E
330
2
100
AcDbEntity
  8
0
100
AcDbLine
 10
-2.717113331802442
 20
6.438655262220072
 30
0.0
 11
-2.717113331802442
 21
7.128568064705975
 31
0.0
  0
CIRCLE
  5
14F
330
2
100
AcDbEntity
  8
0
100
AcDbCircle
 10
-2.396243129721847
 20
6.755484217515873
 30
0.0
 40
0.0855
  0
ARC
  5
150
330
2
100
AcDbEntity
  8
0
100
AcDbCircle
 10
-2.597341292761425
 20
7.471006426667069
 30
0.0
 40
0.2
100
AcDbArc
 50
282.6356250930186
 51
0.0000000000000254
  0
ARC
  5
151
330
2
100
AcDbEntity
  8
0
100
AcDbCircle
 10
-2.509841292761426
 20
8.461318801567023
 30
0.0
 40
0.2
100
AcDbArc
 50
180.0
 51
257.3643749069807
  0
ARC
  5
152
330
2
100
AcDbEntity
  8
0
100
AcDbCircle
 10
-2.597341292761421
 20
8.07100642666707
 30
0.0
 40
0.2
100
AcDbArc
 50
0.0000000000000254
 51
77.36437490698125
  0
CIRCLE
  5
153
330
2
100
AcDbEntity
  8
0
100
AcDbCircle
 10
-2.396243129721847
 20
8.755484217515873
 30
0.0
 40
0.0855
  0
LINE
  5
154
330
2
100
AcDbEntity
  8
0
100
AcDbLine
 10
-2.717113331802442
 20
10.14729518612745
 30
0.0
 11
-2.717113331802442
 21
10.82000000000001
 31
0.0
  0
ARC
  5
155
330
2
100
AcDbEntity
  8
0
100
AcDbCircle
 10
-2.518211494842018
 20
9.080694051767102
 30
0.0
 40
0.2
100
AcDbArc
 50
102.6356250930189
 51
180.0
  0
LINE
  5
156
330
2
100
AcDbEntity
  8
0
100
AcDbLine
 10
-2.397341292761422
 20
9.826619701110738
 30
0.0
 11
-2.397341292761422
 21
9.471006426667069
 31
0.0
  0
ARC
  5
157
330
2
100
AcDbEntity
  8
0
100
AcDbCircle
 10
-2.597341292761425
 20
9.471006426667069
 30
0.0
 40
0.2
100
AcDbArc
 50
282.6356250930186
 51
0.0000000000000254
  0
LINE
  5
158
330
2
100
AcDbEntity
  8
0
100
AcDbLine
 10
-2.458897547622532
 20
9.928376623670973
 30
0.0
 11
-2.717113331802445
 21
10.14729518612745
 31
0.0
  0
ARC
  5
159
330
2
100
AcDbEntity
  8
0
100
AcDbCircle
 10
-2.584841292761422
 20
9.784068090202615
 30
0.0
 40
0.1875
100
AcDbArc
 50
359.9999999999998
 51
50.50336447242521
  0
CIRCLE
  5
15A
330
2
100
AcDbEntity
  8
0
100
AcDbCircle
 10
-2.396243129721847
 20
10.50548421751587
 30
0.0
 40
0.0855
  0
LINE
  5
15D
330
2
100
AcDbEntity
  8
0
100
AcDbLine
 10
2.717113331802442
 20
8.438655262220072
 30
0.0
 11
2.717113331802442
 21
9.128568064705975
 31
0.0
  0
ARC
  5
15E
330
2
100
AcDbEntity
  8
0
100
AcDbCircle
 10
2.509841292761426
 20
8.461318801567023
 30
0.0
 40
0.2
100
AcDbArc
 50
282.6356250930193
 51
0.0
  0
ARC
  5
15F
330
2
100
AcDbEntity
  8
0
100
AcDbCircle
 10
2.518211494842018
 20
7.080694051767102
 30
0.0
 40
0.2
100
AcDbArc
 50
0.0
 51
77.36437490698107
  0
LINE
  5
160
330
2
100
AcDbEntity
  8
0
100
AcDbLine
 10
2.397341292761422
 20
8.07100642666707
 30
0.0
 11
2.397341292761422
 21
7.471006426667069
 31
0.0
  0
LINE
  5
161
330
2
100
AcDbEntity
  8
0
100
AcDbLine
 10
2.717113331802442
 20
6.438655262220072
 30
0.0
 11
2.717113331802442
 21
7.128568064705975
 31
0.0
  0
CIRCLE
  5
162
330
2
100
AcDbEntity
  8
0
100
AcDbCircle
 10
2.396243129721845
 20
6.754543077266797
 30
0.0
 40
0.0855
  0
ARC
  5
163
330
2
100
AcDbEntity
  8
0
100
AcDbCircle
 10
2.597341292761425
 20
7.471006426667069
 30
0.0
 40
0.2
100
AcDbArc
 50
180.0
 51
257.3643749069813
  0
ARC
  5
165
330
2
100
AcDbEntity
  8
0
100
AcDbCircle
 10
2.597341292761421
 20
8.07100642666707
 30
0.0
 40
0.2
100
AcDbArc
 50
102.6356250930187
 51
180.0
  0
CIRCLE
  5
166
330
2
100
AcDbEntity
  8
0
100
AcDbCircle
 10
2.396243129721845
 20
8.754543077266797
 30
0.0
 40
0.0855
  0
ARC
  5
167
330
2
100
AcDbEntity
  8
0
100
AcDbCircle
 10
2.518211494842018
 20
9.080694051767102
 30
0.0
 40
0.2
100
AcDbArc
 50
0.0
 51
77.36437490698107
  0
LINE
  5
168
330
2
100
AcDbEntity
  8
0
100
AcDbLine
 10
2.718211494842017
 20
10.14822622244938
 30
0.0
 11
2.718211494842017
 21
10.82
 31
0.0
  0
LINE
  5
16A
330
2
100
AcDbEntity
  8
0
100
AcDbLine
 10
2.397341292761422
 20
9.826619701110738
 30
0.0
 11
2.397341292761422
 21
9.471006426667069
 31
0.0
  0
LINE
  5
16B
330
2
100
AcDbEntity
  8
0
100
AcDbLine
 10
2.397341292761422
 20
9.826619701110738
 30
0.0
 11
2.397341292761422
 21
9.471006426667069
 31
0.0
  0
ARC
  5
16C
330
2
100
AcDbEntity
  8
0
100
AcDbCircle
 10
2.597341292761425
 20
9.471006426667069
 30
0.0
 40
0.2
100
AcDbArc
 50
180.0
 51
257.3643749069813
  0
ARC
  5
16D
330
2
100
AcDbEntity
  8
0
100
AcDbCircle
 10
2.584841292761422
 20
9.784068090202615
 30
0.0
 40
0.1875
100
AcDbArc
 50
129.4966355275748
 51
180.0000000000001
  0
LINE
  5
16E
330
2
100
AcDbEntity
  8
0
100
AcDbLine
 10
2.458897547622532
 20
9.928376623670973
 30
0.0
 11
2.718211494842016
 21
10.14822622244938
 31
0.0
  0
LINE
  5
16F
330
2
100
AcDbEntity
  8
0
100
AcDbLine
 10
1.562499999999999
 20
10.82
 30
0.0
 11
2.718211494842017
 21
10.82
 31
0.0
  0
CIRCLE
  5
170
330
2
100
AcDbEntity
  8
0
100
AcDbCircle
 10
2.396243129721845
 20
10.5045430772668
 30
0.0
 40
0.0855
  0
LWPOLYLINE
  5
1C8
330
2
100
AcDbEntity
  8
0
100
AcDbPolyline
 90
        9
 70
     0
 43
0.0
 10
-1.632499999999997
 20
1.471583042145761
 42
-0.1432467981947568
 10
-1.657724650855453
 20
1.478961139017011
 42
-0.1071754848060475
 10
-1.682410816826039
 20
1.503512064161663
 42
-0.0783035184710328
 10
-1.6973574844484
 20
1.537133318512462
 42
-0.0656020556757086
 10
-1.703084554064507
 20
1.580595542145767
 42
-0.0656020556757101
 10
-1.6973574844484
 20
1.624057765779066
 42
-0.0783035184710357
 10
-1.682410816826039
 20
1.657679020129864
 42
-0.1071754848060445
 10
-1.657724650855453
 20
1.682229945274516
 42
-0.1432467981947535
 10
-1.632499999999997
 20
1.689608042145766
 42
-0.1432467981947515
  0
LINE
  5
1C9
330
2
100
AcDbEntity
  8
0
100
AcDbLine
 10
-1.632499999999997
 20
1.442258042145761
 30
0.0
 11
-1.632499999999997
 21
1.718933042145766
 31
0.0
  0
LWPOLYLINE
  5
1CA
330
2
100
AcDbEntity
  8
0
100
AcDbPolyline
 90
        9
 70
     0
 43
0.0
 10
-1.632499999999997
 20
1.500908042145762
 42
-0.147269582437036
 10
-1.650196423162537
 20
1.506235883833556
 42
-0.1071386913803464
 10
-1.667748316826039
 20
1.52424797051996
 42
-0.0765137470862007
 10
-1.678290230872808
 20
1.548752708554121
 42
-0.063469041210727
 10
-1.68234864770621
 20
1.580595542145767
 42
-0.0634690412107267
 10
-1.678290230872808
 20
1.612438375737407
 42
-0.0765137470862059
 10
-1.667748316826039
 20
1.636943113771567
 42
-0.1071386913803463
 10
-1.650196423162537
 20
1.654955200457971
 42
-0.1472695824370325
 10
-1.632499999999997
 20
1.660283042145766
 42
-0.1472695824370333
  0
LWPOLYLINE
  5
1CB
330
2
100
AcDbEntity
  8
0
100
AcDbPolyline
 90
        9
 70
     0
 43
0.0
 10
-1.632500000000004
 20
3.784083042145761
 42
-0.1432467981947568
 10
-1.65772465085546
 20
3.791461139017011
 42
-0.1071754848060475
 10
-1.682410816826046
 20
3.816012064161663
 42
-0.0783035184710328
 10
-1.697357484448407
 20
3.849633318512462
 42
-0.0656020556757086
 10
-1.703084554064514
 20
3.893095542145767
 42
-0.0656020556757101
 10
-1.697357484448407
 20
3.936557765779066
 42
-0.0783035184710357
 10
-1.682410816826046
 20
3.970179020129864
 42
-0.1071754848060445
 10
-1.65772465085546
 20
3.994729945274516
 42
-0.1432467981947535
 10
-1.632500000000004
 20
4.002108042145766
 42
-0.1432467981947515
  0
LINE
  5
1CC
330
2
100
AcDbEntity
  8
0
100
AcDbLine
 10
-1.632500000000004
 20
3.754758042145761
 30
0.0
 11
-1.632500000000004
 21
4.031433042145766
 31
0.0
  0
LWPOLYLINE
  5
1CD
330
2
100
AcDbEntity
  8
0
100
AcDbPolyline
 90
        9
 70
     0
 43
0.0
 10
-1.632500000000004
 20
3.813408042145762
 42
-0.147269582437036
 10
-1.650196423162544
 20
3.818735883833556
 42
-0.1071386913803464
 10
-1.667748316826046
 20
3.83674797051996
 42
-0.0765137470862007
 10
-1.678290230872815
 20
3.861252708554121
 42
-0.063469041210727
 10
-1.682348647706217
 20
3.893095542145767
 42
-0.0634690412107267
 10
-1.678290230872815
 20
3.924938375737407
 42
-0.0765137470862059
 10
-1.667748316826046
 20
3.949443113771567
 42
-0.1071386913803463
 10
-1.650196423162544
 20
3.967455200457971
 42
-0.1472695824370325
 10
-1.632500000000004
 20
3.972783042145766
 42
-0.1472695824370333
  0
LWPOLYLINE
  5
1CE
330
2
100
AcDbEntity
  8
0
100
AcDbPolyline
 90
        9
 70
     0
 43
0.0
 10
-1.632500000000004
 20
5.784083042145761
 42
-0.1432467981947568
 10
-1.65772465085546
 20
5.791461139017011
 42
-0.1071754848060475
 10
-1.682410816826046
 20
5.816012064161663
 42
-0.0783035184710328
 10
-1.697357484448407
 20
5.849633318512462
 42
-0.0656020556757086
 10
-1.703084554064514
 20
5.893095542145767
 42
-0.0656020556757101
 10
-1.697357484448407
 20
5.936557765779066
 42
-0.0783035184710357
 10
-1.682410816826046
 20
5.970179020129864
 42
-0.1071754848060445
 10
-1.65772465085546
 20
5.994729945274516
 42
-0.1432467981947535
 10
-1.632500000000004
 20
6.002108042145766
 42
-0.1432467981947515
  0
LINE
  5
1CF
330
2
100
AcDbEntity
  8
0
100
AcDbLine
 10
-1.632500000000004
 20
5.754758042145761
 30
0.0
 11
-1.632500000000004
 21
6.031433042145766
 31
0.0
  0
LWPOLYLINE
  5
1D0
330
2
100
AcDbEntity
  8
0
100
AcDbPolyline
 90
        9
 70
     0
 43
0.0
 10
-1.632500000000004
 20
5.813408042145762
 42
-0.147269582437036
 10
-1.650196423162544
 20
5.818735883833556
 42
-0.1071386913803464
 10
-1.667748316826046
 20
5.83674797051996
 42
-0.0765137470862007
 10
-1.678290230872815
 20
5.861252708554121
 42
-0.063469041210727
 10
-1.682348647706217
 20
5.893095542145767
 42
-0.0634690412107267
 10
-1.678290230872815
 20
5.924938375737407
 42
-0.0765137470862059
 10
-1.667748316826046
 20
5.949443113771567
 42
-0.1071386913803463
 10
-1.650196423162544
 20
5.967455200457971
 42
-0.1472695824370325
 10
-1.632500000000004
 20
5.972783042145766
 42
-0.1472695824370333
  0
LWPOLYLINE
  5
1D1
330
2
100
AcDbEntity
  8
0
100
AcDbPolyline
 90
        9
 70
     0
 43
0.0
 10
1.632499999999982
 20
0.9614463774076345
 42
0.1432467981947568
 10
1.657724650855438
 20
0.9688244742788843
 42
0.1071754848060475
 10
1.682410816826024
 20
0.9933753994235364
 42
0.0783035184710328
 10
1.697357484448385
 20
1.026996653774335
 42
0.0656020556757086
 10
1.703084554064492
 20
1.07045887740764
 42
0.0656020556757101
 10
1.697357484448385
 20
1.113921101040939
 42
0.0783035184710357
 10
1.682410816826024
 20
1.147542355391737
 42
0.1071754848060445
 10
1.657724650855438
 20
1.172093280536389
 42
0.1432467981947535
 10
1.632499999999982
 20
1.179471377407639
 42
0.1432467981947515
  0
LINE
  5
1D2
330
2
100
AcDbEntity
  8
0
100
AcDbLine
 10
1.632499999999982
 20
0.9321213774076345
 30
0.0
 11
1.632499999999982
 21
1.208796377407639
 31
0.0
  0
LWPOLYLINE
  5
1D3
330
2
100
AcDbEntity
  8
0
100
AcDbPolyline
 90
        9
 70
     0
 43
0.0
 10
1.632499999999982
 20
0.9907713774076346
 42
0.147269582437036
 10
1.650196423162522
 20
0.996099219095429
 42
0.1071386913803464
 10
1.667748316826024
 20
1.014111305781833
 42
0.0765137470862007
 10
1.678290230872793
 20
1.038616043815994
 42
0.063469041210727
 10
1.682348647706195
 20
1.07045887740764
 42
0.0634690412107267
 10
1.678290230872793
 20
1.10230171099928
 42
0.0765137470862059
 10
1.667748316826024
 20
1.12680644903344
 42
0.1071386913803463
 10
1.650196423162522
 20
1.144818535719844
 42
0.1472695824370325
 10
1.632499999999982
 20
1.150146377407639
 42
0.1472695824370333
  0
LWPOLYLINE
  5
1D4
330
2
100
AcDbEntity
  8
0
100
AcDbPolyline
 90
        9
 70
     0
 43
0.0
 10
1.632499999999982
 20
3.90350551422169
 42
0.1432467981947568
 10
1.657724650855438
 20
3.91088361109294
 42
0.1071754848060475
 10
1.682410816826024
 20
3.935434536237592
 42
0.0783035184710328
 10
1.697357484448385
 20
3.96905579058839
 42
0.0656020556757086
 10
1.703084554064492
 20
4.012518014221696
 42
0.0656020556757101
 10
1.697357484448385
 20
4.055980237854994
 42
0.0783035184710357
 10
1.682410816826024
 20
4.089601492205793
 42
0.1071754848060445
 10
1.657724650855438
 20
4.114152417350445
 42
0.1432467981947535
 10
1.632499999999982
 20
4.121530514221695
 42
0.1432467981947515
  0
LINE
  5
1D5
330
2
100
AcDbEntity
  8
0
100
AcDbLine
 10
1.632499999999982
 20
3.87418051422169
 30
0.0
 11
1.632499999999982
 21
4.150855514221695
 31
0.0
  0
LWPOLYLINE
  5
1D6
330
2
100
AcDbEntity
  8
0
100
AcDbPolyline
 90
        9
 70
     0
 43
0.0
 10
1.632499999999982
 20
3.93283051422169
 42
0.147269582437036
 10
1.650196423162522
 20
3.938158355909485
 42
0.1071386913803464
 10
1.667748316826024
 20
3.956170442595889
 42
0.0765137470862007
 10
1.678290230872793
 20
3.980675180630049
 42
0.063469041210727
 10
1.682348647706195
 20
4.012518014221696
 42
0.0634690412107267
 10
1.678290230872793
 20
4.044360847813335
 42
0.0765137470862059
 10
1.667748316826024
 20
4.068865585847496
 42
0.1071386913803463
 10
1.650196423162522
 20
4.0868776725339
 42
0.1472695824370325
 10
1.632499999999982
 20
4.092205514221694
 42
0.1472695824370333
  0
LWPOLYLINE
  5
1D7
330
2
100
AcDbEntity
  8
0
100
AcDbPolyline
 90
        9
 70
     0
 43
0.0
 10
1.632499999999982
 20
5.90350551422169
 42
0.1432467981947568
 10
1.657724650855438
 20
5.91088361109294
 42
0.1071754848060475
 10
1.682410816826024
 20
5.935434536237592
 42
0.0783035184710328
 10
1.697357484448385
 20
5.96905579058839
 42
0.0656020556757086
 10
1.703084554064492
 20
6.012518014221696
 42
0.0656020556757101
 10
1.697357484448385
 20
6.055980237854994
 42
0.0783035184710357
 10
1.682410816826024
 20
6.089601492205793
 42
0.1071754848060445
 10
1.657724650855438
 20
6.114152417350445
 42
0.1432467981947535
 10
1.632499999999982
 20
6.121530514221695
 42
0.1432467981947515
  0
LINE
  5
1D8
330
2
100
AcDbEntity
  8
0
100
AcDbLine
 10
1.632499999999982
 20
5.87418051422169
 30
0.0
 11
1.632499999999982
 21
6.150855514221695
 31
0.0
  0
LWPOLYLINE
  5
1D9
330
2
100
AcDbEntity
  8
0
100
AcDbPolyline
 90
        9
 70
     0
 43
0.0
 10
1.632499999999982
 20
5.93283051422169
 42
0.147269582437036
 10
1.650196423162522
 20
5.938158355909485
 42
0.1071386913803464
 10
1.667748316826024
 20
5.956170442595889
 42
0.0765137470862007
 10
1.678290230872793
 20
5.980675180630049
 42
0.063469041210727
 10
1.682348647706195
 20
6.012518014221696
 42
0.0634690412107267
 10
1.678290230872793
 20
6.044360847813335
 42
0.0765137470862059
 10
1.667748316826024
 20
6.068865585847496
 42
0.1071386913803463
 10
1.650196423162522
 20
6.0868776725339
 42
0.1472695824370325
 10
1.632499999999982
 20
6.092205514221694
 42
0.1472695824370333
  0
LWPOLYLINE
  5
1DA
330
2
100
AcDbEntity
  8
0
100
AcDbPolyline
 90
        9
 70
     0
 43
0.0
 10
-1.632500000000004
 20
7.784083042145761
 42
-0.1432467981947568
 10
-1.65772465085546
 20
7.791461139017011
 42
-0.1071754848060475
 10
-1.682410816826046
 20
7.816012064161663
 42
-0.0783035184710328
 10
-1.697357484448407
 20
7.849633318512462
 42
-0.0656020556757086
 10
-1.703084554064514
 20
7.893095542145767
 42
-0.0656020556757101
 10
-1.697357484448407
 20
7.936557765779066
 42
-0.0783035184710357
 10
-1.682410816826046
 20
7.970179020129864
 42
-0.1071754848060445
 10
-1.65772465085546
 20
7.994729945274516
 42
-0.1432467981947535
 10
-1.632500000000004
 20
8.002108042145766
 42
-0.1432467981947515
  0
LINE
  5
1DB
330
2
100
AcDbEntity
  8
0
100
AcDbLine
 10
-1.632500000000004
 20
7.754758042145761
 30
0.0
 11
-1.632500000000004
 21
8.031433042145766
 31
0.0
  0
LWPOLYLINE
  5
1DC
330
2
100
AcDbEntity
  8
0
100
AcDbPolyline
 90
        9
 70
     0
 43
0.0
 10
-1.632500000000004
 20
7.813408042145762
 42
-0.147269582437036
 10
-1.650196423162544
 20
7.818735883833556
 42
-0.1071386913803464
 10
-1.667748316826046
 20
7.83674797051996
 42
-0.0765137470862007
 10
-1.678290230872815
 20
7.861252708554121
 42
-0.063469041210727
 10
-1.682348647706217
 20
7.893095542145767
 42
-0.0634690412107267
 10
-1.678290230872815
 20
7.924938375737407
 42
-0.0765137470862059
 10
-1.667748316826046
 20
7.949443113771567
 42
-0.1071386913803463
 10
-1.650196423162544
 20
7.967455200457971
 42
-0.1472695824370325
 10
-1.632500000000004
 20
7.972783042145766
 42
-0.1472695824370333
  0
LWPOLYLINE
  5
1DD
330
2
100
AcDbEntity
  8
0
100
AcDbPolyline
 90
        9
 70
     0
 43
0.0
 10
-1.632500000000004
 20
9.784083042145761
 42
-0.1432467981947568
 10
-1.65772465085546
 20
9.791461139017011
 42
-0.1071754848060475
 10
-1.682410816826046
 20
9.816012064161663
 42
-0.0783035184710328
 10
-1.697357484448407
 20
9.849633318512462
 42
-0.0656020556757086
 10
-1.703084554064514
 20
9.893095542145767
 42
-0.0656020556757101
 10
-1.697357484448407
 20
9.936557765779066
 42
-0.0783035184710357
 10
-1.682410816826046
 20
9.970179020129864
 42
-0.1071754848060445
 10
-1.65772465085546
 20
9.994729945274516
 42
-0.1432467981947535
 10
-1.632500000000004
 20
10.00210804214577
 42
-0.1432467981947515
  0
LINE
  5
1DE
330
2
100
AcDbEntity
  8
0
100
AcDbLine
 10
-1.632500000000004
 20
9.754758042145761
 30
0.0
 11
-1.632500000000004
 21
10.03143304214577
 31
0.0
  0
LWPOLYLINE
  5
1DF
330
2
100
AcDbEntity
  8
0
100
AcDbPolyline
 90
        9
 70
     0
 43
0.0
 10
-1.632500000000004
 20
9.813408042145762
 42
-0.147269582437036
 10
-1.650196423162544
 20
9.818735883833556
 42
-0.1071386913803464
 10
-1.667748316826046
 20
9.83674797051996
 42
-0.0765137470862007
 10
-1.678290230872815
 20
9.861252708554121
 42
-0.063469041210727
 10
-1.682348647706217
 20
9.893095542145767
 42
-0.0634690412107267
 10
-1.678290230872815
 20
9.924938375737407
 42
-0.0765137470862059
 10
-1.667748316826046
 20
9.949443113771567
 42
-0.1071386913803463
 10
-1.650196423162544
 20
9.967455200457971
 42
-0.1472695824370325
 10
-1.632500000000004
 20
9.972783042145766
 42
-0.1472695824370333
  0
LWPOLYLINE
  5
1E0
330
2
100
AcDbEntity
  8
0
100
AcDbPolyline
 90
        9
 70
     0
 43
0.0
 10
1.632499999999982
 20
7.90350551422169
 42
0.1432467981947568
 10
1.657724650855438
 20
7.91088361109294
 42
0.1071754848060475
 10
1.682410816826024
 20
7.935434536237592
 42
0.0783035184710328
 10
1.697357484448385
 20
7.96905579058839
 42
0.0656020556757086
 10
1.703084554064492
 20
8.012518014221696
 42
0.0656020556757101
 10
1.697357484448385
 20
8.055980237854994
 42
0.0783035184710357
 10
1.682410816826024
 20
8.089601492205793
 42
0.1071754848060445
 10
1.657724650855438
 20
8.114152417350445
 42
0.1432467981947535
 10
1.632499999999982
 20
8.121530514221695
 42
0.1432467981947515
  0
LINE
  5
1E1
330
2
100
AcDbEntity
  8
0
100
AcDbLine
 10
1.632499999999982
 20
7.87418051422169
 30
0.0
 11
1.632499999999982
 21
8.150855514221695
 31
0.0
  0
LWPOLYLINE
  5
1E2
330
2
100
AcDbEntity
  8
0
100
AcDbPolyline
 90
        9
 70
     0
 43
0.0
 10
1.632499999999982
 20
7.93283051422169
 42
0.147269582437036
 10
1.650196423162522
 20
7.938158355909485
 42
0.1071386913803464
 10
1.667748316826024
 20
7.956170442595889
 42
0.0765137470862007
 10
1.678290230872793
 20
7.980675180630049
 42
0.063469041210727
 10
1.682348647706195
 20
8.012518014221696
 42
0.0634690412107267
 10
1.678290230872793
 20
8.044360847813335
 42
0.0765137470862059
 10
1.667748316826024
 20
8.068865585847496
 42
0.1071386913803463
 10
1.650196423162522
 20
8.0868776725339
 42
0.1472695824370325
 10
1.632499999999982
 20
8.092205514221694
 42
0.1472695824370333
  0
LWPOLYLINE
  5
1E3
330
2
100
AcDbEntity
  8
0
100
AcDbPolyline
 90
        9
 70
     0
 43
0.0
 10
1.632499999999982
 20
9.90350551422169
 42
0.1432467981947568
 10
1.657724650855438
 20
9.91088361109294
 42
0.1071754848060475
 10
1.682410816826024
 20
9.935434536237592
 42
0.0783035184710328
 10
1.697357484448385
 20
9.96905579058839
 42
0.0656020556757086
 10
1.703084554064492
 20
10.0125180142217
 42
0.0656020556757101
 10
1.697357484448385
 20
10.05598023785499
 42
0.0783035184710357
 10
1.682410816826024
 20
10.08960149220579
 42
0.1071754848060445
 10
1.657724650855438
 20
10.11415241735045
 42
0.1432467981947535
 10
1.632499999999982
 20
10.12153051422169
 42
0.1432467981947515
  0
LINE
  5
1E4
330
2
100
AcDbEntity
  8
0
100
AcDbLine
 10
1.632499999999982
 20
9.87418051422169
 30
0.0
 11
1.632499999999982
 21
10.1508555142217
 31
0.0
  0
LWPOLYLINE
  5
1E5
330
2
100
AcDbEntity
  8
0
100
AcDbPolyline
 90
        9
 70
     0
 43
0.0
 10
1.632499999999982
 20
9.93283051422169
 42
0.147269582437036
 10
1.650196423162522
 20
9.938158355909485
 42
0.1071386913803464
 10
1.667748316826024
 20
9.956170442595889
 42
0.0765137470862007
 10
1.678290230872793
 20
9.980675180630049
 42
0.063469041210727
 10
1.682348647706195
 20
10.0125180142217
 42
0.0634690412107267
 10
1.678290230872793
 20
10.04436084781334
 42
0.0765137470862059
 10
1.667748316826024
 20
10.0688655858475
 42
0.1071386913803463
 10
1.650196423162522
 20
10.0868776725339
 42
0.1472695824370325
 10
1.632499999999982
 20
10.09220551422169
 42
0.1472695824370333
  0
ENDSEC
  0
SECTION
  2
OBJECTS
  0
DICTIONARY
  5
9
330
0
100
AcDbDictionary
281
     1
  3
ACAD_COLOR
350
240
  3
ACAD_GROUP
350
23
  3
ACAD_LAYOUT
350
D
  3
ACAD_MATERIAL
350
23F
  3
ACAD_MLINESTYLE
350
24
  3
ACAD_PLOTSETTINGS
350
25
  3
ACAD_PLOTSTYLENAME
350
8
  3
ACAD_TABLESTYLE
350
241
  3
ACDBHEADERROUNDTRIPXREC
350
271
  3
AcDbVariableDictionary
350
10A
  0
DICTIONARY
  5
240
102
{ACAD_REACTORS
330
9
102
}
330
9
100
AcDbDictionary
281
     1
  0
DICTIONARY
  5
23
102
{ACAD_REACTORS
330
9
102
}
330
9
100
AcDbDictionary
281
     1
  0
DICTIONARY
  5
D
102
{ACAD_REACTORS
330
9
102
}
330
9
100
AcDbDictionary
281
     1
  3
Layout1
350
13
  3
Model
350
C
  0
DICTIONARY
  5
23F
102
{ACAD_REACTORS
330
9
102
}
330
9
100
AcDbDictionary
281
     1
  0
DICTIONARY
  5
24
102
{ACAD_REACTORS
330
9
102
}
330
9
100
AcDbDictionary
281
     1
  3
STANDARD
350
27
  0
DICTIONARY
  5
25
102
{ACAD_REACTORS
330
9
102
}
330
9
100
AcDbDictionary
281
     1
  0
ACDBDICTIONARYWDFLT
  5
8
102
{ACAD_REACTORS
330
9
102
}
330
9
100
AcDbDictionary
281
     1
  3
Normal
350
7
100
AcDbDictionaryWithDefault
340
7
  0
DICTIONARY
  5
241
102
{ACAD_REACTORS
330
9
102
}
330
9
100
AcDbDictionary
281
     1
  3
Standard
350
242
  0
DICTIONARY
  5
271
102
{ACAD_REACTORS
330
9
102
}
330
9
100
AcDbDictionary
281
     1
  3
COLORDICT
350
272
  3
MATERIALDICT
350
273
  0
DICTIONARY
  5
10A
102
{ACAD_REACTORS
330
9
102
}
330
9
100
AcDbDictionary
281
     1
  3
CTABLESTYLE
350
26E
  3
HIDETEXT
350
270
  0
LAYOUT
  5
13
102
{ACAD_REACTORS
330
D
102
}
102
{ACAD_XDICTIONARY
360
274
102
}
330
D
100
AcDbPlotSettings
  1

  2
C:\ACAD2000\plotters\HP LaserJet 2100 Series PS.pc3
  4

  6

 40
0.0
 41
0.0
 42
0.0
 43
0.0
 44
0.0
 45
0.0
 46
0.0
 47
0.0
 48
0.0
 49
0.0
140
0.0
141
0.0
142
1.0
143
1.0
 70
   688
 72
     0
 73
     0
 74
     5
  7

 75
    16
147
1.0
148
0.0
149
0.0
100
AcDbLayout
  1
Layout1
 70
     0
 71
     1
 10
0.0
 20
0.0
 11
12.0
 21
9.0
 12
0.0
 22
0.0
 32
0.0
 14
1.000000000000000E+20
 24
1.000000000000000E+20
 34
1.000000000000000E+20
 15
-1.000000000000000E+20
 25
-1.000000000000000E+20
 35
-1.000000000000000E+20
146
0.0
 13
0.0
 23
0.0
 33
0.0
 16
1.0
 26
0.0
 36
0.0
 17
0.0
 27
1.0
 37
0.0
 76
     0
330
E
  0
LAYOUT
  5
C
102
{ACAD_REACTORS
330
D
102
}
102
{ACAD_XDICTIONARY
360
276
102
}
330
D
100
AcDbPlotSettings
  1

  2
HP LaserJet 2100 Series PS
  4
Letter
  6

 40
3.174999952316284
 41
3.174999952316284
 42
3.175003051757813
 43
3.17498779296875
 44
215.9000091552734
 45
279.3999938964844
 46
0.0
 47
0.0
 48
0.0
 49
0.0
140
0.0
141
0.0
142
1.0
143
3.255781322003443
 70
 28336
 72
     0
 73
     0
 74
     2
  7

 75
     0
147
0.3071459355214467
148
0.0
149
0.0
100
AcDbLayout
  1
Model
 70
     1
 71
     0
 10
0.0
 20
0.0
 11
12.0
 21
9.0
 12
0.0
 22
0.0
 32
0.0
 14
0.0
 24
0.0
 34
0.0
 15
0.0
 25
0.0
 35
0.0
146
0.0
 13
0.0
 23
0.0
 33
0.0
 16
1.0
 26
0.0
 36
0.0
 17
0.0
 27
1.0
 37
0.0
 76
     0
330
2
  0
MLINESTYLE
  5
27
102
{ACAD_REACTORS
330
24
102
}
330
24
100
AcDbMlineStyle
  2
STANDARD
 70
     0
  3

 62
   256
 51
90.0
 52
90.0
 71
     2
 49
0.5
 62
   256
  6
BYLAYER
 49
-0.5
 62
   256
  6
BYLAYER
  0
ACDBPLACEHOLDER
  5
7
102
{ACAD_REACTORS
330
8
102
}
330
8
  0
ACAD_PROXY_OBJECT
  5
242
102
{ACAD_REACTORS
330
241
102
}
330
241
100
AcDbProxyObject
 90
      499
 91
      525
 95
   983063
 70
     0
 93
     1841
310
4214DD185B99185C9928B81E85EB51B8AE3F2E07A17AD46E2B8FC02B5E8DC0F42B1CFD028000000C1008070000C3001FDFF8000000C1003FBFF000000182007F7FE00000030400FEFFC00000060801FDFF8000000C1003FBFF00000018200000000000000681FA0B0000001820100E000186003FBFF000000182007F7FE000
310
00030400FEFFC00000060801FDFF8000000C1003FBFF000000182007F7FE000000304000AD7A3703D0AC73F4160000003040201C00030C007F7FE00000030400FEFFC00000060801FDFF8000000C1003FBFF000000182007F7FE00000030400FEFFC000000608000
340
16
340
16
340
16
 94
        0
  0
XRECORD
  5
272
102
{ACAD_REACTORS
330
271
102
}
330
271
100
AcDbXrecord
340
240
  0
XRECORD
  5
273
102
{ACAD_REACTORS
330
271
102
}
330
271
100
AcDbXrecord
340
23F
  0
DICTIONARYVAR
  5
26E
102
{ACAD_REACTORS
330
10A
102
}
330
10A
100
DictionaryVariables
280
     0
  1
STANDARD
  0
DICTIONARYVAR
  5
270
102
{ACAD_REACTORS
330
10A
102
}
330
10A
100
DictionaryVariables
280
     0
  1
0
  0
DICTIONARY
  5
274
330
13
100
AcDbDictionary
280
     1
281
     1
  3
ACAD_XREC_ROUNDTRIP
360
275
  0
DICTIONARY
  5
276
330
C
100
AcDbDictionary
280
     1
281
     1
  3
ACAD_XREC_ROUNDTRIP
360
277
  0
XRECORD
  5
275
102
{ACAD_REACTORS
330
274
102
}
330
274
100
AcDbXrecord
102
SHADEPLOT
 70
     0
102
SHADEPLOTRESLEVEL
 70
     2
102
SHADEPLOTCUSTOMDPI
 70
   300
  0
XRECORD
  5
277
102
{ACAD_REACTORS
330
276
102
}
330
276
100
AcDbXrecord
102
SHADEPLOT
 70
     0
102
SHADEPLOTRESLEVEL
 70
     2
102
SHADEPLOTCUSTOMDPI
 70
   300
  0
ENDSEC
  0
EOF
