  0
SECTION
  2
HEADER
  9
$ACADVER
  1
AC1015
  9
$ACADMAINTVER
 70
     6
  9
$DWGCODEPAGE
  3
ANSI_1252
  9
$INSBASE
 10
0.0
 20
0.0
 30
0.0
  9
$EXTMIN
 10
-8.182851173424403
 20
-0.0289949493661161
 30
0.0
  9
$EXTMAX
 10
8.182851173424407
 20
10.81891570813174
 30
0.0
  9
$LIMMIN
 10
0.0
 20
0.0
  9
$LIMMAX
 10
26.6664
 20
34.99965
  9
$ORTHOMODE
 70
     1
  9
$REGENMODE
 70
     1
  9
$FILLMODE
 70
     1
  9
$QTEXTMODE
 70
     0
  9
$MIRRTEXT
 70
     0
  9
$LTSCALE
 40
1.0
  9
$ATTMODE
 70
     1
  9
$TEXTSIZE
 40
0.299997
  9
$TRACEWID
 40
0.05
  9
$TEXTSTYLE
  7
STANDARD
  9
$CLAYER
  8
0
  9
$CELTYPE
  6
BYLAYER
  9
$CECOLOR
 62
   256
  9
$CELTSCALE
 40
1.0
  9
$DISPSILH
 70
     0
  9
$DIMSCALE
 40
3.3333
  9
$DIMASZ
 40
0.125
  9
$DIMEXO
 40
0.062
  9
$DIMDLI
 40
0.375
  9
$DIMRND
 40
0.0
  9
$DIMDLE
 40
0.0
  9
$DIMEXE
 40
0.08
  9
$DIMTP
 40
0.0
  9
$DIMTM
 40
0.0
  9
$DIMTXT
 40
0.09
  9
$DIMCEN
 40
-0.03125
  9
$DIMTSZ
 40
0.0
  9
$DIMTOL
 70
     0
  9
$DIMLIM
 70
     0
  9
$DIMTIH
 70
     1
  9
$DIMTOH
 70
     1
  9
$DIMSE1
 70
     0
  9
$DIMSE2
 70
     0
  9
$DIMTAD
 70
     0
  9
$DIMZIN
 70
     0
  9
$DIMBLK
  1

  9
$DIMASO
 70
     0
  9
$DIMSHO
 70
     0
  9
$DIMPOST
  1

  9
$DIMAPOST
  1

  9
$DIMALT
 70
     0
  9
$DIMALTD
 70
     2
  9
$DIMALTF
 40
25.4
  9
$DIMLFAC
 40
1.0
  9
$DIMTOFL
 70
     0
  9
$DIMTVP
 40
0.0
  9
$DIMTIX
 70
     0
  9
$DIMSOXD
 70
     0
  9
$DIMSAH
 70
     0
  9
$DIMBLK1
  1

  9
$DIMBLK2
  1

  9
$DIMSTYLE
  2
STANDARD
  9
$DIMCLRD
 70
     0
  9
$DIMCLRE
 70
     0
  9
$DIMCLRT
 70
     0
  9
$DIMTFAC
 40
1.0
  9
$DIMGAP
 40
0.08984375
  9
$DIMJUST
 70
     0
  9
$DIMSD1
 70
     0
  9
$DIMSD2
 70
     0
  9
$DIMTOLJ
 70
     1
  9
$DIMTZIN
 70
     0
  9
$DIMALTZ
 70
     0
  9
$DIMALTTZ
 70
     0
  9
$DIMUPT
 70
     0
  9
$DIMDEC
 70
     6
  9
$DIMTDEC
 70
     6
  9
$DIMALTU
 70
     5
  9
$DIMALTTD
 70
     2
  9
$DIMTXSTY
  7
STANDARD
  9
$DIMAUNIT
 70
     0
  9
$DIMADEC
 70
     0
  9
$DIMALTRND
 40
0.0
  9
$DIMAZIN
 70
     0
  9
$DIMDSEP
 70
    46
  9
$DIMATFIT
 70
     3
  9
$DIMFRAC
 70
     2
  9
$DIMLDRBLK
  1

  9
$DIMLUNIT
 70
     5
  9
$DIMLWD
 70
    -2
  9
$DIMLWE
 70
    -2
  9
$DIMTMOVE
 70
     2
  9
$LUNITS
 70
     5
  9
$LUPREC
 70
     6
  9
$SKETCHINC
 40
0.1
  9
$FILLETRAD
 40
0.0
  9
$AUNITS
 70
     0
  9
$AUPREC
 70
     0
  9
$MENU
  1
acad
  9
$ELEVATION
 40
0.0
  9
$PELEVATION
 40
0.0
  9
$THICKNESS
 40
0.0
  9
$LIMCHECK
 70
     0
  9
$CHAMFERA
 40
0.0
  9
$CHAMFERB
 40
0.0
  9
$CHAMFERC
 40
0.0
  9
$CHAMFERD
 40
0.0
  9
$SKPOLY
 70
     0
  9
$TDCREATE
 40
2449876.672437963
  9
$TDUCREATE
 40
2449877.005771296
  9
$TDUPDATE
 40
2454166.77188022
  9
$TDUUPDATE
 40
2454167.105213553
  9
$TDINDWG
 40
0.1505583333
  9
$TDUSRTIMER
 40
0.1505583333
  9
$USRTIMER
 70
     1
  9
$ANGBASE
 50
0.0
  9
$ANGDIR
 70
     0
  9
$PDMODE
 70
     0
  9
$PDSIZE
 40
0.0
  9
$PLINEWID
 40
0.0
  9
$SPLFRAME
 70
     0
  9
$SPLINETYPE
 70
     6
  9
$SPLINESEGS
 70
     8
  9
$HANDSEED
  5
241
  9
$SURFTAB1
 70
     6
  9
$SURFTAB2
 70
     6
  9
$SURFTYPE
 70
     6
  9
$SURFU
 70
     6
  9
$SURFV
 70
     6
  9
$UCSBASE
  2

  9
$UCSNAME
  2

  9
$UCSORG
 10
0.0
 20
0.0
 30
0.0
  9
$UCSXDIR
 10
1.0
 20
0.0
 30
0.0
  9
$UCSYDIR
 10
0.0
 20
1.0
 30
0.0
  9
$UCSORTHOREF
  2

  9
$UCSORTHOVIEW
 70
     0
  9
$UCSORGTOP
 10
0.0
 20
0.0
 30
0.0
  9
$UCSORGBOTTOM
 10
0.0
 20
0.0
 30
0.0
  9
$UCSORGLEFT
 10
0.0
 20
0.0
 30
0.0
  9
$UCSORGRIGHT
 10
0.0
 20
0.0
 30
0.0
  9
$UCSORGFRONT
 10
0.0
 20
0.0
 30
0.0
  9
$UCSORGBACK
 10
0.0
 20
0.0
 30
0.0
  9
$PUCSBASE
  2

  9
$PUCSNAME
  2

  9
$PUCSORG
 10
0.0
 20
0.0
 30
0.0
  9
$PUCSXDIR
 10
1.0
 20
0.0
 30
0.0
  9
$PUCSYDIR
 10
0.0
 20
1.0
 30
0.0
  9
$PUCSORTHOREF
  2

  9
$PUCSORTHOVIEW
 70
     0
  9
$PUCSORGTOP
 10
0.0
 20
0.0
 30
0.0
  9
$PUCSORGBOTTOM
 10
0.0
 20
0.0
 30
0.0
  9
$PUCSORGLEFT
 10
0.0
 20
0.0
 30
0.0
  9
$PUCSORGRIGHT
 10
0.0
 20
0.0
 30
0.0
  9
$PUCSORGFRONT
 10
0.0
 20
0.0
 30
0.0
  9
$PUCSORGBACK
 10
0.0
 20
0.0
 30
0.0
  9
$USERI1
 70
     0
  9
$USERI2
 70
     0
  9
$USERI3
 70
     0
  9
$USERI4
 70
     0
  9
$USERI5
 70
     0
  9
$USERR1
 40
0.0
  9
$USERR2
 40
0.0
  9
$USERR3
 40
0.0
  9
$USERR4
 40
0.0
  9
$USERR5
 40
0.0
  9
$WORLDVIEW
 70
     1
  9
$SHADEDGE
 70
     3
  9
$SHADEDIF
 70
    70
  9
$TILEMODE
 70
     1
  9
$MAXACTVP
 70
    16
  9
$PINSBASE
 10
0.0
 20
0.0
 30
0.0
  9
$PLIMCHECK
 70
     0
  9
$PEXTMIN
 10
1.000000000000000E+20
 20
1.000000000000000E+20
 30
1.000000000000000E+20
  9
$PEXTMAX
 10
-1.000000000000000E+20
 20
-1.000000000000000E+20
 30
-1.000000000000000E+20
  9
$PLIMMIN
 10
0.0
 20
0.0
  9
$PLIMMAX
 10
12.0
 20
9.0
  9
$UNITMODE
 70
     0
  9
$VISRETAIN
 70
     0
  9
$PLINEGEN
 70
     1
  9
$PSLTSCALE
 70
     0
  9
$TREEDEPTH
 70
  3020
  9
$CMLSTYLE
  2
STANDARD
  9
$CMLJUST
 70
     0
  9
$CMLSCALE
 40
1.0
  9
$PROXYGRAPHICS
 70
     1
  9
$MEASUREMENT
 70
     0
  9
$CELWEIGHT
370
    -1
  9
$ENDCAPS
280
     0
  9
$JOINSTYLE
280
     0
  9
$LWDISPLAY
290
     0
  9
$INSUNITS
 70
     0
  9
$HYPERLINKBASE
  1

  9
$STYLESHEET
  1

  9
$XEDIT
290
     1
  9
$CEPSNTYPE
380
     0
  9
$PSTYLEMODE
290
     1
  9
$FINGERPRINTGUID
  2
{C9A17611-02A6-474E-86DF-214716A7D132}
  9
$VERSIONGUID
  2
{E773EF03-9771-4D5C-9248-246431D200A4}
  9
$EXTNAMES
290
     1
  9
$PSVPSCALE
 40
0.0
  9
$OLESTARTUP
290
     0
  0
ENDSEC
  0
SECTION
  2
CLASSES
  0
CLASS
  1
DICTIONARYVAR
  2
AcDbDictionaryVar
  3
AutoCAD 2000
 90
        0
280
     0
281
     0
  0
CLASS
  1
LWPOLYLINE
  2
AcDbPolyline
  3
AutoCAD 2000
 90
        0
280
     0
281
     1
  0
CLASS
  1
ACDBDICTIONARYWDFLT
  2
AcDbDictionaryWithDefault
  3
AutoCAD 2000
 90
        0
280
     0
281
     0
  0
CLASS
  1
ACDBPLACEHOLDER
  2
AcDbPlaceHolder
  3
ObjectDBX Classes
 90
        0
280
     0
281
     0
  0
CLASS
  1
LAYOUT
  2
AcDbLayout
  3
ObjectDBX Classes
 90
        0
280
     0
281
     0
  0
CLASS
  1
LONG_TRANSACTION
  2
AcDbLongTransaction
  3
ObjectDBX Classes
 90
   -65536
280
     1
281
     0
  0
CLASS
  1
LWPOLYLINE
  2
AcDbPolyline
  3
AutoCAD 2000
 90
        0
280
     0
281
     1
  0
CLASS
  1
HATCH
  2
AcDbHatch
  3
AutoCAD 2000
 90
        0
280
     0
281
     1
  0
CLASS
  1
XRECORD
  2
AcDbXrecord
  3
AutoCAD 2000
 90
        0
280
     0
281
     0
  0
CLASS
  1
LONG_TRANSACTION
  2
AcDbLongTransaction
  3
ObjectDBX Classes
 90
   -65536
280
     1
281
     0
  0
CLASS
  1
LWPOLYLINE
  2
AcDbPolyline
  3
AutoCAD 2000
 90
        0
280
     0
281
     1
  0
CLASS
  1
HATCH
  2
AcDbHatch
  3
AutoCAD 2000
 90
        0
280
     0
281
     1
  0
CLASS
  1
XRECORD
  2
AcDbXrecord
  3
AutoCAD 2000
 90
        0
280
     0
281
     0
  0
CLASS
  1
LONG_TRANSACTION
  2
AcDbLongTransaction
  3
ObjectDBX Classes
 90
   -65536
280
     1
281
     0
  0
CLASS
  1
LWPOLYLINE
  2
AcDbPolyline
  3
AutoCAD 2000
 90
        0
280
     0
281
     1
  0
CLASS
  1
HATCH
  2
AcDbHatch
  3
AutoCAD 2000
 90
        0
280
     0
281
     1
  0
CLASS
  1
XRECORD
  2
AcDbXrecord
  3
AutoCAD 2000
 90
        0
280
     0
281
     0
  0
CLASS
  1
LONG_TRANSACTION
  2
AcDbLongTransaction
  3
ObjectDBX Classes
 90
   -65536
280
     1
281
     0
  0
CLASS
  1
LWPOLYLINE
  2
AcDbPolyline
  3
AutoCAD 2000
 90
        0
280
     0
281
     1
  0
CLASS
  1
HATCH
  2
AcDbHatch
  3
AutoCAD 2000
 90
        0
280
     0
281
     1
  0
CLASS
  1
XRECORD
  2
AcDbXrecord
  3
AutoCAD 2000
 90
        0
280
     0
281
     0
  0
CLASS
  1
LONG_TRANSACTION
  2
AcDbLongTransaction
  3
ObjectDBX Classes
 90
   -65536
280
     1
281
     0
  0
CLASS
  1
LWPOLYLINE
  2
AcDbPolyline
  3
AutoCAD 2000
 90
        0
280
     0
281
     1
  0
CLASS
  1
HATCH
  2
AcDbHatch
  3
AutoCAD 2000
 90
        0
280
     0
281
     1
  0
CLASS
  1
XRECORD
  2
AcDbXrecord
  3
AutoCAD 2000
 90
        0
280
     0
281
     0
  0
CLASS
  1
LONG_TRANSACTION
  2
AcDbLongTransaction
  3
ObjectDBX Classes
 90
   -65536
280
     1
281
     0
  0
CLASS
  1
LWPOLYLINE
  2
AcDbPolyline
  3
AutoCAD 2000
 90
        0
280
     0
281
     1
  0
CLASS
  1
HATCH
  2
AcDbHatch
  3
AutoCAD 2000
 90
        0
280
     0
281
     1
  0
CLASS
  1
XRECORD
  2
AcDbXrecord
  3
AutoCAD 2000
 90
        0
280
     0
281
     0
  0
CLASS
  1
LONG_TRANSACTION
  2
AcDbLongTransaction
  3
ObjectDBX Classes
 90
   -65536
280
     1
281
     0
  0
CLASS
  1
LWPOLYLINE
  2
AcDbPolyline
  3
AutoCAD 2000
 90
        0
280
     0
281
     1
  0
CLASS
  1
HATCH
  2
AcDbHatch
  3
AutoCAD 2000
 90
        0
280
     0
281
     1
  0
CLASS
  1
XRECORD
  2
AcDbXrecord
  3
AutoCAD 2000
 90
        0
280
     0
281
     0
  0
CLASS
  1
TABLESTYLE
  2
AcDbTableStyle
  3
ObjectDBX Classes
 90
     2047
280
     1
281
     0
  0
ENDSEC
  0
SECTION
  2
TABLES
  0
TABLE
  2
VPORT
  5
1D
330
0
100
AcDbSymbolTable
 70
     2
  0
VPORT
  5
233
330
1D
100
AcDbSymbolTableRecord
100
AcDbViewportTableRecord
  2
*Active
 70
     0
 10
0.0
 20
0.0
 11
1.0
 21
1.0
 12
1.838709138925994
 22
6.452596280413546
 13
0.0
 23
0.0
 14
0.063
 24
0.063
 15
0.25
 25
0.25
 16
0.0
 26
0.0
 36
1.0
 17
0.0
 27
0.0
 37
0.0
 40
13.74139199907774
 41
1.814583333333333
 42
50.0
 43
0.0
 44
0.0
 50
0.0
 51
0.0
 71
     0
 72
   100
 73
     1
 74
     0
 75
     0
 76
     0
 77
     0
 78
     0
281
     0
 65
     1
110
0.0
120
0.0
130
0.0
111
1.0
121
0.0
131
0.0
112
0.0
122
1.0
132
0.0
 79
     0
146
0.0
  0
ENDTAB
  0
TABLE
  2
LTYPE
  5
18
330
0
100
AcDbSymbolTable
 70
     2
  0
LTYPE
  5
19
330
18
100
AcDbSymbolTableRecord
100
AcDbLinetypeTableRecord
  2
BYBLOCK
 70
     0
  3

 72
    65
 73
     0
 40
0.0
  0
LTYPE
  5
1A
330
18
100
AcDbSymbolTableRecord
100
AcDbLinetypeTableRecord
  2
BYLAYER
 70
     0
  3

 72
    65
 73
     0
 40
0.0
  0
LTYPE
  5
A
330
18
100
AcDbSymbolTableRecord
100
AcDbLinetypeTableRecord
  2
CONTINUOUS
 70
     0
  3
Solid line
 72
    65
 73
     0
 40
0.0
  0
LTYPE
  5
232
330
18
100
AcDbSymbolTableRecord
100
AcDbLinetypeTableRecord
  2
HIDDEN
 70
     0
  3
Hidden __ __ __ __ __ __ __ __ __ __ __ __ __ _
 72
    65
 73
     2
 40
0.375
 49
0.25
 74
     0
 49
-0.125
 74
     0
  0
ENDTAB
  0
TABLE
  2
LAYER
  5
14
330
0
100
AcDbSymbolTable
 70
     1
  0
LAYER
  5
6
330
14
100
AcDbSymbolTableRecord
100
AcDbLayerTableRecord
  2
0
 70
     0
 62
     7
  6
CONTINUOUS
370
    -3
390
7
  0
ENDTAB
  0
TABLE
  2
STYLE
  5
15
330
0
100
AcDbSymbolTable
 70
     2
  0
STYLE
  5
16
330
15
100
AcDbSymbolTableRecord
100
AcDbTextStyleTableRecord
  2
STANDARD
 70
     0
 40
0.0
 41
1.0
 50
0.0
 71
     0
 42
0.299997
  3
TXT
  4

  0
STYLE
  5
231
330
15
100
AcDbSymbolTableRecord
100
AcDbTextStyleTableRecord
  2

 70
     1
 40
0.0
 41
1.0
 50
0.0
 71
     0
 42
0.299997
  3
ltypeshp.shx
  4

  0
ENDTAB
  0
TABLE
  2
VIEW
  5
1B
330
0
100
AcDbSymbolTable
 70
     0
  0
ENDTAB
  0
TABLE
  2
UCS
  5
1C
330
0
100
AcDbSymbolTable
 70
     0
  0
ENDTAB
  0
TABLE
  2
APPID
  5
1F
330
0
100
AcDbSymbolTable
 70
     1
  0
APPID
  5
20
330
1F
100
AcDbSymbolTableRecord
100
AcDbRegAppTableRecord
  2
ACAD
 70
     0
  0
ENDTAB
  0
TABLE
  2
DIMSTYLE
  5
21
330
0
100
AcDbSymbolTable
 70
     1
100
AcDbDimStyleTable
  0
DIMSTYLE
105
28
330
21
100
AcDbSymbolTableRecord
100
AcDbDimStyleTableRecord
  2
STANDARD
 70
     0
  3

  4

340
16
  0
ENDTAB
  0
TABLE
  2
BLOCK_RECORD
  5
1
330
0
100
AcDbSymbolTable
 70
     0
  0
BLOCK_RECORD
  5
2
330
1
100
AcDbSymbolTableRecord
100
AcDbBlockTableRecord
  2
*MODEL_SPACE
340
C
  0
BLOCK_RECORD
  5
E
330
1
100
AcDbSymbolTableRecord
100
AcDbBlockTableRecord
  2
*PAPER_SPACE
340
13
  0
ENDTAB
  0
ENDSEC
  0
SECTION
  2
BLOCKS
  0
BLOCK
  5
5
330
2
100
AcDbEntity
  8
0
100
AcDbBlockBegin
  2
*MODEL_SPACE
 70
     0
 10
0.0
 20
0.0
 30
0.0
  3
*MODEL_SPACE
  1

  4

  0
ENDBLK
  5
B
330
2
100
AcDbEntity
  8
0
100
AcDbBlockEnd
  0
BLOCK
  5
11
330
E
100
AcDbEntity
 67
     1
  8
0
100
AcDbBlockBegin
  2
*PAPER_SPACE
 70
     0
 10
0.0
 20
0.0
 30
0.0
  3
*PAPER_SPACE
  1

  4

  0
ENDBLK
  5
12
330
E
100
AcDbEntity
 67
     1
  8
0
100
AcDbBlockEnd
  0
ENDSEC
  0
SECTION
  2
ENTITIES
  0
LINE
  5
D3
330
2
100
AcDbEntity
  8
0
100
AcDbLine
 10
-2.397341292761419
 20
4.071006426667072
 30
0.0
 11
-2.397341292761419
 21
3.471006426667071
 31
0.0
  0
LINE
  5
D4
330
2
100
AcDbEntity
  8
0
100
AcDbLine
 10
-1.562499999999997
 20
0.1400000000000006
 30
0.0
 11
-1.562499999999997
 21
5.257500000000004
 31
0.0
  0
LINE
  5
D5
330
2
100
AcDbEntity
  8
0
100
AcDbLine
 10
-1.632499999999994
 20
0.1400000000000006
 30
0.0
 11
-1.632499999999994
 21
5.257500000000004
 31
0.0
  0
LINE
  5
D6
330
2
100
AcDbEntity
  8
0
100
AcDbLine
 10
1.632500000000001
 20
0.1400000000000006
 30
0.0
 11
1.632500000000001
 21
5.257500000000004
 31
0.0
  0
LINE
  5
D7
330
2
100
AcDbEntity
  8
0
100
AcDbLine
 10
1.562500000000003
 20
0.1400000000000006
 30
0.0
 11
1.562500000000003
 21
5.257500000000004
 31
0.0
  0
LINE
  5
D8
330
2
100
AcDbEntity
  8
0
100
AcDbLine
 10
2.397341292761424
 20
4.071006426667072
 30
0.0
 11
2.397341292761424
 21
3.471006426667071
 31
0.0
  0
LINE
  5
D9
330
2
100
AcDbEntity
  8
0
100
AcDbLine
 10
-1.632499999999998
 20
0.9031192372166537
 30
0.0
 11
-2.673818155573106
 21
2.315964253707644
 31
0.0
  0
ARC
  5
DA
330
2
100
AcDbEntity
  8
0
100
AcDbCircle
 10
-2.521243129721843
 20
2.424946415029975
 30
0.0
 40
0.1875
100
AcDbArc
 50
180.0
 51
215.5376777919745
  0
LINE
  5
DB
330
2
100
AcDbEntity
  8
0
100
AcDbLine
 10
-2.700372927641252
 20
2.424946415029975
 30
0.0
 11
-2.700372927641252
 21
3.114859217515875
 31
0.0
  0
CIRCLE
  5
DC
330
2
100
AcDbEntity
  8
0
100
AcDbCircle
 10
-2.396243129721843
 20
2.755484217515875
 30
0.0
 40
0.0855
  0
ARC
  5
DD
330
2
100
AcDbEntity
  8
0
100
AcDbCircle
 10
-2.597341292761421
 20
3.471006426667071
 30
0.0
 40
0.2
100
AcDbArc
 50
282.6356250930186
 51
0.0000000000000254
  0
ARC
  5
DE
330
2
100
AcDbEntity
  8
0
100
AcDbCircle
 10
-2.509841292761423
 20
3.080694051767107
 30
0.0
 40
0.2
100
AcDbArc
 50
102.6356250930189
 51
180.0
  0
LINE
  5
DF
330
2
100
AcDbEntity
  8
0
100
AcDbLine
 10
1.492500000000001
 20
0.0
 30
0.0
 11
-1.492499999999997
 21
0.0
 31
0.0
  0
LINE
  5
E0
330
2
100
AcDbEntity
  8
0
100
AcDbLine
 10
1.492500000000002
 20
0.0700000000000003
 30
0.0
 11
-1.492499999999997
 21
0.0699999999999985
 31
0.0
  0
LINE
  5
E1
330
2
100
AcDbEntity
  8
0
100
AcDbLine
 10
-1.632499999999994
 20
0.9331366434234916
 30
0.0
 11
-1.632499999999994
 21
1.209811643423489
 31
0.0
  0
ARC
  5
E3
330
2
100
AcDbEntity
  8
0
100
AcDbCircle
 10
-1.492499999999994
 20
0.1400000000000006
 30
0.0
 40
0.14
100
AcDbArc
 50
180.0
 51
270.0
  0
ARC
  5
E4
330
2
100
AcDbEntity
  8
0
100
AcDbCircle
 10
-1.492499999999997
 20
0.1400000000000006
 30
0.0
 40
0.14
100
AcDbArc
 50
180.0
 51
270.0
  0
ARC
  5
E5
330
2
100
AcDbEntity
  8
0
100
AcDbCircle
 10
-1.492499999999997
 20
0.1400000000000006
 30
0.0
 40
0.07
100
AcDbArc
 50
180.0
 51
270.0
  0
ARC
  5
E6
330
2
100
AcDbEntity
  8
0
100
AcDbCircle
 10
-1.492499999999997
 20
0.1399999999999988
 30
0.0
 40
0.07
100
AcDbArc
 50
180.0
 51
270.0
  0
LINE
  5
E8
330
2
100
AcDbEntity
  8
0
100
AcDbLine
 10
1.632500000000005
 20
0.9031192372166537
 30
0.0
 11
2.673818155573112
 21
2.315964253707644
 31
0.0
  0
ARC
  5
E9
330
2
100
AcDbEntity
  8
0
100
AcDbCircle
 10
1.492500000000001
 20
0.1400000000000006
 30
0.0
 40
0.14
100
AcDbArc
 50
270.0
 51
0.0
  0
ARC
  5
EA
330
2
100
AcDbEntity
  8
0
100
AcDbCircle
 10
1.492500000000002
 20
0.1400000000000006
 30
0.0
 40
0.07
100
AcDbArc
 50
270.0
 51
0.0
  0
ARC
  5
EB
330
2
100
AcDbEntity
  8
0
100
AcDbCircle
 10
2.521243129721849
 20
2.424946415029975
 30
0.0
 40
0.1875
100
AcDbArc
 50
324.4623222080255
 51
0.0
  0
ARC
  5
EC
330
2
100
AcDbEntity
  8
0
100
AcDbCircle
 10
2.509841292761428
 20
3.080694051767107
 30
0.0
 40
0.2
100
AcDbArc
 50
0.0
 51
77.36437490698107
  0
LINE
  5
EF
330
2
100
AcDbEntity
  8
0
100
AcDbLine
 10
1.632500000000001
 20
1.430301295314362
 30
0.0
 11
1.632500000000001
 21
1.706976295314359
 31
0.0
  0
CIRCLE
  5
F0
330
2
100
AcDbEntity
  8
0
100
AcDbCircle
 10
2.396243129721849
 20
2.754543077266799
 30
0.0
 40
0.0855
  0
ARC
  5
F1
330
2
100
AcDbEntity
  8
0
100
AcDbCircle
 10
2.597341292761427
 20
3.471006426667071
 30
0.0
 40
0.2
100
AcDbArc
 50
180.0
 51
257.3643749069813
  0
LINE
  5
F2
330
2
100
AcDbEntity
  8
0
100
AcDbLine
 10
2.700372927641257
 20
2.424946415029975
 30
0.0
 11
2.700372927641257
 21
3.114859217515875
 31
0.0
  0
LINE
  5
F3
330
2
100
AcDbEntity
  8
0
100
AcDbLine
 10
-1.562499999999997
 20
5.257500000000004
 30
0.0
 11
-2.717113331802438
 21
5.257500000000004
 31
0.0
  0
LINE
  5
F4
330
2
100
AcDbEntity
  8
0
100
AcDbLine
 10
-2.717113331802438
 20
4.438655262220077
 30
0.0
 11
-2.717113331802438
 21
5.257500000000004
 31
0.0
  0
ARC
  5
F5
330
2
100
AcDbEntity
  8
0
100
AcDbCircle
 10
-2.509841292761423
 20
4.461318801567028
 30
0.0
 40
0.2
100
AcDbArc
 50
180.0
 51
257.3643749069807
  0
ARC
  5
F6
330
2
100
AcDbEntity
  8
0
100
AcDbCircle
 10
-2.597341292761418
 20
4.071006426667072
 30
0.0
 40
0.2
100
AcDbArc
 50
0.0000000000000254
 51
77.36437490698125
  0
CIRCLE
  5
F7
330
2
100
AcDbEntity
  8
0
100
AcDbCircle
 10
-2.396243129721843
 20
4.755484217515875
 30
0.0
 40
0.0855
  0
LINE
  5
FA
330
2
100
AcDbEntity
  8
0
100
AcDbLine
 10
-1.632499999999994
 20
3.802952051810813
 30
0.0
 11
-1.632499999999994
 21
4.079627051810814
 31
0.0
  0
ARC
  5
FB
330
2
100
AcDbEntity
  8
0
100
AcDbCircle
 10
-1.632499999999994
 20
4.757500000000004
 30
0.0
 40
0.25
100
AcDbArc
 50
90.0
 51
270.0
  0
LINE
  5
FC
330
2
100
AcDbEntity
  8
0
100
AcDbLine
 10
1.562500000000003
 20
5.257500000000004
 30
0.0
 11
2.717113331802445
 21
5.257500000000004
 31
0.0
  0
ARC
  5
FD
330
2
100
AcDbEntity
  8
0
100
AcDbCircle
 10
2.509841292761428
 20
4.461318801567028
 30
0.0
 40
0.2
100
AcDbArc
 50
282.6356250930193
 51
0.0
  0
LINE
  5
FE
330
2
100
AcDbEntity
  8
0
100
AcDbLine
 10
1.632500000000001
 20
3.868293695540878
 30
0.0
 11
1.632500000000001
 21
4.144968695540879
 31
0.0
  0
ARC
  5
101
330
2
100
AcDbEntity
  8
0
100
AcDbCircle
 10
1.632500000000001
 20
4.757500000000004
 30
0.0
 40
0.25
100
AcDbArc
 50
270.0
 51
90.0
  0
ARC
  5
102
330
2
100
AcDbEntity
  8
0
100
AcDbCircle
 10
2.597341292761423
 20
4.071006426667072
 30
0.0
 40
0.2
100
AcDbArc
 50
102.6356250930187
 51
180.0
  0
CIRCLE
  5
103
330
2
100
AcDbEntity
  8
0
100
AcDbCircle
 10
2.396243129721849
 20
4.754543077266799
 30
0.0
 40
0.0855
  0
LINE
  5
104
330
2
100
AcDbEntity
  8
0
100
AcDbLine
 10
2.717113331802444
 20
4.438655262220077
 30
0.0
 11
2.717113331802445
 21
5.257500000000004
 31
0.0
  0
LINE
  5
105
330
2
100
AcDbEntity
  8
0
100
AcDbLine
 10
-1.627339444115386
 20
10.72302736048341
 30
0.0
 11
-2.74336545912101
 21
10.72302736048341
 31
0.0
  0
LINE
  5
106
330
2
100
AcDbEntity
  8
0
100
AcDbLine
 10
-1.608239322720654
 20
10.79302736048342
 30
0.0
 11
-2.74336545912101
 21
10.79302736048341
 31
0.0
  0
LINE
  5
107
330
2
100
AcDbEntity
  8
0
100
AcDbLine
 10
-2.74336545912101
 20
10.79302736048341
 30
0.0
 11
-2.74336545912101
 21
10.72674519684906
 31
0.0
  0
LINE
  5
108
330
2
100
AcDbEntity
  8
0
100
AcDbLine
 10
0.710042769604109
 20
10.56981440759569
 30
0.0
 11
1.56766055588461
 21
10.5698144075957
 31
0.0
  0
LINE
  5
109
330
2
100
AcDbEntity
  8
0
100
AcDbLine
 10
0.7124336355822889
 20
8.569489035257693
 30
0.0
 11
1.56766055588461
 21
8.56981440759569
 31
0.0
  0
LINE
  5
10A
330
2
100
AcDbEntity
  8
0
100
AcDbLine
 10
-1.483239322720654
 20
8.56981440759569
 30
0.0
 11
-1.483239322720654
 21
10.56981440759568
 31
0.0
  0
LINE
  5
10B
330
2
100
AcDbEntity
  8
0
100
AcDbLine
 10
-1.55733944411539
 20
9.574519403443592
 30
0.0
 11
-1.557339444115386
 21
10.65302736048342
 31
0.0
  0
LINE
  5
10C
330
2
100
AcDbEntity
  8
0
100
AcDbLine
 10
-1.55733944411539
 20
10.56981440759569
 30
0.0
 11
-1.55733944411539
 21
8.56981440759569
 31
0.0
  0
LINE
  5
10D
330
2
100
AcDbEntity
  8
0
100
AcDbLine
 10
-0.7363081923613821
 20
8.56947977746454
 30
0.0
 11
0.5405292391814554
 21
8.569157534690106
 31
0.0
  0
LINE
  5
10E
330
2
100
AcDbEntity
  8
0
100
AcDbLine
 10
-1.55733944411539
 20
8.56981440759569
 30
0.0
 11
-0.9082125887621126
 21
8.569148276896954
 31
0.0
  0
LINE
  5
10F
330
2
100
AcDbEntity
  8
0
100
AcDbLine
 10
-1.478630632813855
 20
8.56981440759569
 30
0.0
 11
-1.55733944411539
 21
8.569814407595683
 31
0.0
  0
ARC
  5
110
330
2
100
AcDbEntity
  8
0
100
AcDbCircle
 10
-0.8218075162190397
 20
8.569139748225418
 30
0.0
 40
0.0855
100
AcDbArc
 50
0.2278630604534111
 51
89.76337813599629
  0
ARC
  5
111
330
2
100
AcDbEntity
  8
0
100
AcDbCircle
 10
-0.822712588762113
 20
8.569148276896954
 30
0.0
 40
0.0855
100
AcDbArc
 50
89.15683566431996
 51
180.0000000000001
  0
LINE
  5
112
330
2
100
AcDbEntity
  8
0
100
AcDbLine
 10
-1.556867686888999
 20
9.273795160325435
 30
0.0
 11
-1.678025005772247
 21
9.167609280349417
 31
0.0
  0
LINE
  5
113
330
2
100
AcDbEntity
  8
0
100
AcDbLine
 10
-1.699638322748107
 20
9.18854718116976
 30
0.0
 11
-1.574939827865442
 21
9.298910414435895
 31
0.0
  0
LINE
  5
114
330
2
100
AcDbEntity
  8
0
100
AcDbLine
 10
-1.677794531556117
 20
9.16781127481147
 30
0.0
 11
-1.556867686888999
 21
9.117962627105257
 31
0.0
  0
LINE
  5
115
330
2
100
AcDbEntity
  8
0
100
AcDbLine
 10
-1.678025005772247
 20
9.167609280349417
 30
0.0
 11
-1.699638322748107
 21
9.18854718116976
 31
0.0
  0
ARC
  5
116
330
2
100
AcDbEntity
  8
0
100
AcDbCircle
 10
-1.618867686888996
 20
9.342663622336644
 30
0.0
 40
0.062
100
AcDbArc
 50
315.1141267931652
 51
0.0000000000000439
  0
ARC
  5
117
330
2
100
AcDbEntity
  8
0
100
AcDbCircle
 10
0.626029239181455
 20
8.569157534690106
 30
0.0
 40
0.0855
100
AcDbArc
 50
89.15683566431996
 51
180.0000000000001
  0
ARC
  5
118
330
2
100
AcDbEntity
  8
0
100
AcDbCircle
 10
0.6269343117246313
 20
8.56914900601857
 30
0.0
 40
0.0855
100
AcDbArc
 50
0.2278630604534111
 51
89.76337813599629
  0
LINE
  5
119
330
2
100
AcDbEntity
  8
0
100
AcDbLine
 10
-0.7400827085307791
 20
10.56856781400835
 30
0.0
 11
0.5410977317979411
 21
10.56981440759569
 31
0.0
  0
LINE
  5
11A
330
2
100
AcDbEntity
  8
0
100
AcDbLine
 10
-1.55733944411539
 20
10.5698144075957
 30
0.0
 11
-0.9094707608185439
 21
10.56889931457594
 31
0.0
  0
ARC
  5
11B
330
2
100
AcDbEntity
  8
0
100
AcDbCircle
 10
-1.608239322720654
 20
10.66802736048342
 30
0.0
 40
0.125
100
AcDbArc
 50
0.0
 51
90.0
  0
ARC
  5
11C
330
2
100
AcDbEntity
  8
0
100
AcDbCircle
 10
-1.627339444115386
 20
10.65302736048342
 30
0.0
 40
0.07
100
AcDbArc
 50
359.9999999999999
 51
90.0
  0
LINE
  5
11D
330
2
100
AcDbEntity
  8
0
100
AcDbLine
 10
-1.483239322720654
 20
10.66802736048342
 30
0.0
 11
-1.483239322720654
 21
10.56981440759569
 31
0.0
  0
LINE
  5
11E
330
2
100
AcDbEntity
  8
0
100
AcDbLine
 10
-1.478630632813855
 20
10.56981440759568
 30
0.0
 11
-1.483239322720654
 21
10.56981440759568
 31
0.0
  0
ARC
  5
11F
330
2
100
AcDbEntity
  8
0
100
AcDbCircle
 10
-0.8255820323884366
 20
10.56890784324747
 30
0.0
 40
0.0855
100
AcDbArc
 50
270.2366218640037
 51
359.7721369395466
  0
ARC
  5
120
330
2
100
AcDbEntity
  8
0
100
AcDbCircle
 10
-0.8239707608185443
 20
10.56889931457594
 30
0.0
 40
0.0855
100
AcDbArc
 50
180.0
 51
270.8431643356801
  0
ARC
  5
121
330
2
100
AcDbEntity
  8
0
100
AcDbCircle
 10
0.626029239181455
 20
10.56889931457594
 30
0.0
 40
0.0855
100
AcDbArc
 50
180.0
 51
270.8431643356801
  0
ARC
  5
122
330
2
100
AcDbEntity
  8
0
100
AcDbCircle
 10
0.6240570728409294
 20
10.56890857236909
 30
0.0
 40
0.0855
100
AcDbArc
 50
270.2366218640037
 51
359.7721369395466
  0
LINE
  5
123
330
2
100
AcDbEntity
  8
0
100
AcDbLine
 10
1.49766055588461
 20
10.5698144075957
 30
0.0
 11
1.49766055588461
 21
8.56981440759569
 31
0.0
  0
LINE
  5
124
330
2
100
AcDbEntity
  8
0
100
AcDbLine
 10
1.56766055588461
 20
9.574519403443592
 30
0.0
 11
1.56766055588461
 21
10.43930105710208
 31
0.0
  0
LINE
  5
125
330
2
100
AcDbEntity
  8
0
100
AcDbLine
 10
1.56766055588461
 20
10.65302736048342
 30
0.0
 11
1.56766055588461
 21
8.56981440759569
 31
0.0
  0
LINE
  5
126
330
2
100
AcDbEntity
  8
0
100
AcDbLine
 10
1.28336936718615
 20
8.56981440759569
 30
0.0
 11
1.56766055588461
 21
8.56981440759569
 31
0.0
  0
ARC
  5
127
330
2
100
AcDbEntity
  8
0
100
AcDbCircle
 10
1.629660555884608
 20
9.342663622336644
 30
0.0
 40
0.062
100
AcDbArc
 50
179.9999999999999
 51
224.8858732068348
  0
LINE
  5
128
330
2
100
AcDbEntity
  8
0
100
AcDbLine
 10
1.688817874767859
 20
9.167609280349417
 30
0.0
 11
1.710431191743719
 21
9.18854718116976
 31
0.0
  0
LINE
  5
129
330
2
100
AcDbEntity
  8
0
100
AcDbLine
 10
1.710431191743719
 20
9.18854718116976
 30
0.0
 11
1.585732696861053
 21
9.298910414435895
 31
0.0
  0
LINE
  5
12A
330
2
100
AcDbEntity
  8
0
100
AcDbLine
 10
1.56766055588461
 20
9.273795160325435
 30
0.0
 11
1.688817874767859
 21
9.167609280349417
 31
0.0
  0
LINE
  5
12B
330
2
100
AcDbEntity
  8
0
100
AcDbLine
 10
1.688587400551728
 20
9.16781127481147
 30
0.0
 11
1.56766055588461
 21
9.117962627105257
 31
0.0
  0
LINE
  5
12C
330
2
100
AcDbEntity
  8
0
100
AcDbLine
 10
1.62266055588461
 20
10.79302736048341
 30
0.0
 11
2.7558880781165
 21
10.79302736048341
 31
0.0
  0
LINE
  5
12D
330
2
100
AcDbEntity
  8
0
100
AcDbLine
 10
1.637660555884611
 20
10.72302736048341
 30
0.0
 11
2.7558880781165
 21
10.72302736048341
 31
0.0
  0
ARC
  5
12E
330
2
100
AcDbEntity
  8
0
100
AcDbCircle
 10
1.62266055588461
 20
10.66802736048341
 30
0.0
 40
0.125
100
AcDbArc
 50
90.0
 51
180.0
  0
LINE
  5
12F
330
2
100
AcDbEntity
  8
0
100
AcDbLine
 10
1.49766055588461
 20
10.56981440759569
 30
0.0
 11
1.49766055588461
 21
10.66802736048341
 31
0.0
  0
LINE
  5
130
330
2
100
AcDbEntity
  8
0
100
AcDbLine
 10
1.28336936718615
 20
10.56981440759568
 30
0.0
 11
1.49766055588461
 21
10.56981440759568
 31
0.0
  0
ARC
  5
131
330
2
100
AcDbEntity
  8
0
100
AcDbCircle
 10
1.637660555884611
 20
10.65302736048342
 30
0.0
 40
0.07
100
AcDbArc
 50
90.0
 51
180.0
  0
LINE
  5
132
330
2
100
AcDbEntity
  8
0
100
AcDbLine
 10
2.7558880781165
 20
10.79302736048341
 30
0.0
 11
2.7558880781165
 21
10.72674519684906
 31
0.0
  0
LINE
  5
133
330
2
100
AcDbEntity
  8
0
100
AcDbLine
 10
8.182851173424403
 20
2.683118473996668
 30
0.0
 11
8.1828511734244
 21
5.257499999999997
 31
0.0
  0
LINE
  5
134
330
2
100
AcDbEntity
  8
0
100
AcDbLine
 10
6.887864199551388
 20
4.079412541273147
 30
0.0
 11
6.887864199551388
 21
3.479412541273145
 31
0.0
  0
LINE
  5
135
330
2
100
AcDbEntity
  8
0
100
AcDbLine
 10
8.112851173424403
 20
2.683118473996668
 30
0.0
 11
8.112851173424399
 21
5.257499999999997
 31
0.0
  0
LINE
  5
136
330
2
100
AcDbEntity
  8
0
100
AcDbLine
 10
7.933721375504995
 20
0.0014741434234846
 30
0.0
 11
5.933721375504999
 21
0.0014741434234864
 31
0.0
  0
LINE
  5
137
330
2
100
AcDbEntity
  8
0
  6
HIDDEN
100
AcDbLine
 10
7.933721375504995
 20
0.0714741434234849
 30
0.0
 11
5.933721375504999
 21
0.0714741434234867
 31
0.0
  0
LINE
  5
138
330
2
100
AcDbEntity
  8
0
100
AcDbLine
 10
5.968646349653739
 20
0.7149685570207041
 30
0.0
 11
7.154647643434459
 21
2.324370368313719
 31
0.0
  0
LINE
  5
139
330
2
100
AcDbEntity
  8
0
100
AcDbLine
 10
5.933721375504995
 20
0.0014741434234882
 30
0.0
 11
5.933721375505002
 21
0.6059863956983733
 31
0.0
  0
ARC
  5
13A
330
2
100
AcDbEntity
  8
0
100
AcDbCircle
 10
6.121221375505002
 20
0.6059863956983733
 30
0.0
 40
0.1875
100
AcDbArc
 50
144.4623222080256
 51
179.9999999999999
  0
LINE
  5
13B
330
2
100
AcDbEntity
  8
0
100
AcDbLine
 10
7.179832708005546
 20
1.423629789271503
 30
0.0
 11
7.179832708005546
 21
1.7003047892715
 31
0.0
  0
LINE
  5
13E
330
2
100
AcDbEntity
  8
0
100
AcDbLine
 10
7.968646349653732
 20
0.7231602959301782
 30
0.0
 11
8.182851173424407
 21
1.013790221234979
 31
0.0
  0
LINE
  5
13F
330
2
100
AcDbEntity
  8
0
100
AcDbLine
 10
8.112851173424403
 20
2.683118473996668
 30
0.0
 11
8.112851173424403
 21
0.9188152602923765
 31
0.0
  0
LINE
  5
140
330
2
100
AcDbEntity
  8
0
100
AcDbLine
 10
7.933721375504995
 20
0.0014741434234846
 30
0.0
 11
7.933721375504995
 21
0.6141781346078474
 31
0.0
  0
ARC
  5
141
330
2
100
AcDbEntity
  8
0
100
AcDbCircle
 10
8.121221375504995
 20
0.6141781346078474
 30
0.0
 40
0.1875
100
AcDbArc
 50
144.4623222080255
 51
180.0
  0
ARC
  5
142
330
2
100
AcDbEntity
  8
0
100
AcDbCircle
 10
8.121221375504995
 20
0.6141781346078474
 30
0.0
 40
0.1875
100
AcDbArc
 50
144.4623222080255
 51
180.0000000000001
  0
LINE
  5
143
330
2
100
AcDbEntity
  8
0
100
AcDbLine
 10
8.182851173424403
 20
2.683118473996668
 30
0.0
 11
8.182851173424407
 21
1.013790221234979
 31
0.0
  0
ARC
  5
144
330
2
100
AcDbEntity
  8
0
100
AcDbCircle
 10
7.002072617583196
 20
2.43335252963605
 30
0.0
 40
0.1875
100
AcDbArc
 50
324.4623222080256
 51
0.0
  0
LINE
  5
146
330
2
100
AcDbEntity
  8
0
100
AcDbLine
 10
7.189572617583196
 20
2.43335252963605
 30
0.0
 11
7.189572617583196
 21
3.123265332121957
 31
0.0
  0
ARC
  5
147
330
2
100
AcDbEntity
  8
0
100
AcDbCircle
 10
6.994239124870199
 20
3.089100166373182
 30
0.0
 40
0.2
100
AcDbArc
 50
4.066459635116879
 51
77.36437490698107
  0
ARC
  5
148
330
2
100
AcDbEntity
  8
0
100
AcDbCircle
 10
7.087864199551391
 20
3.470599710936657
 30
0.0
 40
0.2
100
AcDbArc
 50
180.0
 51
257.3643749069813
  0
LINE
  5
149
330
2
100
AcDbEntity
  8
0
100
AcDbLine
 10
7.189572617583196
 20
4.43335252963605
 30
0.0
 11
7.189572617583196
 21
5.257500000000004
 31
0.0
  0
ARC
  5
14A
330
2
100
AcDbEntity
  8
0
100
AcDbCircle
 10
6.995102929672158
 20
4.469724916173103
 30
0.0
 40
0.2
100
AcDbArc
 50
282.6356250930193
 51
0.0
  0
ARC
  5
14B
330
2
100
AcDbEntity
  8
0
100
AcDbCircle
 10
7.082602929672157
 20
4.079412541273147
 30
0.0
 40
0.2
100
AcDbArc
 50
102.6356250930187
 51
180.0
  0
LINE
  5
14C
330
2
100
AcDbEntity
  8
0
100
AcDbLine
 10
7.185831129003572
 20
3.866254139623873
 30
0.0
 11
7.185831129003572
 21
4.142929139623874
 31
0.0
  0
ARC
  5
150
330
2
100
AcDbEntity
  8
0
100
AcDbCircle
 10
8.1026624926441
 20
4.757500000000004
 30
0.0
 40
0.25
100
AcDbArc
 50
90.0
 51
270.0
  0
LINE
  5
151
330
2
100
AcDbEntity
  8
0
100
AcDbLine
 10
7.1895726175832
 20
5.257500000000004
 30
0.0
 11
8.182851173424396
 21
5.257499999999997
 31
0.0
  0
ARC
  5
152
330
2
100
AcDbEntity
  8
0
100
AcDbCircle
 10
-1.632499999999991
 20
1.009270416490217
 30
0.0
 40
0.0468087730667275
100
AcDbArc
 50
237.3920789848019
 51
269.9999999999968
  0
ARC
  5
153
330
2
100
AcDbEntity
  8
0
100
AcDbCircle
 10
-1.613457495708206
 20
1.039037283234315
 30
0.0
 40
0.0821454866301517
100
AcDbArc
 50
212.922671902451
 51
237.3920789848067
  0
ARC
  5
154
330
2
100
AcDbEntity
  8
0
100
AcDbCircle
 10
-1.58319958439517
 20
1.058628992230567
 30
0.0
 40
0.1181923486076029
100
AcDbArc
 50
195.0133710019975
 51
212.92267190245
  0
ARC
  5
155
330
2
100
AcDbEntity
  8
0
100
AcDbCircle
 10
-1.535305538061839
 20
1.071474143423483
 30
0.0
 40
0.1677790160026616
100
AcDbArc
 50
179.9999999999976
 51
195.0133710019947
  0
ARC
  5
156
330
2
100
AcDbEntity
  8
0
100
AcDbCircle
 10
-1.535305538061843
 20
1.071474143423497
 30
0.0
 40
0.1677790160026573
100
AcDbArc
 50
164.9866289980049
 51
180.0000000000024
  0
ARC
  5
157
330
2
100
AcDbEntity
  8
0
100
AcDbCircle
 10
-1.583199584395174
 20
1.084319294616414
 30
0.0
 40
0.1181923486075996
100
AcDbArc
 50
147.0773280975491
 51
164.9866289980021
  0
ARC
  5
158
330
2
100
AcDbEntity
  8
0
100
AcDbCircle
 10
-1.613457495708201
 20
1.103911003612666
 30
0.0
 40
0.0821454866301564
100
AcDbArc
 50
122.6079210151958
 51
147.0773280975511
  0
ARC
  5
159
330
2
100
AcDbEntity
  8
0
100
AcDbCircle
 10
-1.632499999999994
 20
1.133677870356763
 30
0.0
 40
0.0468087730667274
100
AcDbArc
 50
90.0
 51
122.6079210151942
  0
ARC
  5
15A
330
2
100
AcDbEntity
  8
0
100
AcDbCircle
 10
-1.632499999999995
 20
1.023839894046573
 30
0.0
 40
0.0320532506230808
100
AcDbArc
 50
236.4891770443311
 51
270.0000000000016
  0
ARC
  5
15B
330
2
100
AcDbEntity
  8
0
100
AcDbCircle
 10
-1.617424981436198
 20
1.046606417661215
 30
0.0
 40
0.0593583926698616
100
AcDbArc
 50
212.0281066666101
 51
236.4891770443315
  0
ARC
  5
15C
330
2
100
AcDbEntity
  8
0
100
AcDbCircle
 10
-1.593421555912517
 20
1.061621800282985
 30
0.0
 40
0.087671395904225
100
AcDbArc
 50
194.5265478167997
 51
212.0281066666103
  0
ARC
  5
15D
330
2
100
AcDbEntity
  8
0
100
AcDbCircle
 10
-1.555398060736405
 20
1.071474143423494
 30
0.0
 40
0.1269505869698025
100
AcDbArc
 50
180.0000000000016
 51
194.5265478167988
  0
ARC
  5
15E
330
2
100
AcDbEntity
  8
0
100
AcDbCircle
 10
-1.555398060736404
 20
1.071474143423487
 30
0.0
 40
0.1269505869698033
100
AcDbArc
 50
165.4734521832013
 51
179.9999999999984
  0
ARC
  5
15F
330
2
100
AcDbEntity
  8
0
100
AcDbCircle
 10
-1.593421555912517
 20
1.081326486563999
 30
0.0
 40
0.0876713959042238
100
AcDbArc
 50
147.9718933333907
 51
165.4734521832026
  0
ARC
  5
160
330
2
100
AcDbEntity
  8
0
100
AcDbCircle
 10
-1.617424981436198
 20
1.096341869185768
 30
0.0
 40
0.0593583926698617
100
AcDbArc
 50
123.5108229556685
 51
147.9718933333899
  0
ARC
  5
161
330
2
100
AcDbEntity
  8
0
100
AcDbCircle
 10
-1.632499999999994
 20
1.11910839280041
 30
0.0
 40
0.0320532506230811
100
AcDbArc
 50
90.0
 51
123.5108229556702
  0
ARC
  5
162
330
2
100
AcDbEntity
  8
0
100
AcDbCircle
 10
1.632499999999998
 20
1.506435068381087
 30
0.0
 40
0.0468087730667275
100
AcDbArc
 50
270.0000000000044
 51
302.6079210151991
  0
ARC
  5
163
330
2
100
AcDbEntity
  8
0
100
AcDbCircle
 10
1.613457495708214
 20
1.536201935125185
 30
0.0
 40
0.0821454866301517
100
AcDbArc
 50
302.6079210151933
 51
327.077328097549
  0
ARC
  5
164
330
2
100
AcDbEntity
  8
0
100
AcDbCircle
 10
1.583199584395177
 20
1.555793644121437
 30
0.0
 40
0.1181923486076029
100
AcDbArc
 50
327.07732809755
 51
344.9866289980026
  0
ARC
  5
165
330
2
100
AcDbEntity
  8
0
100
AcDbCircle
 10
1.535305538061846
 20
1.568638795314353
 30
0.0
 40
0.1677790160026616
100
AcDbArc
 50
344.9866289980053
 51
0.0000000000024265
  0
ARC
  5
166
330
2
100
AcDbEntity
  8
0
100
AcDbCircle
 10
1.535305538061849
 20
1.568638795314367
 30
0.0
 40
0.1677790160026582
100
AcDbArc
 50
359.9999999999976
 51
15.01337100199502
  0
ARC
  5
167
330
2
100
AcDbEntity
  8
0
100
AcDbCircle
 10
1.583199584395181
 20
1.581483946507284
 30
0.0
 40
0.1181923486075996
100
AcDbArc
 50
15.0133710019979
 51
32.92267190245092
  0
ARC
  5
168
330
2
100
AcDbEntity
  8
0
100
AcDbCircle
 10
1.613457495708208
 20
1.601075655503536
 30
0.0
 40
0.0821454866301564
100
AcDbArc
 50
32.92267190244895
 51
57.39207898480418
  0
ARC
  5
169
330
2
100
AcDbEntity
  8
0
100
AcDbCircle
 10
1.632500000000001
 20
1.630842522247633
 30
0.0
 40
0.0468087730667274
100
AcDbArc
 50
57.39207898480579
 51
90.0
  0
ARC
  5
16A
330
2
100
AcDbEntity
  8
0
100
AcDbCircle
 10
1.632500000000001
 20
1.521004545937442
 30
0.0
 40
0.0320532506230808
100
AcDbArc
 50
270.0
 51
303.5108229556702
  0
ARC
  5
16B
330
2
100
AcDbEntity
  8
0
100
AcDbCircle
 10
1.617424981436206
 20
1.543771069552085
 30
0.0
 40
0.0593583926698611
100
AcDbArc
 50
303.5108229556678
 51
327.9718933333895
  0
ARC
  5
16C
330
2
100
AcDbEntity
  8
0
100
AcDbCircle
 10
1.593421555912525
 20
1.558786452173855
 30
0.0
 40
0.0876713959042242
100
AcDbArc
 50
327.9718933333894
 51
345.4734521832002
  0
ARC
  5
16D
330
2
100
AcDbEntity
  8
0
100
AcDbCircle
 10
1.555398060736411
 20
1.568638795314364
 30
0.0
 40
0.1269505869698034
100
AcDbArc
 50
345.4734521832013
 51
359.9999999999984
  0
ARC
  5
16E
330
2
100
AcDbEntity
  8
0
100
AcDbCircle
 10
1.555398060736411
 20
1.568638795314357
 30
0.0
 40
0.1269505869698033
100
AcDbArc
 50
0.0000000000016034
 51
14.52654781679872
  0
ARC
  5
16F
330
2
100
AcDbEntity
  8
0
100
AcDbCircle
 10
1.593421555912523
 20
1.578491138454869
 30
0.0
 40
0.0876713959042246
100
AcDbArc
 50
14.52654781679729
 51
32.028106666609
  0
ARC
  5
170
330
2
100
AcDbEntity
  8
0
100
AcDbCircle
 10
1.617424981436206
 20
1.593506521076638
 30
0.0
 40
0.059358392669861
100
AcDbArc
 50
32.02810666661049
 51
56.48917704433217
  0
ARC
  5
171
330
2
100
AcDbEntity
  8
0
100
AcDbCircle
 10
1.632500000000001
 20
1.61627304469128
 30
0.0
 40
0.0320532506230811
100
AcDbArc
 50
56.48917704432978
 51
90.0
  0
ARC
  5
172
330
2
100
AcDbEntity
  8
0
100
AcDbCircle
 10
-1.632499999999994
 20
3.879085824877539
 30
0.0
 40
0.0468087730667257
100
AcDbArc
 50
237.3920789848046
 51
270.0
  0
ARC
  5
173
330
2
100
AcDbEntity
  8
0
100
AcDbCircle
 10
-1.613457495708203
 20
3.90885269162164
 30
0.0
 40
0.0821454866301566
100
AcDbArc
 50
212.9226719024507
 51
237.3920789848059
  0
ARC
  5
174
330
2
100
AcDbEntity
  8
0
100
AcDbCircle
 10
-1.583199584395164
 20
3.928444400617892
 30
0.0
 40
0.1181923486076091
100
AcDbArc
 50
195.0133710019967
 51
212.9226719024491
  0
ARC
  5
175
330
2
100
AcDbEntity
  8
0
100
AcDbCircle
 10
-1.535305538061839
 20
3.941289551810808
 30
0.0
 40
0.1677790160026616
100
AcDbArc
 50
179.9999999999976
 51
195.0133710019947
  0
ARC
  5
176
330
2
100
AcDbEntity
  8
0
100
AcDbCircle
 10
-1.535305538061857
 20
3.941289551810819
 30
0.0
 40
0.167779016002644
100
AcDbArc
 50
164.9866289980037
 51
180.0000000000013
  0
ARC
  5
177
330
2
100
AcDbEntity
  8
0
100
AcDbCircle
 10
-1.583199584395168
 20
3.954134703003739
 30
0.0
 40
0.1181923486076038
100
AcDbArc
 50
147.0773280975512
 51
164.9866289980045
  0
ARC
  5
178
330
2
100
AcDbEntity
  8
0
100
AcDbCircle
 10
-1.613457495708201
 20
3.973726411999987
 30
0.0
 40
0.0821454866301574
100
AcDbArc
 50
122.6079210151952
 51
147.07732809755
  0
ARC
  5
179
330
2
100
AcDbEntity
  8
0
100
AcDbCircle
 10
-1.632499999999994
 20
4.003493278744088
 30
0.0
 40
0.0468087730667259
100
AcDbArc
 50
90.0
 51
122.6079210151954
  0
ARC
  5
17A
330
2
100
AcDbEntity
  8
0
100
AcDbCircle
 10
-1.632499999999995
 20
3.893655302433892
 30
0.0
 40
0.0320532506230791
100
AcDbArc
 50
236.4891770443294
 51
270.0000000000016
  0
ARC
  5
17B
330
2
100
AcDbEntity
  8
0
100
AcDbCircle
 10
-1.617424981436194
 20
3.916421826048538
 30
0.0
 40
0.0593583926698651
100
AcDbArc
 50
212.0281066666082
 51
236.4891770443296
  0
ARC
  5
17C
330
2
100
AcDbEntity
  8
0
100
AcDbCircle
 10
-1.593421555912517
 20
3.931437208670307
 30
0.0
 40
0.087671395904224
100
AcDbArc
 50
194.5265478167985
 51
212.0281066666093
  0
ARC
  5
17D
330
2
100
AcDbEntity
  8
0
100
AcDbCircle
 10
-1.555398060736398
 20
3.941289551810819
 30
0.0
 40
0.1269505869698098
100
AcDbArc
 50
180.0000000000016
 51
194.5265478167987
  0
ARC
  5
17E
330
2
100
AcDbEntity
  8
0
100
AcDbCircle
 10
-1.555398060736411
 20
3.941289551810812
 30
0.0
 40
0.1269505869697962
100
AcDbArc
 50
165.4734521832012
 51
179.9999999999984
  0
ARC
  5
17F
330
2
100
AcDbEntity
  8
0
100
AcDbCircle
 10
-1.593421555912511
 20
3.951141894951324
 30
0.0
 40
0.0876713959042293
100
AcDbArc
 50
147.9718933333928
 51
165.4734521832047
  0
ARC
  5
180
330
2
100
AcDbEntity
  8
0
100
AcDbCircle
 10
-1.617424981436202
 20
3.966157277573089
 30
0.0
 40
0.0593583926698599
100
AcDbArc
 50
123.510822955664
 51
147.9718933333848
  0
ARC
  5
181
330
2
100
AcDbEntity
  8
0
100
AcDbCircle
 10
-1.632499999999994
 20
3.988923801187731
 30
0.0
 40
0.0320532506230826
100
AcDbArc
 50
90.0
 51
123.5108229556685
  0
ARC
  5
182
330
2
100
AcDbEntity
  8
0
100
AcDbCircle
 10
1.632500000000001
 20
3.958996946163957
 30
0.0
 40
0.0320532506230791
100
AcDbArc
 50
270.0
 51
303.5108229556719
  0
ARC
  5
183
330
2
100
AcDbEntity
  8
0
100
AcDbCircle
 10
1.617424981436201
 20
3.981763469778603
 30
0.0
 40
0.0593583926698655
100
AcDbArc
 50
303.5108229556712
 51
327.9718933333923
  0
ARC
  5
184
330
2
100
AcDbEntity
  8
0
100
AcDbCircle
 10
1.593421555912525
 20
3.996778852400372
 30
0.0
 40
0.0876713959042233
100
AcDbArc
 50
327.9718933333904
 51
345.4734521832013
  0
ARC
  5
185
330
2
100
AcDbEntity
  8
0
100
AcDbCircle
 10
1.555398060736404
 20
4.006631195540884
 30
0.0
 40
0.1269505869698107
100
AcDbArc
 50
345.4734521832014
 51
359.9999999999984
  0
ARC
  5
186
330
2
100
AcDbEntity
  8
0
100
AcDbCircle
 10
1.555398060736418
 20
4.006631195540876
 30
0.0
 40
0.1269505869697962
100
AcDbArc
 50
0.0000000000016034
 51
14.52654781679875
  0
ARC
  5
187
330
2
100
AcDbEntity
  8
0
100
AcDbCircle
 10
1.593421555912518
 20
4.016483538681388
 30
0.0
 40
0.0876713959042293
100
AcDbArc
 50
14.5265478167953
 51
32.02810666660715
  0
ARC
  5
188
330
2
100
AcDbEntity
  8
0
100
AcDbCircle
 10
1.617424981436209
 20
4.031498921303154
 30
0.0
 40
0.0593583926698599
100
AcDbArc
 50
32.02810666661522
 51
56.48917704433598
  0
ARC
  5
189
330
2
100
AcDbEntity
  8
0
100
AcDbCircle
 10
1.632500000000001
 20
4.054265444917796
 30
0.0
 40
0.0320532506230826
100
AcDbArc
 50
56.48917704433152
 51
90.0
  0
ARC
  5
18A
330
2
100
AcDbEntity
  8
0
100
AcDbCircle
 10
1.632500000000001
 20
3.944427468607604
 30
0.0
 40
0.0468087730667257
100
AcDbArc
 50
270.0
 51
302.6079210151954
  0
ARC
  5
18B
330
2
100
AcDbEntity
  8
0
100
AcDbCircle
 10
1.61345749570821
 20
3.974194335351704
 30
0.0
 40
0.0821454866301566
100
AcDbArc
 50
302.6079210151941
 51
327.0773280975493
  0
ARC
  5
18C
330
2
100
AcDbEntity
  8
0
100
AcDbCircle
 10
1.583199584395172
 20
3.993786044347957
 30
0.0
 40
0.1181923486076083
100
AcDbArc
 50
327.0773280975507
 51
344.9866289980032
  0
ARC
  5
18D
330
2
100
AcDbEntity
  8
0
100
AcDbCircle
 10
1.535305538061846
 20
4.006631195540873
 30
0.0
 40
0.1677790160026616
100
AcDbArc
 50
344.9866289980053
 51
0.0000000000024265
  0
ARC
  5
18E
330
2
100
AcDbEntity
  8
0
100
AcDbCircle
 10
1.535305538061864
 20
4.006631195540884
 30
0.0
 40
0.167779016002644
100
AcDbArc
 50
359.9999999999988
 51
15.01337100199628
  0
ARC
  5
18F
330
2
100
AcDbEntity
  8
0
100
AcDbCircle
 10
1.583199584395175
 20
4.019476346733804
 30
0.0
 40
0.1181923486076038
100
AcDbArc
 50
15.01337100199556
 51
32.9226719024488
  0
ARC
  5
190
330
2
100
AcDbEntity
  8
0
100
AcDbCircle
 10
1.613457495708208
 20
4.039068055730052
 30
0.0
 40
0.0821454866301574
100
AcDbArc
 50
32.92267190245
 51
57.39207898480485
  0
ARC
  5
191
330
2
100
AcDbEntity
  8
0
100
AcDbCircle
 10
1.632500000000001
 20
4.068834922474153
 30
0.0
 40
0.0468087730667259
100
AcDbArc
 50
57.39207898480461
 51
90.0
  0
ARC
  5
192
330
2
100
AcDbEntity
  8
0
100
AcDbCircle
 10
7.179832708005546
 20
1.499763562338229
 30
0.0
 40
0.0468087730667275
100
AcDbArc
 50
270.0
 51
302.6079210151954
  0
ARC
  5
193
330
2
100
AcDbEntity
  8
0
100
AcDbCircle
 10
7.16079020371376
 20
1.529530429082326
 30
0.0
 40
0.0821454866301507
100
AcDbArc
 50
302.6079210151924
 51
327.0773280975483
  0
ARC
  5
194
330
2
100
AcDbEntity
  8
0
100
AcDbCircle
 10
7.130532292400724
 20
1.549122138078578
 30
0.0
 40
0.1181923486076014
100
AcDbArc
 50
327.0773280975495
 51
344.9866289980024
  0
ARC
  5
195
330
2
100
AcDbEntity
  8
0
100
AcDbCircle
 10
7.082638246067391
 20
1.561967289271494
 30
0.0
 40
0.1677790160026616
100
AcDbArc
 50
344.9866289980053
 51
0.0000000000024265
  0
ARC
  5
196
330
2
100
AcDbEntity
  8
0
100
AcDbCircle
 10
7.082638246067394
 20
1.561967289271509
 30
0.0
 40
0.1677790160026582
100
AcDbArc
 50
359.9999999999976
 51
15.01337100199502
  0
ARC
  5
197
330
2
100
AcDbEntity
  8
0
100
AcDbCircle
 10
7.130532292400727
 20
1.574812440464425
 30
0.0
 40
0.1181923486075979
100
AcDbArc
 50
15.01337100199812
 51
32.9226719024514
  0
ARC
  5
198
330
2
100
AcDbEntity
  8
0
100
AcDbCircle
 10
7.160790203713753
 20
1.594404149460677
 30
0.0
 40
0.0821454866301564
100
AcDbArc
 50
32.92267190244895
 51
57.39207898480418
  0
ARC
  5
199
330
2
100
AcDbEntity
  8
0
100
AcDbCircle
 10
7.179832708005546
 20
1.624171016204774
 30
0.0
 40
0.0468087730667274
100
AcDbArc
 50
57.39207898480579
 51
90.0
  0
ARC
  5
19A
330
2
100
AcDbEntity
  8
0
100
AcDbCircle
 10
7.179832708005546
 20
1.710128089508654
 30
0.0
 40
0.2864983002371506
100
AcDbArc
 50
270.0
 51
286.0310365777419
  0
ARC
  5
19B
330
2
100
AcDbEntity
  8
0
100
AcDbCircle
 10
7.200774692092073
 20
1.637243741571568
 30
0.0
 40
0.2106649640867845
100
AcDbArc
 50
286.0310365777418
 51
304.7482755454333
  0
ARC
  5
19C
330
2
100
AcDbEntity
  8
0
100
AcDbCircle
 10
7.232770948861767
 20
1.591118363867528
 30
0.0
 40
0.1545284259354824
100
AcDbArc
 50
304.7482755454333
 51
329.1575290112872
  0
ARC
  5
19D
330
2
100
AcDbEntity
  8
0
100
AcDbCircle
 10
7.281590017751548
 20
1.561967289271502
 30
0.0
 40
0.0976681881821266
100
AcDbArc
 50
329.1575290112877
 51
0.0
  0
ARC
  5
19E
330
2
100
AcDbEntity
  8
0
100
AcDbCircle
 10
7.281590017751552
 20
1.561967289271502
 30
0.0
 40
0.0976681881821229
100
AcDbArc
 50
0.0
 51
30.84247098871252
  0
ARC
  5
19F
330
2
100
AcDbEntity
  8
0
100
AcDbCircle
 10
7.232770948861764
 20
1.532816214675474
 30
0.0
 40
0.1545284259354863
100
AcDbArc
 50
30.84247098871217
 51
55.25172445456601
  0
ARC
  5
1A0
330
2
100
AcDbEntity
  8
0
100
AcDbCircle
 10
7.200774692092073
 20
1.486690836971432
 30
0.0
 40
0.2106649640867877
100
AcDbArc
 50
55.25172445456725
 51
73.96896342225847
  0
ARC
  5
1A1
330
2
100
AcDbEntity
  8
0
100
AcDbCircle
 10
7.179832708005539
 20
1.413806489034351
 30
0.0
 40
0.2864983002371512
100
AcDbArc
 50
73.96896342225666
 51
89.99999999999859
  0
ARC
  5
1A2
330
2
100
AcDbEntity
  8
0
100
AcDbCircle
 10
7.17983270800555
 20
1.514333039894584
 30
0.0
 40
0.0320532506230808
100
AcDbArc
 50
269.9999999999936
 51
303.5108229556649
  0
ARC
  5
1A3
330
2
100
AcDbEntity
  8
0
100
AcDbCircle
 10
7.164757689441751
 20
1.537099563509226
 30
0.0
 40
0.0593583926698611
100
AcDbArc
 50
303.5108229556678
 51
327.9718933333895
  0
ARC
  5
1A4
330
2
100
AcDbEntity
  8
0
100
AcDbCircle
 10
7.14075426391807
 20
1.552114946130997
 30
0.0
 40
0.0876713959042242
100
AcDbArc
 50
327.9718933333894
 51
345.4734521832002
  0
ARC
  5
1A5
330
2
100
AcDbEntity
  8
0
100
AcDbCircle
 10
7.102730768741957
 20
1.561967289271505
 30
0.0
 40
0.1269505869698016
100
AcDbArc
 50
345.4734521832011
 51
359.9999999999984
  0
ARC
  5
1A6
330
2
100
AcDbEntity
  8
0
100
AcDbCircle
 10
7.102730768741954
 20
1.561967289271498
 30
0.0
 40
0.1269505869698051
100
AcDbArc
 50
0.0000000000016034
 51
14.52654781679852
  0
ARC
  5
1A7
330
2
100
AcDbEntity
  8
0
100
AcDbCircle
 10
7.14075426391807
 20
1.57181963241201
 30
0.0
 40
0.0876713959042229
100
AcDbArc
 50
14.52654781679758
 51
32.02810666660961
  0
ARC
  5
1A8
330
2
100
AcDbEntity
  8
0
100
AcDbCircle
 10
7.164757689441751
 20
1.586835015033779
 30
0.0
 40
0.059358392669861
100
AcDbArc
 50
32.02810666661049
 51
56.48917704433217
  0
ARC
  5
1A9
330
2
100
AcDbEntity
  8
0
100
AcDbCircle
 10
7.17983270800555
 20
1.609601538648421
 30
0.0
 40
0.0320532506230792
100
AcDbArc
 50
56.48917704433506
 51
90.00000000000637
  0
ARC
  5
1AA
330
2
100
AcDbEntity
  8
0
100
AcDbCircle
 10
7.185831129003565
 20
4.152752439861025
 30
0.0
 40
0.2864983002371524
100
AcDbArc
 50
270.0000000000014
 51
286.0310365777432
  0
ARC
  5
1AB
330
2
100
AcDbEntity
  8
0
100
AcDbCircle
 10
7.206773113090105
 20
4.079868091923942
 30
0.0
 40
0.2106649640867842
100
AcDbArc
 50
286.0310365777398
 51
304.7482755454312
  0
ARC
  5
1AC
330
2
100
AcDbEntity
  8
0
100
AcDbCircle
 10
7.23876936985979
 20
4.033742714219898
 30
0.0
 40
0.1545284259354844
100
AcDbArc
 50
304.7482755454344
 51
329.1575290112884
  0
ARC
  5
1AD
330
2
100
AcDbEntity
  8
0
100
AcDbCircle
 10
7.287588438749578
 20
4.004591639623872
 30
0.0
 40
0.0976681881821226
100
AcDbArc
 50
329.1575290112875
 51
0.0
  0
ARC
  5
1AE
330
2
100
AcDbEntity
  8
0
100
AcDbCircle
 10
7.28758843874957
 20
4.004591639623875
 30
0.0
 40
0.09766818818213
100
AcDbArc
 50
359.9999999999979
 51
30.84247098871038
  0
ARC
  5
1AF
330
2
100
AcDbEntity
  8
0
100
AcDbCircle
 10
7.238769369859797
 20
3.975440565027846
 30
0.0
 40
0.1545284259354811
100
AcDbArc
 50
30.84247098871408
 51
55.2517244545678
  0
ARC
  5
1B0
330
2
100
AcDbEntity
  8
0
100
AcDbCircle
 10
7.206773113090091
 20
3.929315187323802
 30
0.0
 40
0.2106649640867918
100
AcDbArc
 50
55.25172445456566
 51
73.96896342225674
  0
ARC
  5
1B1
330
2
100
AcDbEntity
  8
0
100
AcDbCircle
 10
7.185831129003565
 20
3.856430839386725
 30
0.0
 40
0.2864983002371495
100
AcDbArc
 50
73.96896342225658
 51
89.99999999999859
  0
ARC
  5
1B2
330
2
100
AcDbEntity
  8
0
100
AcDbCircle
 10
7.185831129003575
 20
3.956957390246956
 30
0.0
 40
0.0320532506230826
100
AcDbArc
 50
269.9999999999936
 51
303.5108229556632
  0
ARC
  5
1B3
330
2
100
AcDbEntity
  8
0
100
AcDbCircle
 10
7.170756110439773
 20
3.979723913861598
 30
0.0
 40
0.0593583926698646
100
AcDbArc
 50
303.5108229556697
 51
327.9718933333913
  0
ARC
  5
1B4
330
2
100
AcDbEntity
  8
0
100
AcDbCircle
 10
7.146752684916096
 20
3.994739296483367
 30
0.0
 40
0.0876713959042233
100
AcDbArc
 50
327.9718933333904
 51
345.4734521832013
  0
ARC
  5
1B5
330
2
100
AcDbEntity
  8
0
100
AcDbCircle
 10
7.108729189739976
 20
4.004591639623875
 30
0.0
 40
0.1269505869698081
100
AcDbArc
 50
345.4734521832027
 51
0.0
  0
ARC
  5
1B6
330
2
100
AcDbEntity
  8
0
100
AcDbCircle
 10
7.108729189739987
 20
4.004591639623872
 30
0.0
 40
0.126950586969798
100
AcDbArc
 50
0.0000000000016034
 51
14.52654781679854
  0
ARC
  5
1B7
330
2
100
AcDbEntity
  8
0
100
AcDbCircle
 10
7.146752684916089
 20
4.014443982764384
 30
0.0
 40
0.0876713959042293
100
AcDbArc
 50
14.5265478167953
 51
32.02810666660715
  0
ARC
  5
1B8
330
2
100
AcDbEntity
  8
0
100
AcDbCircle
 10
7.17075611043978
 20
4.029459365386153
 30
0.0
 40
0.059358392669858
100
AcDbArc
 50
32.02810666661231
 51
56.48917704433409
  0
ARC
  5
1B9
330
2
100
AcDbEntity
  8
0
100
AcDbCircle
 10
7.185831129003575
 20
4.052225889000795
 30
0.0
 40
0.0320532506230777
100
AcDbArc
 50
56.48917704433331
 51
90.00000000000637
  0
ARC
  5
1BA
330
2
100
AcDbEntity
  8
0
100
AcDbCircle
 10
7.185831129003575
 20
3.942387912690599
 30
0.0
 40
0.0468087730667257
100
AcDbArc
 50
269.9999999999956
 51
302.6079210151917
  0
ARC
  5
1BB
330
2
100
AcDbEntity
  8
0
100
AcDbCircle
 10
7.166788624711782
 20
3.972154779434696
 30
0.0
 40
0.0821454866301527
100
AcDbArc
 50
302.6079210151944
 51
327.0773280975507
  0
ARC
  5
1BC
330
2
100
AcDbEntity
  8
0
100
AcDbCircle
 10
7.136530713398742
 20
3.991746488430952
 30
0.0
 40
0.1181923486076083
100
AcDbArc
 50
327.0773280975507
 51
344.9866289980032
  0
ARC
  5
1BD
330
2
100
AcDbEntity
  8
0
100
AcDbCircle
 10
7.088636667065416
 20
4.004591639623868
 30
0.0
 40
0.1677790160026616
100
AcDbArc
 50
344.9866289980053
 51
0.0000000000024265
  0
ARC
  5
1BE
330
2
100
AcDbEntity
  8
0
100
AcDbCircle
 10
7.088636667065434
 20
4.004591639623882
 30
0.0
 40
0.167779016002644
100
AcDbArc
 50
359.9999999999976
 51
15.0133710019951
  0
ARC
  5
1BF
330
2
100
AcDbEntity
  8
0
100
AcDbCircle
 10
7.136530713398746
 20
4.017436790816795
 30
0.0
 40
0.1181923486076048
100
AcDbArc
 50
15.01337100199722
 51
32.92267190245025
  0
ARC
  5
1C0
330
2
100
AcDbEntity
  8
0
100
AcDbCircle
 10
7.166788624711779
 20
4.037028499813047
 30
0.0
 40
0.0821454866301574
100
AcDbArc
 50
32.92267190245
 51
57.39207898480485
  0
ARC
  5
1C1
330
2
100
AcDbEntity
  8
0
100
AcDbCircle
 10
7.185831129003572
 20
4.066795366557145
 30
0.0
 40
0.0468087730667289
100
AcDbArc
 50
57.39207898480696
 51
90.0
  0
ARC
  5
1C6
330
2
100
AcDbEntity
  8
0
100
AcDbCircle
 10
-7.238769369859784
 20
3.970440626406838
 30
0.0
 40
0.1545284259354844
100
AcDbArc
 50
210.8424709887116
 51
235.2517244545657
  0
ARC
  5
1C7
330
2
100
AcDbEntity
  8
0
100
AcDbCircle
 10
-7.238769369859791
 20
3.912138477214786
 30
0.0
 40
0.1545284259354811
100
AcDbArc
 50
124.7482755454322
 51
149.1575290112859
  0
ARC
  5
1C8
330
2
100
AcDbEntity
  8
0
100
AcDbCircle
 10
-7.232770948861758
 20
1.040283512910458
 30
0.0
 40
0.1545284259354863
100
AcDbArc
 50
124.748275545434
 51
149.1575290112878
  0
LINE
  5
1C9
330
2
100
AcDbEntity
  8
0
100
AcDbLine
 10
-7.189572617583194
 20
5.257500000000004
 30
0.0
 11
-8.182851173424393
 21
5.257499999999997
 31
0.0
  0
ARC
  5
1CA
330
2
100
AcDbEntity
  8
0
100
AcDbCircle
 10
-7.232770948861762
 20
1.098585662102511
 30
0.0
 40
0.1545284259354824
100
AcDbArc
 50
210.8424709887129
 51
235.2517244545668
  0
LINE
  5
1CB
330
2
100
AcDbEntity
  8
0
100
AcDbLine
 10
-7.93372137550499
 20
0.0014741434234846
 30
0.0
 11
-5.933721375504994
 21
0.0014741434234864
 31
0.0
  0
LINE
  5
1CC
330
2
100
AcDbEntity
  8
0
  6
HIDDEN
100
AcDbLine
 10
-7.93372137550499
 20
0.0714741434234849
 30
0.0
 11
-5.933721375504994
 21
0.0714741434234867
 31
0.0
  0
LINE
  5
1CD
330
2
100
AcDbEntity
  8
0
100
AcDbLine
 10
-5.968646349653734
 20
0.7149685570207041
 30
0.0
 11
-7.154647643434454
 21
2.324370368313719
 31
0.0
  0
LINE
  5
1CE
330
2
100
AcDbEntity
  8
0
100
AcDbLine
 10
-7.179832708005541
 20
0.9310970875064868
 30
0.0
 11
-7.179832708005541
 21
1.207772087506484
 31
0.0
  0
ARC
  5
1CF
330
2
100
AcDbEntity
  8
0
100
AcDbCircle
 10
-7.082638246067385
 20
1.069434587506478
 30
0.0
 40
0.1677790160026616
100
AcDbArc
 50
179.9999999999976
 51
195.0133710019947
  0
ARC
  5
1D0
330
2
100
AcDbEntity
  8
0
100
AcDbCircle
 10
-7.102730768741952
 20
1.069434587506489
 30
0.0
 40
0.1269505869698016
100
AcDbArc
 50
180.0000000000016
 51
194.526547816799
  0
LINE
  5
1D1
330
2
100
AcDbEntity
  8
0
100
AcDbLine
 10
-5.93372137550499
 20
0.0014741434234882
 30
0.0
 11
-5.933721375504997
 21
0.6059863956983733
 31
0.0
  0
ARC
  5
1D2
330
2
100
AcDbEntity
  8
0
100
AcDbCircle
 10
-6.121221375504997
 20
0.6059863956983733
 30
0.0
 40
0.1875
100
AcDbArc
 50
0.0000000000001342
 51
35.53767779197442
  0
ARC
  5
1D3
330
2
100
AcDbEntity
  8
0
100
AcDbCircle
 10
-7.179832708005541
 20
1.007230860573213
 30
0.0
 40
0.0468087730667275
100
AcDbArc
 50
237.3920789848046
 51
270.0
  0
ARC
  5
1D4
330
2
100
AcDbEntity
  8
0
100
AcDbCircle
 10
-7.160790203713755
 20
1.03699772731731
 30
0.0
 40
0.0821454866301507
100
AcDbArc
 50
212.9226719024517
 51
237.3920789848077
  0
ARC
  5
1D5
330
2
100
AcDbEntity
  8
0
100
AcDbCircle
 10
-7.130532292400718
 20
1.056589436313562
 30
0.0
 40
0.1181923486076014
100
AcDbArc
 50
195.0133710019977
 51
212.9226719024505
  0
ARC
  5
1D6
330
2
100
AcDbEntity
  8
0
100
AcDbCircle
 10
-7.179832708005541
 20
1.217595387743637
 30
0.0
 40
0.2864983002371506
100
AcDbArc
 50
253.9689634222582
 51
270.0
  0
ARC
  5
1D7
330
2
100
AcDbEntity
  8
0
100
AcDbCircle
 10
-7.200774692092067
 20
1.144711039806552
 30
0.0
 40
0.2106649640867845
100
AcDbArc
 50
235.2517244545667
 51
253.9689634222582
  0
ARC
  5
1D8
330
2
100
AcDbEntity
  8
0
100
AcDbCircle
 10
-7.179832708005544
 20
1.021800338129568
 30
0.0
 40
0.0320532506230808
100
AcDbArc
 50
236.4891770443351
 51
270.0000000000064
  0
ARC
  5
1D9
330
2
100
AcDbEntity
  8
0
100
AcDbCircle
 10
-7.164757689441745
 20
1.04456686174421
 30
0.0
 40
0.0593583926698611
100
AcDbArc
 50
212.0281066666105
 51
236.4891770443322
  0
ARC
  5
1DA
330
2
100
AcDbEntity
  8
0
100
AcDbCircle
 10
-7.140754263918065
 20
1.059582244365981
 30
0.0
 40
0.0876713959042242
100
AcDbArc
 50
194.5265478167999
 51
212.0281066666106
  0
LINE
  5
1DB
330
2
100
AcDbEntity
  8
0
100
AcDbLine
 10
-6.887864199551383
 20
4.079412541273147
 30
0.0
 11
-6.887864199551383
 21
3.479412541273145
 31
0.0
  0
ARC
  5
1DC
330
2
100
AcDbEntity
  8
0
100
AcDbCircle
 10
-7.002072617583191
 20
2.43335252963605
 30
0.0
 40
0.1875
100
AcDbArc
 50
180.0
 51
215.5376777919745
  0
ARC
  5
1DD
330
2
100
AcDbEntity
  8
0
100
AcDbCircle
 10
-7.082638246067389
 20
1.069434587506493
 30
0.0
 40
0.1677790160026582
100
AcDbArc
 50
164.986628998005
 51
180.0000000000025
  0
ARC
  5
1DE
330
2
100
AcDbEntity
  8
0
100
AcDbCircle
 10
-7.130532292400722
 20
1.082279738699409
 30
0.0
 40
0.1181923486075979
100
AcDbArc
 50
147.0773280975486
 51
164.9866289980019
  0
ARC
  5
1DF
330
2
100
AcDbEntity
  8
0
100
AcDbCircle
 10
-7.160790203713748
 20
1.101871447695661
 30
0.0
 40
0.0821454866301564
100
AcDbArc
 50
122.6079210151958
 51
147.0773280975511
  0
ARC
  5
1E0
330
2
100
AcDbEntity
  8
0
100
AcDbCircle
 10
-7.179832708005541
 20
1.131638314439758
 30
0.0
 40
0.0468087730667274
100
AcDbArc
 50
90.0
 51
122.6079210151942
  0
ARC
  5
1E1
330
2
100
AcDbEntity
  8
0
100
AcDbCircle
 10
-7.200774692092067
 20
0.9941581352064155
 30
0.0
 40
0.2106649640867877
100
AcDbArc
 50
106.0310365777415
 51
124.7482755454328
  0
ARC
  5
1E2
330
2
100
AcDbEntity
  8
0
100
AcDbCircle
 10
-7.179832708005534
 20
0.9212737872693353
 30
0.0
 40
0.2864983002371512
100
AcDbArc
 50
90.00000000000142
 51
106.0310365777433
  0
ARC
  5
1E3
330
2
100
AcDbEntity
  8
0
100
AcDbCircle
 10
-7.102730768741949
 20
1.069434587506482
 30
0.0
 40
0.1269505869698051
100
AcDbArc
 50
165.4734521832015
 51
179.9999999999984
  0
ARC
  5
1E4
330
2
100
AcDbEntity
  8
0
100
AcDbCircle
 10
-7.140754263918065
 20
1.079286930646994
 30
0.0
 40
0.0876713959042229
100
AcDbArc
 50
147.9718933333904
 51
165.4734521832024
  0
ARC
  5
1E5
330
2
100
AcDbEntity
  8
0
100
AcDbCircle
 10
-7.164757689441745
 20
1.094302313268763
 30
0.0
 40
0.059358392669861
100
AcDbArc
 50
123.5108229556678
 51
147.9718933333895
  0
ARC
  5
1E6
330
2
100
AcDbEntity
  8
0
100
AcDbCircle
 10
-7.179832708005544
 20
1.117068836883405
 30
0.0
 40
0.0320532506230792
100
AcDbArc
 50
89.99999999999365
 51
123.510822955665
  0
LINE
  5
1E7
330
2
100
AcDbEntity
  8
0
100
AcDbLine
 10
-7.189572617583191
 20
2.43335252963605
 30
0.0
 11
-7.189572617583191
 21
3.123265332121957
 31
0.0
  0
ARC
  5
1E8
330
2
100
AcDbEntity
  8
0
100
AcDbCircle
 10
-6.994239124870194
 20
3.089100166373182
 30
0.0
 40
0.2
100
AcDbArc
 50
102.6356250930189
 51
175.9335403648831
  0
ARC
  5
1E9
330
2
100
AcDbEntity
  8
0
100
AcDbCircle
 10
-7.087864199551386
 20
3.470599710936657
 30
0.0
 40
0.2
100
AcDbArc
 50
282.6356250930186
 51
0.0000000000000325
  0
LINE
  5
1EA
330
2
100
AcDbEntity
  8
0
100
AcDbLine
 10
-7.189572617583191
 20
4.43335252963605
 30
0.0
 11
-7.189572617583191
 21
5.257500000000004
 31
0.0
  0
ARC
  5
1EB
330
2
100
AcDbEntity
  8
0
100
AcDbCircle
 10
-6.995102929672153
 20
4.469724916173103
 30
0.0
 40
0.2
100
AcDbArc
 50
180.0
 51
257.3643749069807
  0
ARC
  5
1EC
330
2
100
AcDbEntity
  8
0
100
AcDbCircle
 10
-7.082602929672151
 20
4.079412541273147
 30
0.0
 40
0.2
100
AcDbArc
 50
0.0000000000000325
 51
77.36437490698127
  0
LINE
  5
1ED
330
2
100
AcDbEntity
  8
0
100
AcDbLine
 10
-7.185831129003566
 20
3.802952051810813
 30
0.0
 11
-7.185831129003566
 21
4.079627051810814
 31
0.0
  0
ARC
  5
1EE
330
2
100
AcDbEntity
  8
0
100
AcDbCircle
 10
-7.185831129003559
 20
4.089450352047965
 30
0.0
 40
0.2864983002371524
100
AcDbArc
 50
253.9689634222568
 51
269.9999999999986
  0
ARC
  5
1EF
330
2
100
AcDbEntity
  8
0
100
AcDbCircle
 10
-7.2067731130901
 20
4.016566004110882
 30
0.0
 40
0.2106649640867842
100
AcDbArc
 50
235.2517244545688
 51
253.9689634222602
  0
ARC
  5
1F0
330
2
100
AcDbEntity
  8
0
100
AcDbCircle
 10
-7.206773113090086
 20
3.866013099510742
 30
0.0
 40
0.2106649640867918
100
AcDbArc
 50
106.0310365777433
 51
124.7482755454343
  0
ARC
  5
1F1
330
2
100
AcDbEntity
  8
0
100
AcDbCircle
 10
-7.185831129003559
 20
3.793128751573665
 30
0.0
 40
0.2864983002371495
100
AcDbArc
 50
90.00000000000142
 51
106.0310365777434
  0
ARC
  5
1F2
330
2
100
AcDbEntity
  8
0
100
AcDbCircle
 10
-7.18583112900357
 20
3.893655302433896
 30
0.0
 40
0.0320532506230826
100
AcDbArc
 50
236.4891770443368
 51
270.0000000000064
  0
ARC
  5
1F3
330
2
100
AcDbEntity
  8
0
100
AcDbCircle
 10
-7.170756110439768
 20
3.916421826048538
 30
0.0
 40
0.0593583926698646
100
AcDbArc
 50
212.0281066666087
 51
236.4891770443303
  0
ARC
  5
1F4
330
2
100
AcDbEntity
  8
0
100
AcDbCircle
 10
-7.14675268491609
 20
3.931437208670307
 30
0.0
 40
0.0876713959042233
100
AcDbArc
 50
194.5265478167987
 51
212.0281066666096
  0
ARC
  5
1F5
330
2
100
AcDbEntity
  8
0
100
AcDbCircle
 10
-7.108729189739971
 20
3.941289551810815
 30
0.0
 40
0.1269505869698081
100
AcDbArc
 50
180.0
 51
194.5265478167974
  0
ARC
  5
1F6
330
2
100
AcDbEntity
  8
0
100
AcDbCircle
 10
-7.108729189739981
 20
3.941289551810812
 30
0.0
 40
0.126950586969798
100
AcDbArc
 50
165.4734521832015
 51
179.9999999999984
  0
ARC
  5
1F7
330
2
100
AcDbEntity
  8
0
100
AcDbCircle
 10
-7.146752684916083
 20
3.951141894951324
 30
0.0
 40
0.0876713959042293
100
AcDbArc
 50
147.9718933333928
 51
165.4734521832047
  0
ARC
  5
1F8
330
2
100
AcDbEntity
  8
0
100
AcDbCircle
 10
-7.170756110439775
 20
3.966157277573092
 30
0.0
 40
0.059358392669858
100
AcDbArc
 50
123.5108229556659
 51
147.9718933333877
  0
ARC
  5
1F9
330
2
100
AcDbEntity
  8
0
100
AcDbCircle
 10
-7.18583112900357
 20
3.988923801187735
 30
0.0
 40
0.0320532506230777
100
AcDbArc
 50
89.99999999999365
 51
123.5108229556667
  0
ARC
  5
1FA
330
2
100
AcDbEntity
  8
0
100
AcDbCircle
 10
-7.18583112900357
 20
3.879085824877539
 30
0.0
 40
0.0468087730667257
100
AcDbArc
 50
237.3920789848083
 51
270.0000000000044
  0
ARC
  5
1FB
330
2
100
AcDbEntity
  8
0
100
AcDbCircle
 10
-7.166788624711777
 20
3.908852691621636
 30
0.0
 40
0.0821454866301527
100
AcDbArc
 50
212.9226719024493
 51
237.3920789848056
  0
ARC
  5
1FC
330
2
100
AcDbEntity
  8
0
100
AcDbCircle
 10
-7.136530713398737
 20
3.928444400617892
 30
0.0
 40
0.1181923486076083
100
AcDbArc
 50
195.0133710019968
 51
212.9226719024493
  0
ARC
  5
1FD
330
2
100
AcDbEntity
  8
0
100
AcDbCircle
 10
-7.088636667065411
 20
3.941289551810808
 30
0.0
 40
0.1677790160026616
100
AcDbArc
 50
179.9999999999976
 51
195.0133710019947
  0
ARC
  5
1FE
330
2
100
AcDbEntity
  8
0
100
AcDbCircle
 10
-7.088636667065429
 20
3.941289551810822
 30
0.0
 40
0.167779016002644
100
AcDbArc
 50
164.9866289980049
 51
180.0000000000025
  0
ARC
  5
1FF
330
2
100
AcDbEntity
  8
0
100
AcDbCircle
 10
-7.136530713398741
 20
3.954134703003735
 30
0.0
 40
0.1181923486076048
100
AcDbArc
 50
147.0773280975498
 51
164.9866289980028
  0
ARC
  5
200
330
2
100
AcDbEntity
  8
0
100
AcDbCircle
 10
-7.166788624711773
 20
3.973726411999987
 30
0.0
 40
0.0821454866301574
100
AcDbArc
 50
122.6079210151952
 51
147.07732809755
  0
ARC
  5
201
330
2
100
AcDbEntity
  8
0
100
AcDbCircle
 10
-7.185831129003566
 20
4.003493278744084
 30
0.0
 40
0.0468087730667289
100
AcDbArc
 50
90.0
 51
122.607921015193
  0
LINE
  5
202
330
2
100
AcDbEntity
  8
0
100
AcDbLine
 10
-8.112851173424399
 20
2.683118473996668
 30
0.0
 11
-8.112851173424399
 21
0.9188152602923765
 31
0.0
  0
LINE
  5
203
330
2
100
AcDbEntity
  8
0
100
AcDbLine
 10
-8.1828511734244
 20
2.683118473996668
 30
0.0
 11
-8.182851173424403
 21
1.013790221234979
 31
0.0
  0
ARC
  5
204
330
2
100
AcDbEntity
  8
0
100
AcDbCircle
 10
-7.281590017751543
 20
1.069434587506486
 30
0.0
 40
0.0976681881821266
100
AcDbArc
 50
180.0
 51
210.8424709887124
  0
ARC
  5
205
330
2
100
AcDbEntity
  8
0
100
AcDbCircle
 10
-8.121221375504991
 20
0.6141781346078474
 30
0.0
 40
0.1875
100
AcDbArc
 50
0.0000000000000325
 51
35.53767779197451
  0
ARC
  5
206
330
2
100
AcDbEntity
  8
0
100
AcDbCircle
 10
-8.121221375504991
 20
0.6141781346078474
 30
0.0
 40
0.1875
100
AcDbArc
 50
359.9999999999999
 51
35.53767779197451
  0
LINE
  5
207
330
2
100
AcDbEntity
  8
0
100
AcDbLine
 10
-7.93372137550499
 20
0.0014741434234846
 30
0.0
 11
-7.93372137550499
 21
0.6141781346078474
 31
0.0
  0
LINE
  5
208
330
2
100
AcDbEntity
  8
0
100
AcDbLine
 10
-7.968646349653727
 20
0.7231602959301782
 30
0.0
 11
-8.182851173424403
 21
1.013790221234979
 31
0.0
  0
LINE
  5
209
330
2
100
AcDbEntity
  8
0
100
AcDbLine
 10
-8.1828511734244
 20
2.683118473996668
 30
0.0
 11
-8.182851173424396
 21
5.257499999999997
 31
0.0
  0
LINE
  5
20A
330
2
100
AcDbEntity
  8
0
100
AcDbLine
 10
-8.112851173424399
 20
2.683118473996668
 30
0.0
 11
-8.112851173424396
 21
5.257499999999997
 31
0.0
  0
ARC
  5
20B
330
2
100
AcDbEntity
  8
0
100
AcDbCircle
 10
-7.281590017751547
 20
1.069434587506486
 30
0.0
 40
0.0976681881821229
100
AcDbArc
 50
149.1575290112875
 51
180.0
  0
ARC
  5
20C
330
2
100
AcDbEntity
  8
0
100
AcDbCircle
 10
-8.102662492644097
 20
4.757500000000004
 30
0.0
 40
0.25
100
AcDbArc
 50
270.0
 51
90.0
  0
ARC
  5
20D
330
2
100
AcDbEntity
  8
0
100
AcDbCircle
 10
-7.287588438749572
 20
3.941289551810812
 30
0.0
 40
0.0976681881821226
100
AcDbArc
 50
180.0
 51
210.8424709887126
  0
ARC
  5
20E
330
2
100
AcDbEntity
  8
0
100
AcDbCircle
 10
-7.287588438749565
 20
3.941289551810815
 30
0.0
 40
0.09766818818213
100
AcDbArc
 50
149.1575290112896
 51
180.0000000000021
  0
ENDSEC
  0
SECTION
  2
OBJECTS
  0
DICTIONARY
  5
9
330
0
100
AcDbDictionary
281
     1
  3
ACAD_COLOR
350
215
  3
ACAD_GROUP
350
23
  3
ACAD_LAYOUT
350
D
  3
ACAD_MATERIAL
350
214
  3
ACAD_MLINESTYLE
350
24
  3
ACAD_PLOTSETTINGS
350
25
  3
ACAD_PLOTSTYLENAME
350
8
  3
ACAD_TABLESTYLE
350
216
  3
ACDBHEADERROUNDTRIPXREC
350
23A
  3
AcDbVariableDictionary
350
C7
  0
DICTIONARY
  5
215
102
{ACAD_REACTORS
330
9
102
}
330
9
100
AcDbDictionary
281
     1
  0
DICTIONARY
  5
23
102
{ACAD_REACTORS
330
9
102
}
330
9
100
AcDbDictionary
281
     1
  0
DICTIONARY
  5
D
102
{ACAD_REACTORS
330
9
102
}
330
9
100
AcDbDictionary
281
     1
  3
Layout1
350
13
  3
Model
350
C
  0
DICTIONARY
  5
214
102
{ACAD_REACTORS
330
9
102
}
330
9
100
AcDbDictionary
281
     1
  0
DICTIONARY
  5
24
102
{ACAD_REACTORS
330
9
102
}
330
9
100
AcDbDictionary
281
     1
  3
STANDARD
350
27
  0
DICTIONARY
  5
25
102
{ACAD_REACTORS
330
9
102
}
330
9
100
AcDbDictionary
281
     1
  0
ACDBDICTIONARYWDFLT
  5
8
102
{ACAD_REACTORS
330
9
102
}
330
9
100
AcDbDictionary
281
     1
  3
Normal
350
7
100
AcDbDictionaryWithDefault
340
7
  0
DICTIONARY
  5
216
102
{ACAD_REACTORS
330
9
102
}
330
9
100
AcDbDictionary
281
     1
  3
Standard
350
217
  0
DICTIONARY
  5
23A
102
{ACAD_REACTORS
330
9
102
}
330
9
100
AcDbDictionary
281
     1
  3
COLORDICT
350
23B
  3
MATERIALDICT
350
23C
  0
DICTIONARY
  5
C7
102
{ACAD_REACTORS
330
9
102
}
330
9
100
AcDbDictionary
281
     1
  3
CTABLESTYLE
350
225
  3
HIDETEXT
350
239
  0
LAYOUT
  5
13
102
{ACAD_REACTORS
330
D
102
}
102
{ACAD_XDICTIONARY
360
23D
102
}
330
D
100
AcDbPlotSettings
  1

  2
C:\ACAD2000\plotters\HP LaserJet 2100 Series PS.pc3
  4

  6

 40
0.0
 41
0.0
 42
0.0
 43
0.0
 44
0.0
 45
0.0
 46
0.0
 47
0.0
 48
0.0
 49
0.0
140
0.0
141
0.0
142
1.0
143
1.0
 70
   688
 72
     0
 73
     0
 74
     5
  7

 75
    16
147
1.0
148
0.0
149
0.0
100
AcDbLayout
  1
Layout1
 70
     0
 71
     1
 10
0.0
 20
0.0
 11
12.0
 21
9.0
 12
0.0
 22
0.0
 32
0.0
 14
1.000000000000000E+20
 24
1.000000000000000E+20
 34
1.000000000000000E+20
 15
-1.000000000000000E+20
 25
-1.000000000000000E+20
 35
-1.000000000000000E+20
146
0.0
 13
0.0
 23
0.0
 33
0.0
 16
1.0
 26
0.0
 36
0.0
 17
0.0
 27
1.0
 37
0.0
 76
     0
330
E
  0
LAYOUT
  5
C
102
{ACAD_REACTORS
330
D
102
}
102
{ACAD_XDICTIONARY
360
23F
102
}
330
D
100
AcDbPlotSettings
  1

  2
LaserJet 4M.pc3
  4
ANSI_A_(8.50_x_11.00_Inches)
  6

 40
5.027082920074463
 41
5.027082920074463
 42
9.345077514648438
 43
5.11175537109375
 44
215.8999938964844
 45
279.3999938964844
 46
0.0
 47
0.0
 48
0.0
 49
0.0
140
0.0
141
0.0
142
1.0
143
3.360957880433514
 70
 28336
 72
     0
 73
     3
 74
     2
  7

 75
     0
147
0.2975342255318638
148
0.0
149
0.0
100
AcDbLayout
  1
Model
 70
     1
 71
     0
 10
0.0
 20
0.0
 11
12.0
 21
9.0
 12
0.0
 22
0.0
 32
0.0
 14
0.0
 24
0.0
 34
0.0
 15
0.0
 25
0.0
 35
0.0
146
0.0
 13
0.0
 23
0.0
 33
0.0
 16
1.0
 26
0.0
 36
0.0
 17
0.0
 27
1.0
 37
0.0
 76
     0
330
2
  0
MLINESTYLE
  5
27
102
{ACAD_REACTORS
330
24
102
}
330
24
100
AcDbMlineStyle
  2
STANDARD
 70
     0
  3

 62
   256
 51
90.0
 52
90.0
 71
     2
 49
0.5
 62
   256
  6
BYLAYER
 49
-0.5
 62
   256
  6
BYLAYER
  0
ACDBPLACEHOLDER
  5
7
102
{ACAD_REACTORS
330
8
102
}
330
8
  0
ACAD_PROXY_OBJECT
  5
217
102
{ACAD_REACTORS
330
216
102
}
330
216
100
AcDbProxyObject
 90
      499
 91
      533
 95
   983063
 70
     0
 93
     1841
310
4214DD185B99185C9928B81E85EB51B8AE3F2E07A17AD46E2B8FC02B5E8DC0F42B1CFD028000000C1008070000C3001FDFF8000000C1003FBFF000000182007F7FE00000030400FEFFC00000060801FDFF8000000C1003FBFF00000018200000000000000681FA0B0000001820100E000186003FBFF000000182007F7FE000
310
00030400FEFFC00000060801FDFF8000000C1003FBFF000000182007F7FE000000304000AD7A3703D0AC73F4160000003040201C00030C007F7FE00000030400FEFFC00000060801FDFF8000000C1003FBFF000000182007F7FE00000030400FEFFC000000608000
340
16
340
16
340
16
 94
        0
  0
XRECORD
  5
23B
102
{ACAD_REACTORS
330
23A
102
}
330
23A
100
AcDbXrecord
340
215
  0
XRECORD
  5
23C
102
{ACAD_REACTORS
330
23A
102
}
330
23A
100
AcDbXrecord
340
214
  0
DICTIONARYVAR
  5
225
102
{ACAD_REACTORS
330
C7
102
}
330
C7
100
DictionaryVariables
280
     0
  1
STANDARD
  0
DICTIONARYVAR
  5
239
102
{ACAD_REACTORS
330
C7
102
}
330
C7
100
DictionaryVariables
280
     0
  1
0
  0
DICTIONARY
  5
23D
330
13
100
AcDbDictionary
280
     1
281
     1
  3
ACAD_XREC_ROUNDTRIP
360
23E
  0
DICTIONARY
  5
23F
330
C
100
AcDbDictionary
280
     1
281
     1
  3
ACAD_XREC_ROUNDTRIP
360
240
  0
XRECORD
  5
23E
102
{ACAD_REACTORS
330
23D
102
}
330
23D
100
AcDbXrecord
102
SHADEPLOT
 70
     0
102
SHADEPLOTRESLEVEL
 70
     2
102
SHADEPLOTCUSTOMDPI
 70
   300
  0
XRECORD
  5
240
102
{ACAD_REACTORS
330
23F
102
}
330
23F
100
AcDbXrecord
102
SHADEPLOT
 70
     0
102
SHADEPLOTRESLEVEL
 70
     2
102
SHADEPLOTCUSTOMDPI
 70
   300
  0
ENDSEC
  0
EOF
