  0
SECTION
  2
HEADER
  9
$ACADVER
  1
AC1015
  9
$ACADMAINTVER
 70
     6
  9
$DWGCODEPAGE
  3
ANSI_1252
  9
$INSBASE
 10
0.0
 20
0.0
 30
0.0
  9
$EXTMIN
 10
-8.016664066420077
 20
-0.028320379337174
 30
-0.0000000000000058
  9
$EXTMAX
 10
8.018770171135614
 20
12.19647187315123
 30
0.0000000000000104
  9
$LIMMIN
 10
0.0
 20
0.0
  9
$LIMMAX
 10
42.0
 20
32.0
  9
$ORTHOMODE
 70
     1
  9
$REGENMODE
 70
     1
  9
$FILLMODE
 70
     1
  9
$QTEXTMODE
 70
     0
  9
$MIRRTEXT
 70
     1
  9
$LTSCALE
 40
1.0
  9
$ATTMODE
 70
     1
  9
$TEXTSIZE
 40
0.36
  9
$TRACEWID
 40
0.05
  9
$TEXTSTYLE
  7
STANDARD
  9
$CLAYER
  8
0
  9
$CELTYPE
  6
BYLAYER
  9
$CECOLOR
 62
   256
  9
$CELTSCALE
 40
1.0
  9
$DISPSILH
 70
     0
  9
$DIMSCALE
 40
4.0
  9
$DIMASZ
 40
0.125
  9
$DIMEXO
 40
0.062
  9
$DIMDLI
 40
0.375
  9
$DIMRND
 40
0.0
  9
$DIMDLE
 40
0.0
  9
$DIMEXE
 40
0.08
  9
$DIMTP
 40
0.0
  9
$DIMTM
 40
0.0
  9
$DIMTXT
 40
0.09
  9
$DIMCEN
 40
-0.06
  9
$DIMTSZ
 40
0.0
  9
$DIMTOL
 70
     0
  9
$DIMLIM
 70
     0
  9
$DIMTIH
 70
     1
  9
$DIMTOH
 70
     1
  9
$DIMSE1
 70
     0
  9
$DIMSE2
 70
     0
  9
$DIMTAD
 70
     0
  9
$DIMZIN
 70
     0
  9
$DIMBLK
  1

  9
$DIMASO
 70
     0
  9
$DIMSHO
 70
     0
  9
$DIMPOST
  1

  9
$DIMAPOST
  1

  9
$DIMALT
 70
     0
  9
$DIMALTD
 70
     2
  9
$DIMALTF
 40
25.4
  9
$DIMLFAC
 40
1.0
  9
$DIMTOFL
 70
     0
  9
$DIMTVP
 40
0.0
  9
$DIMTIX
 70
     0
  9
$DIMSOXD
 70
     0
  9
$DIMSAH
 70
     0
  9
$DIMBLK1
  1

  9
$DIMBLK2
  1

  9
$DIMSTYLE
  2
STANDARD
  9
$DIMCLRD
 70
     0
  9
$DIMCLRE
 70
     0
  9
$DIMCLRT
 70
     0
  9
$DIMTFAC
 40
1.0
  9
$DIMGAP
 40
0.09375
  9
$DIMJUST
 70
     0
  9
$DIMSD1
 70
     0
  9
$DIMSD2
 70
     0
  9
$DIMTOLJ
 70
     1
  9
$DIMTZIN
 70
     0
  9
$DIMALTZ
 70
     0
  9
$DIMALTTZ
 70
     0
  9
$DIMUPT
 70
     0
  9
$DIMDEC
 70
     5
  9
$DIMTDEC
 70
     4
  9
$DIMALTU
 70
     5
  9
$DIMALTTD
 70
     2
  9
$DIMTXSTY
  7
STANDARD
  9
$DIMAUNIT
 70
     0
  9
$DIMADEC
 70
     0
  9
$DIMALTRND
 40
0.0
  9
$DIMAZIN
 70
     0
  9
$DIMDSEP
 70
    46
  9
$DIMATFIT
 70
     3
  9
$DIMFRAC
 70
     2
  9
$DIMLDRBLK
  1

  9
$DIMLUNIT
 70
     5
  9
$DIMLWD
 70
    -2
  9
$DIMLWE
 70
    -2
  9
$DIMTMOVE
 70
     2
  9
$LUNITS
 70
     5
  9
$LUPREC
 70
     4
  9
$SKETCHINC
 40
0.1
  9
$FILLETRAD
 40
0.0625
  9
$AUNITS
 70
     0
  9
$AUPREC
 70
     0
  9
$MENU
  1
acad
  9
$ELEVATION
 40
0.0
  9
$PELEVATION
 40
0.0
  9
$THICKNESS
 40
0.0
  9
$LIMCHECK
 70
     0
  9
$CHAMFERA
 40
0.0
  9
$CHAMFERB
 40
0.0
  9
$CHAMFERC
 40
0.0
  9
$CHAMFERD
 40
0.0
  9
$SKPOLY
 70
     0
  9
$TDCREATE
 40
2450826.893432986
  9
$TDUCREATE
 40
2450827.22676632
  9
$TDUPDATE
 40
2454166.755613472
  9
$TDUUPDATE
 40
2454167.088946805
  9
$TDINDWG
 40
0.2662632407
  9
$TDUSRTIMER
 40
0.2662632407
  9
$USRTIMER
 70
     1
  9
$ANGBASE
 50
0.0
  9
$ANGDIR
 70
     0
  9
$PDMODE
 70
     0
  9
$PDSIZE
 40
0.0
  9
$PLINEWID
 40
0.0
  9
$SPLFRAME
 70
     0
  9
$SPLINETYPE
 70
     6
  9
$SPLINESEGS
 70
     8
  9
$HANDSEED
  5
331
  9
$SURFTAB1
 70
     6
  9
$SURFTAB2
 70
     6
  9
$SURFTYPE
 70
     6
  9
$SURFU
 70
     6
  9
$SURFV
 70
     6
  9
$UCSBASE
  2

  9
$UCSNAME
  2

  9
$UCSORG
 10
0.0
 20
0.0
 30
0.0
  9
$UCSXDIR
 10
1.0
 20
0.0
 30
0.0
  9
$UCSYDIR
 10
0.0
 20
1.0
 30
0.0
  9
$UCSORTHOREF
  2

  9
$UCSORTHOVIEW
 70
     0
  9
$UCSORGTOP
 10
0.0
 20
0.0
 30
0.0
  9
$UCSORGBOTTOM
 10
0.0
 20
0.0
 30
0.0
  9
$UCSORGLEFT
 10
0.0
 20
0.0
 30
0.0
  9
$UCSORGRIGHT
 10
0.0
 20
0.0
 30
0.0
  9
$UCSORGFRONT
 10
0.0
 20
0.0
 30
0.0
  9
$UCSORGBACK
 10
0.0
 20
0.0
 30
0.0
  9
$PUCSBASE
  2

  9
$PUCSNAME
  2

  9
$PUCSORG
 10
0.0
 20
0.0
 30
0.0
  9
$PUCSXDIR
 10
1.0
 20
0.0
 30
0.0
  9
$PUCSYDIR
 10
0.0
 20
1.0
 30
0.0
  9
$PUCSORTHOREF
  2

  9
$PUCSORTHOVIEW
 70
     0
  9
$PUCSORGTOP
 10
0.0
 20
0.0
 30
0.0
  9
$PUCSORGBOTTOM
 10
0.0
 20
0.0
 30
0.0
  9
$PUCSORGLEFT
 10
0.0
 20
0.0
 30
0.0
  9
$PUCSORGRIGHT
 10
0.0
 20
0.0
 30
0.0
  9
$PUCSORGFRONT
 10
0.0
 20
0.0
 30
0.0
  9
$PUCSORGBACK
 10
0.0
 20
0.0
 30
0.0
  9
$USERI1
 70
     0
  9
$USERI2
 70
     0
  9
$USERI3
 70
     0
  9
$USERI4
 70
     0
  9
$USERI5
 70
     0
  9
$USERR1
 40
0.0
  9
$USERR2
 40
0.0
  9
$USERR3
 40
0.0
  9
$USERR4
 40
0.0
  9
$USERR5
 40
0.0
  9
$WORLDVIEW
 70
     1
  9
$SHADEDGE
 70
     3
  9
$SHADEDIF
 70
    70
  9
$TILEMODE
 70
     1
  9
$MAXACTVP
 70
    16
  9
$PINSBASE
 10
0.0
 20
0.0
 30
0.0
  9
$PLIMCHECK
 70
     0
  9
$PEXTMIN
 10
1.000000000000000E+20
 20
1.000000000000000E+20
 30
1.000000000000000E+20
  9
$PEXTMAX
 10
-1.000000000000000E+20
 20
-1.000000000000000E+20
 30
-1.000000000000000E+20
  9
$PLIMMIN
 10
0.0
 20
0.0
  9
$PLIMMAX
 10
12.0
 20
9.0
  9
$UNITMODE
 70
     0
  9
$VISRETAIN
 70
     0
  9
$PLINEGEN
 70
     0
  9
$PSLTSCALE
 70
     0
  9
$TREEDEPTH
 70
  3020
  9
$CMLSTYLE
  2
STANDARD
  9
$CMLJUST
 70
     0
  9
$CMLSCALE
 40
1.0
  9
$PROXYGRAPHICS
 70
     1
  9
$MEASUREMENT
 70
     0
  9
$CELWEIGHT
370
    -1
  9
$ENDCAPS
280
     0
  9
$JOINSTYLE
280
     0
  9
$LWDISPLAY
290
     0
  9
$INSUNITS
 70
     0
  9
$HYPERLINKBASE
  1

  9
$STYLESHEET
  1

  9
$XEDIT
290
     1
  9
$CEPSNTYPE
380
     0
  9
$PSTYLEMODE
290
     1
  9
$FINGERPRINTGUID
  2
{4D67D0B1-BAD0-11D4-8FCF-00D0B726A456}
  9
$VERSIONGUID
  2
{9FF5DF2D-5BE7-4F36-9C75-62389B44AB77}
  9
$EXTNAMES
290
     1
  9
$PSVPSCALE
 40
0.0
  9
$OLESTARTUP
290
     0
  0
ENDSEC
  0
SECTION
  2
CLASSES
  0
CLASS
  1
DICTIONARYVAR
  2
AcDbDictionaryVar
  3
AutoCAD 2000
 90
        0
280
     0
281
     0
  0
CLASS
  1
LWPOLYLINE
  2
AcDbPolyline
  3
AutoCAD 2000
 90
        0
280
     0
281
     1
  0
CLASS
  1
ACDBDICTIONARYWDFLT
  2
AcDbDictionaryWithDefault
  3
AutoCAD 2000
 90
        0
280
     0
281
     0
  0
CLASS
  1
ACDBPLACEHOLDER
  2
AcDbPlaceHolder
  3
ObjectDBX Classes
 90
        0
280
     0
281
     0
  0
CLASS
  1
LAYOUT
  2
AcDbLayout
  3
ObjectDBX Classes
 90
        0
280
     0
281
     0
  0
CLASS
  1
LONG_TRANSACTION
  2
AcDbLongTransaction
  3
ObjectDBX Classes
 90
   -65536
280
     1
281
     0
  0
CLASS
  1
LWPOLYLINE
  2
AcDbPolyline
  3
AutoCAD 2000
 90
        0
280
     0
281
     1
  0
CLASS
  1
HATCH
  2
AcDbHatch
  3
AutoCAD 2000
 90
        0
280
     0
281
     1
  0
CLASS
  1
XRECORD
  2
AcDbXrecord
  3
AutoCAD 2000
 90
        0
280
     0
281
     0
  0
CLASS
  1
LONG_TRANSACTION
  2
AcDbLongTransaction
  3
ObjectDBX Classes
 90
   -65536
280
     1
281
     0
  0
CLASS
  1
LWPOLYLINE
  2
AcDbPolyline
  3
AutoCAD 2000
 90
        0
280
     0
281
     1
  0
CLASS
  1
HATCH
  2
AcDbHatch
  3
AutoCAD 2000
 90
        0
280
     0
281
     1
  0
CLASS
  1
XRECORD
  2
AcDbXrecord
  3
AutoCAD 2000
 90
        0
280
     0
281
     0
  0
CLASS
  1
LONG_TRANSACTION
  2
AcDbLongTransaction
  3
ObjectDBX Classes
 90
   -65536
280
     1
281
     0
  0
CLASS
  1
LWPOLYLINE
  2
AcDbPolyline
  3
AutoCAD 2000
 90
        0
280
     0
281
     1
  0
CLASS
  1
HATCH
  2
AcDbHatch
  3
AutoCAD 2000
 90
        0
280
     0
281
     1
  0
CLASS
  1
XRECORD
  2
AcDbXrecord
  3
AutoCAD 2000
 90
        0
280
     0
281
     0
  0
CLASS
  1
LONG_TRANSACTION
  2
AcDbLongTransaction
  3
ObjectDBX Classes
 90
   -65536
280
     1
281
     0
  0
CLASS
  1
LWPOLYLINE
  2
AcDbPolyline
  3
AutoCAD 2000
 90
        0
280
     0
281
     1
  0
CLASS
  1
HATCH
  2
AcDbHatch
  3
AutoCAD 2000
 90
        0
280
     0
281
     1
  0
CLASS
  1
XRECORD
  2
AcDbXrecord
  3
AutoCAD 2000
 90
        0
280
     0
281
     0
  0
CLASS
  1
LONG_TRANSACTION
  2
AcDbLongTransaction
  3
ObjectDBX Classes
 90
   -65536
280
     1
281
     0
  0
CLASS
  1
LWPOLYLINE
  2
AcDbPolyline
  3
AutoCAD 2000
 90
        0
280
     0
281
     1
  0
CLASS
  1
HATCH
  2
AcDbHatch
  3
AutoCAD 2000
 90
        0
280
     0
281
     1
  0
CLASS
  1
XRECORD
  2
AcDbXrecord
  3
AutoCAD 2000
 90
        0
280
     0
281
     0
  0
CLASS
  1
LONG_TRANSACTION
  2
AcDbLongTransaction
  3
ObjectDBX Classes
 90
   -65536
280
     1
281
     0
  0
CLASS
  1
LWPOLYLINE
  2
AcDbPolyline
  3
AutoCAD 2000
 90
        0
280
     0
281
     1
  0
CLASS
  1
HATCH
  2
AcDbHatch
  3
AutoCAD 2000
 90
        0
280
     0
281
     1
  0
CLASS
  1
XRECORD
  2
AcDbXrecord
  3
AutoCAD 2000
 90
        0
280
     0
281
     0
  0
CLASS
  1
LONG_TRANSACTION
  2
AcDbLongTransaction
  3
ObjectDBX Classes
 90
   -65536
280
     1
281
     0
  0
CLASS
  1
LWPOLYLINE
  2
AcDbPolyline
  3
AutoCAD 2000
 90
        0
280
     0
281
     1
  0
CLASS
  1
HATCH
  2
AcDbHatch
  3
AutoCAD 2000
 90
        0
280
     0
281
     1
  0
CLASS
  1
XRECORD
  2
AcDbXrecord
  3
AutoCAD 2000
 90
        0
280
     0
281
     0
  0
CLASS
  1
LONG_TRANSACTION
  2
AcDbLongTransaction
  3
ObjectDBX Classes
 90
   -65536
280
     1
281
     0
  0
CLASS
  1
LWPOLYLINE
  2
AcDbPolyline
  3
AutoCAD 2000
 90
        0
280
     0
281
     1
  0
CLASS
  1
HATCH
  2
AcDbHatch
  3
AutoCAD 2000
 90
        0
280
     0
281
     1
  0
CLASS
  1
XRECORD
  2
AcDbXrecord
  3
AutoCAD 2000
 90
        0
280
     0
281
     0
  0
CLASS
  1
LONG_TRANSACTION
  2
AcDbLongTransaction
  3
ObjectDBX Classes
 90
   -65536
280
     1
281
     0
  0
CLASS
  1
LWPOLYLINE
  2
AcDbPolyline
  3
AutoCAD 2000
 90
        0
280
     0
281
     1
  0
CLASS
  1
HATCH
  2
AcDbHatch
  3
AutoCAD 2000
 90
        0
280
     0
281
     1
  0
CLASS
  1
XRECORD
  2
AcDbXrecord
  3
AutoCAD 2000
 90
        0
280
     0
281
     0
  0
CLASS
  1
LONG_TRANSACTION
  2
AcDbLongTransaction
  3
ObjectDBX Classes
 90
   -65536
280
     1
281
     0
  0
CLASS
  1
LWPOLYLINE
  2
AcDbPolyline
  3
AutoCAD 2000
 90
        0
280
     0
281
     1
  0
CLASS
  1
HATCH
  2
AcDbHatch
  3
AutoCAD 2000
 90
        0
280
     0
281
     1
  0
CLASS
  1
XRECORD
  2
AcDbXrecord
  3
AutoCAD 2000
 90
        0
280
     0
281
     0
  0
CLASS
  1
LONG_TRANSACTION
  2
AcDbLongTransaction
  3
ObjectDBX Classes
 90
   -65536
280
     1
281
     0
  0
CLASS
  1
LWPOLYLINE
  2
AcDbPolyline
  3
AutoCAD 2000
 90
        0
280
     0
281
     1
  0
CLASS
  1
HATCH
  2
AcDbHatch
  3
AutoCAD 2000
 90
        0
280
     0
281
     1
  0
CLASS
  1
XRECORD
  2
AcDbXrecord
  3
AutoCAD 2000
 90
        0
280
     0
281
     0
  0
CLASS
  1
LONG_TRANSACTION
  2
AcDbLongTransaction
  3
ObjectDBX Classes
 90
   -65536
280
     1
281
     0
  0
CLASS
  1
LWPOLYLINE
  2
AcDbPolyline
  3
AutoCAD 2000
 90
        0
280
     0
281
     1
  0
CLASS
  1
HATCH
  2
AcDbHatch
  3
AutoCAD 2000
 90
        0
280
     0
281
     1
  0
CLASS
  1
XRECORD
  2
AcDbXrecord
  3
AutoCAD 2000
 90
        0
280
     0
281
     0
  0
CLASS
  1
LONG_TRANSACTION
  2
AcDbLongTransaction
  3
ObjectDBX Classes
 90
   -65536
280
     1
281
     0
  0
CLASS
  1
LWPOLYLINE
  2
AcDbPolyline
  3
AutoCAD 2000
 90
        0
280
     0
281
     1
  0
CLASS
  1
HATCH
  2
AcDbHatch
  3
AutoCAD 2000
 90
        0
280
     0
281
     1
  0
CLASS
  1
XRECORD
  2
AcDbXrecord
  3
AutoCAD 2000
 90
        0
280
     0
281
     0
  0
CLASS
  1
LONG_TRANSACTION
  2
AcDbLongTransaction
  3
ObjectDBX Classes
 90
   -65536
280
     1
281
     0
  0
CLASS
  1
LWPOLYLINE
  2
AcDbPolyline
  3
AutoCAD 2000
 90
        0
280
     0
281
     1
  0
CLASS
  1
HATCH
  2
AcDbHatch
  3
AutoCAD 2000
 90
        0
280
     0
281
     1
  0
CLASS
  1
XRECORD
  2
AcDbXrecord
  3
AutoCAD 2000
 90
        0
280
     0
281
     0
  0
CLASS
  1
TABLESTYLE
  2
AcDbTableStyle
  3
ObjectDBX Classes
 90
     2047
280
     1
281
     0
  0
ENDSEC
  0
SECTION
  2
TABLES
  0
TABLE
  2
VPORT
  5
1D
330
0
100
AcDbSymbolTable
 70
     2
  0
VPORT
  5
323
330
1D
100
AcDbSymbolTableRecord
100
AcDbViewportTableRecord
  2
*Active
 70
     0
 10
0.0
 20
0.0
 11
1.0
 21
1.0
 12
16.99166796678997
 22
15.98583981033142
 13
0.0
 23
0.0
 14
0.063
 24
0.063
 15
0.25
 25
0.25
 16
0.0
 26
0.0
 36
1.0
 17
0.0
 27
0.0
 37
0.0
 40
32.48915952148592
 41
1.939903846153846
 42
50.0
 43
0.0
 44
0.0
 50
0.0
 51
0.0
 71
     0
 72
   100
 73
     1
 74
     0
 75
     0
 76
     0
 77
     0
 78
     0
281
     0
 65
     1
110
0.0
120
0.0
130
0.0
111
1.0
121
0.0
131
0.0
112
0.0
122
1.0
132
0.0
 79
     0
146
0.0
  0
ENDTAB
  0
TABLE
  2
LTYPE
  5
18
330
0
100
AcDbSymbolTable
 70
     2
  0
LTYPE
  5
19
330
18
100
AcDbSymbolTableRecord
100
AcDbLinetypeTableRecord
  2
BYBLOCK
 70
     0
  3

 72
    65
 73
     0
 40
0.0
  0
LTYPE
  5
1A
330
18
100
AcDbSymbolTableRecord
100
AcDbLinetypeTableRecord
  2
BYLAYER
 70
     0
  3

 72
    65
 73
     0
 40
0.0
  0
LTYPE
  5
A
330
18
100
AcDbSymbolTableRecord
100
AcDbLinetypeTableRecord
  2
CONTINUOUS
 70
     0
  3
Solid line
 72
    65
 73
     0
 40
0.0
  0
LTYPE
  5
23D
330
18
100
AcDbSymbolTableRecord
100
AcDbLinetypeTableRecord
  2
HIDDEN
 70
     0
  3
Hidden __ __ __ __ __ __ __ __ __ __ __ __ __ _
 72
    65
 73
     2
 40
0.375
 49
0.25
 74
     0
 49
-0.125
 74
     0
  0
ENDTAB
  0
TABLE
  2
LAYER
  5
14
330
0
100
AcDbSymbolTable
 70
     1
  0
LAYER
  5
6
330
14
100
AcDbSymbolTableRecord
100
AcDbLayerTableRecord
  2
0
 70
     0
 62
     7
  6
CONTINUOUS
370
    -3
390
7
  0
ENDTAB
  0
TABLE
  2
STYLE
  5
15
330
0
100
AcDbSymbolTable
 70
     2
  0
STYLE
  5
16
330
15
100
AcDbSymbolTableRecord
100
AcDbTextStyleTableRecord
  2
STANDARD
 70
     0
 40
0.0
 41
1.0
 50
0.0
 71
     0
 42
0.36
  3
TXT
  4

  0
STYLE
  5
23C
330
15
100
AcDbSymbolTableRecord
100
AcDbTextStyleTableRecord
  2

 70
     1
 40
0.0
 41
1.0
 50
0.0
 71
     0
 42
0.36
  3
ltypeshp.shx
  4

  0
ENDTAB
  0
TABLE
  2
VIEW
  5
1B
330
0
100
AcDbSymbolTable
 70
     0
  0
ENDTAB
  0
TABLE
  2
UCS
  5
1C
330
0
100
AcDbSymbolTable
 70
     0
  0
ENDTAB
  0
TABLE
  2
APPID
  5
1F
330
0
100
AcDbSymbolTable
 70
     1
  0
APPID
  5
20
330
1F
100
AcDbSymbolTableRecord
100
AcDbRegAppTableRecord
  2
ACAD
 70
     0
  0
ENDTAB
  0
TABLE
  2
DIMSTYLE
  5
21
330
0
100
AcDbSymbolTable
 70
     1
100
AcDbDimStyleTable
  0
DIMSTYLE
105
28
330
21
100
AcDbSymbolTableRecord
100
AcDbDimStyleTableRecord
  2
STANDARD
 70
     0
  3

  4

340
16
  0
ENDTAB
  0
TABLE
  2
BLOCK_RECORD
  5
1
330
0
100
AcDbSymbolTable
 70
     2
  0
BLOCK_RECORD
  5
2
330
1
100
AcDbSymbolTableRecord
100
AcDbBlockTableRecord
  2
*MODEL_SPACE
340
C
  0
BLOCK_RECORD
  5
E
330
1
100
AcDbSymbolTableRecord
100
AcDbBlockTableRecord
  2
*PAPER_SPACE
340
13
  0
ENDTAB
  0
ENDSEC
  0
SECTION
  2
BLOCKS
  0
BLOCK
  5
5
330
2
100
AcDbEntity
  8
0
100
AcDbBlockBegin
  2
*MODEL_SPACE
 70
     0
 10
0.0
 20
0.0
 30
0.0
  3
*MODEL_SPACE
  1

  4

  0
ENDBLK
  5
B
330
2
100
AcDbEntity
  8
0
100
AcDbBlockEnd
  0
BLOCK
  5
11
330
E
100
AcDbEntity
 67
     1
  8
0
100
AcDbBlockBegin
  2
*PAPER_SPACE
 70
     0
 10
0.0
 20
0.0
 30
0.0
  3
*PAPER_SPACE
  1

  4

  0
ENDBLK
  5
12
330
E
100
AcDbEntity
 67
     1
  8
0
100
AcDbBlockEnd
  0
ENDSEC
  0
SECTION
  2
ENTITIES
  0
LINE
  5
D0
330
2
100
AcDbEntity
  8
0
100
AcDbLine
 10
6.953213207718869
 20
4.677634559389333
 30
0.0
 11
6.953213207718869
 21
5.365134559389333
 31
0.0
  0
LINE
  5
D1
330
2
100
AcDbEntity
  8
0
100
AcDbLine
 10
8.015713207718868
 20
5.365134559389333
 30
0.0
 11
8.015713207718868
 21
0.1711148742811943
 31
0.0
  0
LINE
  5
D2
330
2
100
AcDbEntity
  8
0
100
AcDbLine
 10
7.953213207718869
 20
5.365134559389333
 30
0.0
 11
7.953213207718869
 21
0.1711148742811943
 31
0.0
  0
LINE
  5
D3
330
2
100
AcDbEntity
  8
0
100
AcDbLine
 10
4.875493893907085
 20
-0.0098654406106675
 30
0.0
 11
7.875493893907057
 21
-0.0098654406106675
 31
0.0
  0
LINE
  5
D4
330
2
100
AcDbEntity
  8
0
100
AcDbLine
 10
6.335307721418432
 20
1.72651029675443
 30
0.0
 11
4.980915950869084
 21
0.2000966907067792
 31
0.0
  0
LINE
  5
D5
330
2
100
AcDbEntity
  8
0
100
AcDbLine
 10
4.875493893907085
 20
0.0526345593893325
 30
0.0
 11
4.875493893907085
 21
-0.0098654406106675
 31
0.0
  0
ARC
  5
D6
330
2
100
AcDbEntity
  8
0
100
AcDbCircle
 10
5.328213207718869
 20
-0.1596040396019198
 30
0.0
 40
0.5
100
AcDbArc
 50
133.9949139947459
 51
154.882423762177
  0
LINE
  5
D8
330
2
100
AcDbEntity
  8
0
100
AcDbLine
 10
6.889416680762836
 20
2.288558042148672
 30
0.0
 11
6.889416680762836
 21
2.565233042148677
 31
0.0
  0
ARC
  5
DA
330
2
100
AcDbEntity
  8
0
100
AcDbCircle
 10
5.640713207718865
 20
2.445911757371846
 30
0.0
 40
1.0
100
AcDbArc
 50
313.9949139947459
 51
0.0
  0
LINE
  5
DD
330
2
100
AcDbEntity
  8
0
100
AcDbLine
 10
6.889416680762836
 20
0.5463662540703282
 30
0.0
 11
6.889416680762836
 21
0.8230412540703327
 31
0.0
  0
ARC
  5
DE
330
2
100
AcDbEntity
  8
0
100
AcDbCircle
 10
8.328213207718868
 20
-0.1596040396019198
 30
0.0
 40
0.5
100
AcDbArc
 50
138.5903778907218
 51
154.8824237621768
  0
LINE
  5
DF
330
2
100
AcDbEntity
  8
0
100
AcDbLine
 10
8.015713207718868
 20
0.1711148742811943
 30
0.0
 11
7.953213207718869
 21
0.1711148742811943
 31
0.0
  0
LINE
  5
E0
330
2
100
AcDbEntity
  8
0
100
AcDbLine
 10
7.875493893907057
 20
0.0526345593893325
 30
0.0
 11
7.875493893907057
 21
-0.0098654406106675
 31
0.0
  0
ARC
  5
E1
330
2
100
AcDbEntity
  8
0
100
AcDbCircle
 10
7.953213207718869
 20
1.927634559389336
 30
0.0
 40
0.1875000000000025
100
AcDbArc
 50
90.0
 51
270.0
  0
LINE
  5
E4
330
2
100
AcDbEntity
  8
0
100
AcDbLine
 10
6.889416680762836
 20
3.415873741564262
 30
0.0
 11
6.889416680762836
 21
3.692548741564266
 31
0.0
  0
LINE
  5
E5
330
2
100
AcDbEntity
  8
0
100
AcDbLine
 10
6.640713207718869
 20
2.414711757371844
 30
0.0
 11
6.640713207718869
 21
4.365134559389333
 31
0.0
  0
ARC
  5
E6
330
2
100
AcDbEntity
  8
0
100
AcDbCircle
 10
6.796963207718869
 20
4.677634559389336
 30
0.0
 40
0.15625
100
AcDbArc
 50
270.0000000000001
 51
0.0
  0
LINE
  5
E7
330
2
100
AcDbEntity
  8
0
100
AcDbLine
 10
6.796963207718869
 20
4.521384559389333
 30
0.0
 11
6.796963207718869
 21
4.521384559389333
 31
0.0
  0
ARC
  5
E8
330
2
100
AcDbEntity
  8
0
100
AcDbCircle
 10
6.796963207718869
 20
4.365134559389336
 30
0.0
 40
0.15625
100
AcDbArc
 50
90.0
 51
180.0
  0
LINE
  5
E9
330
2
100
AcDbEntity
  8
0
100
AcDbLine
 10
8.015713207718868
 20
5.365134559389333
 30
0.0
 11
6.953213207718869
 21
5.365134559389333
 31
0.0
  0
LINE
  5
EA
330
2
100
AcDbEntity
  8
0
100
AcDbLine
 10
0.8749999999999725
 20
9.029551060078958
 30
0.0
 11
0.8749999999999725
 21
11.32065872153909
 31
0.0
  0
LINE
  5
EB
330
2
100
AcDbEntity
  8
0
100
AcDbLine
 10
-0.8749999999999956
 20
9.029551060078951
 30
0.0
 11
-0.8749999999999956
 21
11.32065872153909
 31
0.0
  0
LINE
  5
EC
330
2
100
AcDbEntity
  8
0
100
AcDbLine
 10
2.875000000000004
 20
12.10727037389077
 30
0.0
 11
0.9374999999999725
 21
12.10727037389077
 31
0.0
  0
LINE
  5
ED
330
2
100
AcDbEntity
  8
0
100
AcDbLine
 10
2.875000000000004
 20
12.16977037389077
 30
0.0
 11
0.937499999999976
 21
12.16977037389077
 31
0.0
  0
LINE
  5
EE
330
2
100
AcDbEntity
  8
0
100
AcDbLine
 10
-0.9374999999999956
 20
12.10727037389077
 30
0.0
 11
-2.874999999999997
 21
12.10727037389077
 31
0.0
  0
LINE
  5
EF
330
2
100
AcDbEntity
  8
0
100
AcDbLine
 10
-0.9375000000000187
 20
12.16977037389077
 30
0.0
 11
-2.874999999999997
 21
12.16977037389077
 31
0.0
  0
LINE
  5
F0
330
2
100
AcDbEntity
  8
0
100
AcDbLine
 10
-2.874999999999997
 20
12.10727037389077
 30
0.0
 11
-2.874999999999997
 21
12.16977037389076
 31
0.0
  0
ARC
  5
F1
330
2
100
AcDbEntity
  8
0
100
AcDbCircle
 10
-0.3748363443593297
 20
11.98227037389076
 30
0.0
 40
0.09375
100
AcDbArc
 50
180.0000000000004
 51
0.0000000000025585
  0
LINE
  5
F2
330
2
100
AcDbEntity
  8
0
100
AcDbLine
 10
-0.8749999999999956
 20
11.32065872153909
 30
0.0
 11
-0.8749999999999956
 21
12.04477037389077
 31
0.0
  0
ARC
  5
F3
330
2
100
AcDbEntity
  8
0
100
AcDbCircle
 10
-0.9375000000000187
 20
12.04477037389077
 30
0.0
 40
0.125
100
AcDbArc
 50
0.0
 51
90.00000000000003
  0
ARC
  5
F4
330
2
100
AcDbEntity
  8
0
100
AcDbCircle
 10
-0.9374999999999956
 20
12.04477037389077
 30
0.0
 40
0.0625
100
AcDbArc
 50
0.0
 51
90.00000000000003
  0
LINE
  5
F5
330
2
100
AcDbEntity
  8
0
100
AcDbLine
 10
-0.6002614010087699
 20
11.98227037389076
 30
0.0
 11
-0.4685863443593297
 21
11.98227037389076
 31
0.0
  0
LINE
  5
F6
330
2
100
AcDbEntity
  8
0
100
AcDbLine
 10
-0.8125000000000187
 20
12.02955106007896
 30
0.0
 11
-0.8125000000000187
 21
12.04477037389077
 31
0.0
  0
ARC
  5
F7
330
2
100
AcDbEntity
  8
0
100
AcDbCircle
 10
-0.6002614010087699
 20
12.48227037389076
 30
0.0
 40
0.5
100
AcDbArc
 50
244.8824237621772
 51
269.9999999999999
  0
LINE
  5
F8
330
2
100
AcDbEntity
  8
0
100
AcDbLine
 10
-0.8929509769898791
 20
11.22041767988747
 30
0.0
 11
-0.9993102558780977
 21
11.11405840099925
 31
0.0
  0
ARC
  5
F9
330
2
100
AcDbEntity
  8
0
100
AcDbCircle
 10
-0.9371451508140387
 20
11.26461185371163
 30
0.0
 40
0.0625
100
AcDbArc
 50
315.0
 51
359.9999999999999
  0
LINE
  5
FA
330
2
100
AcDbEntity
  8
0
100
AcDbLine
 10
-0.9993102558780995
 20
11.11405840099925
 30
0.0
 11
-0.8746451508140387
 21
11.04347384693474
 31
0.0
  0
LINE
  5
FB
330
2
100
AcDbEntity
  8
0
100
AcDbLine
 10
0.8749999999999725
 20
11.32065872153909
 30
0.0
 11
0.8749999999999725
 21
12.04477037389077
 31
0.0
  0
ARC
  5
FC
330
2
100
AcDbEntity
  8
0
100
AcDbCircle
 10
0.6002614010087202
 20
12.48227037389076
 30
0.0
 40
0.5
100
AcDbArc
 50
270.0
 51
295.1175762378232
  0
LINE
  5
FD
330
2
100
AcDbEntity
  8
0
100
AcDbLine
 10
-0.2810863443592959
 20
11.98227037389076
 30
0.0
 11
0.2815892839807956
 21
11.98227037389076
 31
0.0
  0
LINE
  5
FE
330
2
100
AcDbEntity
  8
0
100
AcDbLine
 10
0.473649167731943
 20
11.98227037389076
 30
0.0
 11
0.6002614010087202
 21
11.98227037389076
 31
0.0
  0
LINE
  5
FF
330
2
100
AcDbEntity
  8
0
100
AcDbLine
 10
0.4690892839807299
 20
11.98227037389076
 30
0.0
 11
0.6002614010087202
 21
11.98227037389076
 31
0.0
  0
ARC
  5
100
330
2
100
AcDbEntity
  8
0
100
AcDbCircle
 10
0.3753392839807299
 20
11.98227037389076
 30
0.0
 40
0.09375
100
AcDbArc
 50
180.0000000000004
 51
0.0000000000025585
  0
LINE
  5
101
330
2
100
AcDbEntity
  8
0
100
AcDbLine
 10
0.8124999999999725
 20
12.02955106007896
 30
0.0
 11
0.812499999999976
 21
12.04477037389077
 31
0.0
  0
ARC
  5
102
330
2
100
AcDbEntity
  8
0
100
AcDbCircle
 10
0.937499999999976
 20
12.04477037389077
 30
0.0
 40
0.125
100
AcDbArc
 50
90.00000000000006
 51
180.0
  0
ARC
  5
103
330
2
100
AcDbEntity
  8
0
100
AcDbCircle
 10
0.9374999999999725
 20
12.04477037389077
 30
0.0
 40
0.0625
100
AcDbArc
 50
90.00000000000006
 51
180.0
  0
LINE
  5
104
330
2
100
AcDbEntity
  8
0
100
AcDbLine
 10
0.8933058261758129
 20
11.22041767988747
 30
0.0
 11
0.9996651050640315
 21
11.11405840099925
 31
0.0
  0
ARC
  5
105
330
2
100
AcDbEntity
  8
0
100
AcDbCircle
 10
0.9374999999999725
 20
11.26461185371163
 30
0.0
 40
0.0625
100
AcDbArc
 50
180.0000000000001
 51
225.0
  0
LINE
  5
106
330
2
100
AcDbEntity
  8
0
100
AcDbLine
 10
0.9996651050640333
 20
11.11405840099925
 30
0.0
 11
0.8749999999999725
 21
11.04347384693474
 31
0.0
  0
LINE
  5
107
330
2
100
AcDbEntity
  8
0
100
AcDbLine
 10
2.875000000000004
 20
12.10727037389077
 30
0.0
 11
2.875000000000004
 21
12.16977037389077
 31
0.0
  0
ARC
  5
108
330
2
100
AcDbEntity
  8
0
100
AcDbCircle
 10
-0.3748363443593297
 20
8.982270373890763
 30
0.0
 40
0.09375
100
AcDbArc
 50
359.9999999999978
 51
180.0
  0
LINE
  5
109
330
2
100
AcDbEntity
  8
0
100
AcDbLine
 10
-0.8749999999999956
 20
9.029551060078951
 30
0.0
 11
-0.8124999999999956
 21
9.029551060078951
 31
0.0
  0
LINE
  5
10A
330
2
100
AcDbEntity
  8
0
100
AcDbLine
 10
-0.6002614010087699
 20
8.982270373890763
 30
0.0
 11
-0.4685863443593297
 21
8.982270373890763
 31
0.0
  0
ARC
  5
10B
330
2
100
AcDbEntity
  8
0
100
AcDbCircle
 10
-0.6002614010087699
 20
9.482270373890763
 30
0.0
 40
0.5
100
AcDbArc
 50
244.8824237621802
 51
269.9999999999999
  0
LINE
  5
10C
330
2
100
AcDbEntity
  8
0
100
AcDbLine
 10
-0.6002614010087699
 20
8.982270373890763
 30
0.0
 11
-0.5000000000000222
 21
8.982270373890763
 31
0.0
  0
ARC
  5
10D
330
2
100
AcDbEntity
  8
0
100
AcDbCircle
 10
0.6002614010087237
 20
9.482270373890763
 30
0.0
 40
0.5
100
AcDbArc
 50
270.0
 51
295.1175762378231
  0
LINE
  5
10E
330
2
100
AcDbEntity
  8
0
100
AcDbLine
 10
-0.2810863443592302
 20
8.982270373890763
 30
0.0
 11
0.2815892839807139
 21
8.982270373890763
 31
0.0
  0
LINE
  5
10F
330
2
100
AcDbEntity
  8
0
100
AcDbLine
 10
0.4690892839807299
 20
8.982270373890763
 30
0.0
 11
0.6002614010087237
 21
8.982270373890763
 31
0.0
  0
LINE
  5
110
330
2
100
AcDbEntity
  8
0
100
AcDbLine
 10
0.499999999999976
 20
8.982270373890763
 30
0.0
 11
0.6002614010087237
 21
8.982270373890763
 31
0.0
  0
ARC
  5
111
330
2
100
AcDbEntity
  8
0
100
AcDbCircle
 10
0.3753392839807299
 20
8.982270373890763
 30
0.0
 40
0.09375
100
AcDbArc
 50
359.9999999999978
 51
180.0
  0
LINE
  5
112
330
2
100
AcDbEntity
  8
0
100
AcDbLine
 10
0.8749999999999725
 20
9.029551060078958
 30
0.0
 11
0.8124999999999725
 21
9.029551060078958
 31
0.0
  0
LINE
  5
113
330
2
100
AcDbEntity
  8
0
100
AcDbLine
 10
0.8750000000000044
 20
0.1867636147541383
 30
0.0
 11
2.257094513699571
 21
1.20869969694682
 31
0.0
  0
LINE
  5
114
330
2
100
AcDbEntity
  8
0
100
AcDbLine
 10
2.875000000000004
 20
5.446262700198901
 30
0.0
 11
0.8125000000000044
 21
5.446262700198901
 31
0.0
  0
LINE
  5
115
330
2
100
AcDbEntity
  8
0
100
AcDbLine
 10
0.8125000000000027
 20
5.446262700198901
 30
0.0
 11
0.8125000000000044
 21
0.125
 31
0.0
  0
LINE
  5
116
330
2
100
AcDbEntity
  8
0
100
AcDbLine
 10
-0.8124999999999973
 20
0.1250000000000036
 30
0.0
 11
-0.8124999999999973
 21
5.446262700198904
 31
0.0
  0
LINE
  5
117
330
2
100
AcDbEntity
  8
0
100
AcDbLine
 10
0.8750000000000044
 20
5.446262700198897
 30
0.0
 11
0.8750000000000009
 21
0.1250000000000036
 31
0.0
  0
LINE
  5
118
330
2
100
AcDbEntity
  8
0
100
AcDbLine
 10
-0.8749999999999973
 20
0.1249999999999965
 30
0.0
 11
-0.8749999999999973
 21
5.446262700198904
 31
0.0
  0
LINE
  5
119
330
2
100
AcDbEntity
  8
0
100
AcDbLine
 10
-2.874999999999997
 20
4.602512700198904
 30
0.0
 11
-2.874999999999999
 21
5.446262700198897
 31
0.0
  0
ARC
  5
11A
330
2
100
AcDbEntity
  8
0
100
AcDbCircle
 10
-1.562499999999997
 20
1.928101157564235
 30
0.0
 40
1.0
100
AcDbArc
 50
180.0
 51
226.0050860052541
  0
ARC
  5
11B
330
2
100
AcDbEntity
  8
0
100
AcDbCircle
 10
-2.718749999999997
 20
4.290012700198904
 30
0.0
 40
0.15625
100
AcDbArc
 50
0.0
 51
90.0
  0
ARC
  5
11C
330
2
100
AcDbEntity
  8
0
100
AcDbCircle
 10
-2.718749999999997
 20
4.602512700198904
 30
0.0
 40
0.15625
100
AcDbArc
 50
180.0
 51
269.9999999999999
  0
LINE
  5
11D
330
2
100
AcDbEntity
  8
0
100
AcDbLine
 10
-2.718749999999997
 20
4.446262700198904
 30
0.0
 11
-2.718749999999997
 21
4.446262700198904
 31
0.0
  0
ARC
  5
11E
330
2
100
AcDbEntity
  8
0
100
AcDbCircle
 10
-0.8749999999999973
 20
2.290012700198908
 30
0.0
 40
0.1875000000000025
100
AcDbArc
 50
90.0
 51
270.0
  0
ARC
  5
11F
330
2
100
AcDbEntity
  8
0
100
AcDbCircle
 10
0.8750000000000044
 20
2.290012700198904
 30
0.0
 40
0.1875000000000025
100
AcDbArc
 50
270.0
 51
90.0
  0
LINE
  5
120
330
2
100
AcDbEntity
  8
0
100
AcDbLine
 10
-2.562499999999997
 20
1.928101157564235
 30
0.0
 11
-2.562499999999997
 21
4.290012700198904
 31
0.0
  0
LINE
  5
121
330
2
100
AcDbEntity
  8
0
100
AcDbLine
 10
0.7500000000000009
 20
0.0000000000000036
 30
0.0
 11
-0.7499999999999973
 21
-0.0000000000000036
 31
0.0
  0
LINE
  5
122
330
2
100
AcDbEntity
  8
0
100
AcDbLine
 10
0.7500000000000044
 20
0.0625
 30
0.0
 11
-0.7499999999999973
 21
0.0625000000000036
 31
0.0
  0
LINE
  5
123
330
2
100
AcDbEntity
  8
0
100
AcDbLine
 10
-0.8749999999999973
 20
0.1867636147541347
 30
0.0
 11
-2.257094513699566
 21
1.208699696946827
 31
0.0
  0
CIRCLE
  5
124
330
2
100
AcDbEntity
  8
0
100
AcDbCircle
 10
-1.374999999999997
 20
1.096250000000012
 30
0.0
 40
0.085937500000002
  0
ARC
  5
125
330
2
100
AcDbEntity
  8
0
100
AcDbCircle
 10
-0.7499999999999973
 20
0.1249999999999965
 30
0.0
 40
0.125
100
AcDbArc
 50
180.0
 51
269.9999999999999
  0
ARC
  5
126
330
2
100
AcDbEntity
  8
0
100
AcDbCircle
 10
-0.7499999999999973
 20
0.1250000000000036
 30
0.0
 40
0.0625
100
AcDbArc
 50
180.0
 51
269.9999999999998
  0
CIRCLE
  5
127
330
2
100
AcDbEntity
  8
0
100
AcDbCircle
 10
-2.189999999999997
 20
2.227562700198909
 30
0.0
 40
0.085937500000002
  0
LINE
  5
12A
330
2
100
AcDbEntity
  8
0
100
AcDbLine
 10
-0.8749999999999973
 20
1.118403373308997
 30
0.0
 11
-0.8749999999999973
 21
1.395078373309001
 31
0.0
  0
LINE
  5
12D
330
2
100
AcDbEntity
  8
0
100
AcDbLine
 10
0.8750000000000009
 20
0.936420435298178
 30
0.0
 11
0.8750000000000009
 21
1.213095435298182
 31
0.0
  0
CIRCLE
  5
12E
330
2
100
AcDbEntity
  8
0
100
AcDbCircle
 10
1.375000000000004
 20
1.093750000000007
 30
0.0
 40
0.085937500000002
  0
ARC
  5
12F
330
2
100
AcDbEntity
  8
0
100
AcDbCircle
 10
0.7500000000000009
 20
0.1250000000000036
 30
0.0
 40
0.125
100
AcDbArc
 50
270.0000000000001
 51
0.0
  0
ARC
  5
130
330
2
100
AcDbEntity
  8
0
100
AcDbCircle
 10
0.7500000000000044
 20
0.125
 30
0.0
 40
0.0625
100
AcDbArc
 50
269.9999999999998
 51
0.0
  0
CIRCLE
  5
131
330
2
100
AcDbEntity
  8
0
100
AcDbCircle
 10
-1.374999999999997
 20
3.596250000000012
 30
0.0
 40
0.085937500000002
  0
LINE
  5
132
330
2
100
AcDbEntity
  8
0
100
AcDbLine
 10
-0.8749999999999973
 20
2.984867613844742
 30
0.0
 11
-0.8749999999999973
 21
3.261542613844746
 31
0.0
  0
CIRCLE
  5
133
330
2
100
AcDbEntity
  8
0
100
AcDbCircle
 10
-1.374999999999997
 20
2.596250000000012
 30
0.0
 40
0.085937500000002
  0
CIRCLE
  5
136
330
2
100
AcDbEntity
  8
0
100
AcDbCircle
 10
-2.189999999999997
 20
3.843750000000007
 30
0.0
 40
0.085937500000002
  0
LINE
  5
137
330
2
100
AcDbEntity
  8
0
100
AcDbLine
 10
-0.8749999999999973
 20
4.111487161299994
 30
0.0
 11
-0.8749999999999973
 21
4.388162161299999
 31
0.0
  0
CIRCLE
  5
13A
330
2
100
AcDbEntity
  8
0
100
AcDbCircle
 10
-1.374999999999997
 20
4.596250000000012
 30
0.0
 40
0.085937500000002
  0
CIRCLE
  5
13B
330
2
100
AcDbEntity
  8
0
100
AcDbCircle
 10
1.375000000000004
 20
3.593750000000007
 30
0.0
 40
0.085937500000002
  0
CIRCLE
  5
13C
330
2
100
AcDbEntity
  8
0
100
AcDbCircle
 10
1.375000000000004
 20
2.593750000000007
 30
0.0
 40
0.085937500000002
  0
LINE
  5
13F
330
2
100
AcDbEntity
  8
0
100
AcDbLine
 10
0.8750000000000009
 20
2.678612223376522
 30
0.0
 11
0.8750000000000009
 21
2.955287223376526
 31
0.0
  0
LINE
  5
141
330
2
100
AcDbEntity
  8
0
100
AcDbLine
 10
0.8750000000000009
 20
3.805927922792112
 30
0.0
 11
0.8750000000000009
 21
4.082602922792116
 31
0.0
  0
CIRCLE
  5
143
330
2
100
AcDbEntity
  8
0
100
AcDbCircle
 10
1.375000000000004
 20
4.593750000000004
 30
0.0
 40
0.085937500000002
  0
LINE
  5
144
330
2
100
AcDbEntity
  8
0
100
AcDbLine
 10
-2.874999999999992
 20
5.446262700198901
 30
0.0
 11
-0.8124999999999902
 21
5.446262700198904
 31
0.0
  0
CIRCLE
  5
145
330
2
100
AcDbEntity
  8
0
100
AcDbCircle
 10
-2.527974353683089
 20
5.000000000000011
 30
0.0
 40
0.085937500000002
  0
LINE
  5
146
330
2
100
AcDbEntity
  8
0
100
AcDbLine
 10
2.875000000000004
 20
4.602512700198901
 30
0.0
 11
2.875000000000003
 21
5.446262700198901
 31
0.0
  0
CIRCLE
  5
147
330
2
100
AcDbEntity
  8
0
100
AcDbCircle
 10
2.185000000000007
 20
2.343750000000007
 30
0.0
 40
0.085937500000002
  0
LINE
  5
148
330
2
100
AcDbEntity
  8
0
100
AcDbLine
 10
2.562500000000004
 20
1.928101157564228
 30
0.0
 11
2.562500000000004
 21
4.290012700198901
 31
0.0
  0
ARC
  5
149
330
2
100
AcDbEntity
  8
0
100
AcDbCircle
 10
1.562500000000004
 20
1.928101157564228
 30
0.0
 40
1.0
100
AcDbArc
 50
313.9949139947457
 51
0.0
  0
CIRCLE
  5
14A
330
2
100
AcDbEntity
  8
0
100
AcDbCircle
 10
2.185000000000007
 20
3.843750000000004
 30
0.0
 40
0.085937500000002
  0
LINE
  5
14B
330
2
100
AcDbEntity
  8
0
100
AcDbLine
 10
2.718750000000004
 20
4.446262700198901
 30
0.0
 11
2.718750000000004
 21
4.446262700198901
 31
0.0
  0
ARC
  5
14C
330
2
100
AcDbEntity
  8
0
100
AcDbCircle
 10
2.718750000000004
 20
4.602512700198901
 30
0.0
 40
0.15625
100
AcDbArc
 50
270.0000000000001
 51
0.0
  0
ARC
  5
14D
330
2
100
AcDbEntity
  8
0
100
AcDbCircle
 10
2.718750000000004
 20
4.290012700198901
 30
0.0
 40
0.15625
100
AcDbArc
 50
89.99999999999999
 51
180.0
  0
CIRCLE
  5
14E
330
2
100
AcDbEntity
  8
0
100
AcDbCircle
 10
2.469668880387705
 20
5.000000000000007
 30
0.0
 40
0.085937500000002
  0
ARC
  5
167
330
2
100
AcDbEntity
  8
0
100
AcDbCircle
 10
-0.8749999999999938
 20
1.209106623932087
 30
0.0
 40
0.0320532506230897
100
AcDbArc
 50
236.4891770443244
 51
269.9999999999936
  0
ARC
  5
168
330
2
100
AcDbEntity
  8
0
100
AcDbCircle
 10
-0.8599249814362073
 20
1.231873147546715
 30
0.0
 40
0.0593583926698527
100
AcDbArc
 50
212.0281066666074
 51
236.4891770443289
  0
ARC
  5
169
330
2
100
AcDbEntity
  8
0
100
AcDbCircle
 10
-0.8359215559125248
 20
1.246888530168512
 30
0.0
 40
0.0876713959042316
100
AcDbArc
 50
194.5265478168116
 51
212.0281066666227
  0
ARC
  5
16A
330
2
100
AcDbEntity
  8
0
100
AcDbCircle
 10
-0.7978980607363893
 20
1.256740873308978
 30
0.0
 40
0.1269505869698216
100
AcDbArc
 50
179.9999999999888
 51
194.5265478167858
  0
ARC
  5
16B
330
2
100
AcDbEntity
  8
0
100
AcDbCircle
 10
-0.7978980607364177
 20
1.256740873309028
 30
0.0
 40
0.1269505869697927
100
AcDbArc
 50
165.4734521832141
 51
180.0000000000112
  0
ARC
  5
16C
330
2
100
AcDbEntity
  8
0
100
AcDbCircle
 10
-0.8359215559125302
 20
1.266593216449486
 30
0.0
 40
0.087671395904227
100
AcDbArc
 50
147.9718933333755
 51
165.4734521831875
  0
ARC
  5
16D
330
2
100
AcDbEntity
  8
0
100
AcDbCircle
 10
-0.8599249814362073
 20
1.281608599071284
 30
0.0
 40
0.0593583926698527
100
AcDbArc
 50
123.5108229556711
 51
147.9718933333926
  0
ARC
  5
16E
330
2
100
AcDbEntity
  8
0
100
AcDbCircle
 10
-0.8749999999999938
 20
1.304375122685912
 30
0.0
 40
0.0320532506230895
100
AcDbArc
 50
90.00000000000637
 51
123.5108229556756
  0
ARC
  5
16F
330
2
100
AcDbEntity
  8
0
100
AcDbCircle
 10
-0.8749999999999938
 20
1.19453714637573
 30
0.0
 40
0.0468087730667328
100
AcDbArc
 50
237.3920789847996
 51
269.9999999999956
  0
ARC
  5
170
330
2
100
AcDbEntity
  8
0
100
AcDbCircle
 10
-0.8559574957082168
 20
1.224304013119813
 30
0.0
 40
0.0821454866301408
100
AcDbArc
 50
212.9226719024485
 51
237.3920789848047
  0
ARC
  5
171
330
2
100
AcDbEntity
  8
0
100
AcDbCircle
 10
-0.8256995843951698
 20
1.243895722116086
 30
0.0
 40
0.1181923486076126
100
AcDbArc
 50
195.0133710020016
 51
212.9226719024541
  0
ARC
  5
172
330
2
100
AcDbEntity
  8
0
100
AcDbCircle
 10
-0.7778055380618332
 20
1.256740873308992
 30
0.0
 40
0.1677790160026736
100
AcDbArc
 50
179.9999999999964
 51
195.0133710019936
  0
ARC
  5
173
330
2
100
AcDbEntity
  8
0
100
AcDbCircle
 10
-0.7778055380618634
 20
1.256740873309006
 30
0.0
 40
0.167779016002644
100
AcDbArc
 50
164.9866289980037
 51
180.0000000000013
  0
ARC
  5
174
330
2
100
AcDbEntity
  8
0
100
AcDbCircle
 10
-0.8256995843951733
 20
1.269586024501912
 30
0.0
 40
0.1181923486076092
100
AcDbArc
 50
147.077328097545
 51
164.986628997998
  0
ARC
  5
175
330
2
100
AcDbEntity
  8
0
100
AcDbCircle
 10
-0.855957495708215
 20
1.289177733498182
 30
0.0
 40
0.0821454866301446
100
AcDbArc
 50
122.607921015195
 51
147.0773280975501
  0
ARC
  5
176
330
2
100
AcDbEntity
  8
0
100
AcDbCircle
 10
-0.8749999999999938
 20
1.318944600242269
 30
0.0
 40
0.0468087730667327
100
AcDbArc
 50
90.00000000000435
 51
122.6079210152004
  0
ARC
  5
177
330
2
100
AcDbEntity
  8
0
100
AcDbCircle
 10
0.8749999999999973
 20
1.027123685921268
 30
0.0
 40
0.0320532506230897
100
AcDbArc
 50
270.0000000000064
 51
303.5108229556756
  0
ARC
  5
178
330
2
100
AcDbEntity
  8
0
100
AcDbCircle
 10
0.8599249814362109
 20
1.049890209535896
 30
0.0
 40
0.0593583926698527
100
AcDbArc
 50
303.5108229556711
 51
327.9718933333926
  0
ARC
  5
179
330
2
100
AcDbEntity
  8
0
100
AcDbCircle
 10
0.8359215559125284
 20
1.064905592157693
 30
0.0
 40
0.0876713959042316
100
AcDbArc
 50
327.9718933333774
 51
345.4734521831884
  0
ARC
  5
17A
330
2
100
AcDbEntity
  8
0
100
AcDbCircle
 10
0.7978980607363946
 20
1.074757935298159
 30
0.0
 40
0.1269505869698199
100
AcDbArc
 50
345.473452183214
 51
0.000000000011224
  0
ARC
  5
17B
330
2
100
AcDbEntity
  8
0
100
AcDbCircle
 10
0.7978980607364212
 20
1.074757935298209
 30
0.0
 40
0.1269505869697927
100
AcDbArc
 50
359.9999999999888
 51
14.52654781678593
  0
ARC
  5
17C
330
2
100
AcDbEntity
  8
0
100
AcDbCircle
 10
0.8359215559125337
 20
1.084610278438667
 30
0.0
 40
0.087671395904227
100
AcDbArc
 50
14.52654781681249
 51
32.0281066666245
  0
ARC
  5
17D
330
2
100
AcDbEntity
  8
0
100
AcDbCircle
 10
0.8599249814362109
 20
1.099625661060465
 30
0.0
 40
0.0593583926698527
100
AcDbArc
 50
32.02810666660741
 51
56.48917704432887
  0
ARC
  5
17E
330
2
100
AcDbEntity
  8
0
100
AcDbCircle
 10
0.8749999999999973
 20
1.122392184675093
 30
0.0
 40
0.0320532506230895
100
AcDbArc
 50
56.48917704432444
 51
89.99999999999365
  0
ARC
  5
17F
330
2
100
AcDbEntity
  8
0
100
AcDbCircle
 10
0.8749999999999973
 20
1.012554208364911
 30
0.0
 40
0.0468087730667328
100
AcDbArc
 50
270.0000000000044
 51
302.6079210152004
  0
ARC
  5
180
330
2
100
AcDbEntity
  8
0
100
AcDbCircle
 10
0.8559574957082203
 20
1.042321075108994
 30
0.0
 40
0.0821454866301408
100
AcDbArc
 50
302.6079210151953
 51
327.0773280975515
  0
ARC
  5
181
330
2
100
AcDbEntity
  8
0
100
AcDbCircle
 10
0.8256995843951733
 20
1.061912784105267
 30
0.0
 40
0.1181923486076126
100
AcDbArc
 50
327.0773280975459
 51
344.9866289979984
  0
ARC
  5
182
330
2
100
AcDbEntity
  8
0
100
AcDbCircle
 10
0.7778055380618367
 20
1.074757935298173
 30
0.0
 40
0.1677790160026736
100
AcDbArc
 50
344.9866289980064
 51
0.0000000000036397
  0
ARC
  5
183
330
2
100
AcDbEntity
  8
0
100
AcDbCircle
 10
0.7778055380618669
 20
1.074757935298187
 30
0.0
 40
0.167779016002644
100
AcDbArc
 50
359.9999999999988
 51
15.01337100199628
  0
ARC
  5
184
330
2
100
AcDbEntity
  8
0
100
AcDbCircle
 10
0.8256995843951769
 20
1.087603086491093
 30
0.0
 40
0.1181923486076092
100
AcDbArc
 50
15.01337100200199
 51
32.92267190245504
  0
ARC
  5
185
330
2
100
AcDbEntity
  8
0
100
AcDbCircle
 10
0.8559574957082186
 20
1.107194795487363
 30
0.0
 40
0.0821454866301446
100
AcDbArc
 50
32.92267190244989
 51
57.39207898480503
  0
ARC
  5
186
330
2
100
AcDbEntity
  8
0
100
AcDbCircle
 10
0.8749999999999973
 20
1.13696166223145
 30
0.0
 40
0.0468087730667327
100
AcDbArc
 50
57.39207898479963
 51
89.99999999999565
  0
ARC
  5
187
330
2
100
AcDbEntity
  8
0
100
AcDbCircle
 10
-0.8749999999999938
 20
3.075570864467828
 30
0.0
 40
0.0320532506230862
100
AcDbArc
 50
236.4891770443209
 51
269.9999999999936
  0
ARC
  5
188
330
2
100
AcDbEntity
  8
0
100
AcDbCircle
 10
-0.8599249814362073
 20
3.098337388082459
 30
0.0
 40
0.0593583926698527
100
AcDbArc
 50
212.0281066666074
 51
236.4891770443289
  0
ARC
  5
189
330
2
100
AcDbEntity
  8
0
100
AcDbCircle
 10
-0.8359215559125248
 20
3.11335277070426
 30
0.0
 40
0.0876713959042334
100
AcDbArc
 50
194.5265478168139
 51
212.0281066666247
  0
ARC
  5
18A
330
2
100
AcDbEntity
  8
0
100
AcDbCircle
 10
-0.7978980607363893
 20
3.123205113844719
 30
0.0
 40
0.1269505869698208
100
AcDbArc
 50
179.9999999999872
 51
194.5265478167842
  0
ARC
  5
18B
330
2
100
AcDbEntity
  8
0
100
AcDbCircle
 10
-0.7978980607364177
 20
3.123205113844769
 30
0.0
 40
0.1269505869697927
100
AcDbArc
 50
165.4734521832125
 51
180.0000000000096
  0
ARC
  5
18C
330
2
100
AcDbEntity
  8
0
100
AcDbCircle
 10
-0.8359215559125302
 20
3.133057456985231
 30
0.0
 40
0.087671395904227
100
AcDbArc
 50
147.9718933333755
 51
165.4734521831875
  0
ARC
  5
18D
330
2
100
AcDbEntity
  8
0
100
AcDbCircle
 10
-0.8599249814362073
 20
3.148072839607028
 30
0.0
 40
0.0593583926698527
100
AcDbArc
 50
123.5108229556711
 51
147.9718933333926
  0
ARC
  5
18E
330
2
100
AcDbEntity
  8
0
100
AcDbCircle
 10
-0.8749999999999938
 20
3.170839363221656
 30
0.0
 40
0.0320532506230895
100
AcDbArc
 50
90.00000000000637
 51
123.5108229556756
  0
ARC
  5
18F
330
2
100
AcDbEntity
  8
0
100
AcDbCircle
 10
-0.8749999999999938
 20
3.061001386911478
 30
0.0
 40
0.0468087730667364
100
AcDbArc
 50
237.392078984802
 51
269.9999999999956
  0
ARC
  5
190
330
2
100
AcDbEntity
  8
0
100
AcDbCircle
 10
-0.8559574957082168
 20
3.090768253655561
 30
0.0
 40
0.0821454866301438
100
AcDbArc
 50
212.9226719024506
 51
237.3920789848061
  0
ARC
  5
191
330
2
100
AcDbEntity
  8
0
100
AcDbCircle
 10
-0.8256995843951698
 20
3.110359962651831
 30
0.0
 40
0.1181923486076126
100
AcDbArc
 50
195.0133710020016
 51
212.9226719024541
  0
ARC
  5
192
330
2
100
AcDbEntity
  8
0
100
AcDbCircle
 10
-0.7778055380618332
 20
3.12320511384474
 30
0.0
 40
0.1677790160026746
100
AcDbArc
 50
179.9999999999976
 51
195.0133710019948
  0
ARC
  5
193
330
2
100
AcDbEntity
  8
0
100
AcDbCircle
 10
-0.7778055380618634
 20
3.123205113844755
 30
0.0
 40
0.167779016002644
100
AcDbArc
 50
164.9866289980049
 51
180.0000000000024
  0
ARC
  5
194
330
2
100
AcDbEntity
  8
0
100
AcDbCircle
 10
-0.8256995843951733
 20
3.13605026503766
 30
0.0
 40
0.1181923486076083
100
AcDbArc
 50
147.0773280975464
 51
164.9866289979997
  0
ARC
  5
195
330
2
100
AcDbEntity
  8
0
100
AcDbCircle
 10
-0.855957495708215
 20
3.155641974033927
 30
0.0
 40
0.0821454866301446
100
AcDbArc
 50
122.607921015195
 51
147.0773280975501
  0
ARC
  5
196
330
2
100
AcDbEntity
  8
0
100
AcDbCircle
 10
-0.8749999999999938
 20
3.18540884077801
 30
0.0
 40
0.0468087730667357
100
AcDbArc
 50
90.00000000000435
 51
122.607921015198
  0
ARC
  5
197
330
2
100
AcDbEntity
  8
0
100
AcDbCircle
 10
-0.8749999999999938
 20
4.187620934366727
 30
0.0
 40
0.0468087730667328
100
AcDbArc
 50
237.3920789847996
 51
269.9999999999956
  0
ARC
  5
198
330
2
100
AcDbEntity
  8
0
100
AcDbCircle
 10
-0.8559574957082168
 20
4.21738780111081
 30
0.0
 40
0.0821454866301408
100
AcDbArc
 50
212.9226719024485
 51
237.3920789848047
  0
ARC
  5
199
330
2
100
AcDbEntity
  8
0
100
AcDbCircle
 10
-0.8256995843951698
 20
4.236979510107084
 30
0.0
 40
0.1181923486076126
100
AcDbArc
 50
195.0133710020016
 51
212.9226719024541
  0
ARC
  5
19A
330
2
100
AcDbEntity
  8
0
100
AcDbCircle
 10
-0.7778055380618332
 20
4.249824661299989
 30
0.0
 40
0.1677790160026736
100
AcDbArc
 50
179.9999999999964
 51
195.0133710019936
  0
ARC
  5
19B
330
2
100
AcDbEntity
  8
0
100
AcDbCircle
 10
-0.7778055380618634
 20
4.249824661300004
 30
0.0
 40
0.167779016002644
100
AcDbArc
 50
164.9866289980037
 51
180.0000000000013
  0
ARC
  5
19C
330
2
100
AcDbEntity
  8
0
100
AcDbCircle
 10
-0.8256995843951733
 20
4.262669812492909
 30
0.0
 40
0.1181923486076092
100
AcDbArc
 50
147.077328097545
 51
164.986628997998
  0
ARC
  5
19D
330
2
100
AcDbEntity
  8
0
100
AcDbCircle
 10
-0.855957495708215
 20
4.282261521489179
 30
0.0
 40
0.0821454866301446
100
AcDbArc
 50
122.607921015195
 51
147.0773280975501
  0
ARC
  5
19E
330
2
100
AcDbEntity
  8
0
100
AcDbCircle
 10
-0.8749999999999938
 20
4.312028388233266
 30
0.0
 40
0.0468087730667327
100
AcDbArc
 50
90.00000000000435
 51
122.6079210152004
  0
ARC
  5
19F
330
2
100
AcDbEntity
  8
0
100
AcDbCircle
 10
-0.8749999999999938
 20
4.202190411923084
 30
0.0
 40
0.0320532506230897
100
AcDbArc
 50
236.4891770443244
 51
269.9999999999936
  0
ARC
  5
1A0
330
2
100
AcDbEntity
  8
0
100
AcDbCircle
 10
-0.8599249814362073
 20
4.224956935537712
 30
0.0
 40
0.0593583926698527
100
AcDbArc
 50
212.0281066666074
 51
236.4891770443289
  0
ARC
  5
1A1
330
2
100
AcDbEntity
  8
0
100
AcDbCircle
 10
-0.8359215559125248
 20
4.239972318159509
 30
0.0
 40
0.0876713959042316
100
AcDbArc
 50
194.5265478168116
 51
212.0281066666227
  0
ARC
  5
1A2
330
2
100
AcDbEntity
  8
0
100
AcDbCircle
 10
-0.7978980607363893
 20
4.249824661299975
 30
0.0
 40
0.1269505869698216
100
AcDbArc
 50
179.9999999999888
 51
194.5265478167858
  0
ARC
  5
1A3
330
2
100
AcDbEntity
  8
0
100
AcDbCircle
 10
-0.7978980607364177
 20
4.249824661300025
 30
0.0
 40
0.1269505869697927
100
AcDbArc
 50
165.4734521832141
 51
180.0000000000112
  0
ARC
  5
1A4
330
2
100
AcDbEntity
  8
0
100
AcDbCircle
 10
-0.8359215559125302
 20
4.259677004440484
 30
0.0
 40
0.087671395904227
100
AcDbArc
 50
147.9718933333755
 51
165.4734521831875
  0
ARC
  5
1A5
330
2
100
AcDbEntity
  8
0
100
AcDbCircle
 10
-0.8599249814362073
 20
4.274692387062281
 30
0.0
 40
0.0593583926698527
100
AcDbArc
 50
123.5108229556711
 51
147.9718933333926
  0
ARC
  5
1A6
330
2
100
AcDbEntity
  8
0
100
AcDbCircle
 10
-0.8749999999999938
 20
4.297458910676909
 30
0.0
 40
0.0320532506230895
100
AcDbArc
 50
90.00000000000637
 51
123.5108229556756
  0
ARC
  5
1A7
330
2
100
AcDbEntity
  8
0
100
AcDbCircle
 10
0.8749999999999973
 20
2.754745996443255
 30
0.0
 40
0.0468087730667328
100
AcDbArc
 50
270.0000000000044
 51
302.6079210152004
  0
ARC
  5
1A8
330
2
100
AcDbEntity
  8
0
100
AcDbCircle
 10
0.8559574957082203
 20
2.784512863187338
 30
0.0
 40
0.0821454866301408
100
AcDbArc
 50
302.6079210151953
 51
327.0773280975515
  0
ARC
  5
1A9
330
2
100
AcDbEntity
  8
0
100
AcDbCircle
 10
0.8256995843951733
 20
2.804104572183611
 30
0.0
 40
0.1181923486076126
100
AcDbArc
 50
327.0773280975459
 51
344.9866289979984
  0
ARC
  5
1AA
330
2
100
AcDbEntity
  8
0
100
AcDbCircle
 10
0.7778055380618367
 20
2.816949723376517
 30
0.0
 40
0.1677790160026736
100
AcDbArc
 50
344.9866289980064
 51
0.0000000000036397
  0
ARC
  5
1AB
330
2
100
AcDbEntity
  8
0
100
AcDbCircle
 10
0.7778055380618669
 20
2.816949723376531
 30
0.0
 40
0.167779016002644
100
AcDbArc
 50
359.9999999999988
 51
15.01337100199628
  0
ARC
  5
1AC
330
2
100
AcDbEntity
  8
0
100
AcDbCircle
 10
0.8256995843951769
 20
2.829794874569437
 30
0.0
 40
0.1181923486076092
100
AcDbArc
 50
15.01337100200199
 51
32.92267190245504
  0
ARC
  5
1AD
330
2
100
AcDbEntity
  8
0
100
AcDbCircle
 10
0.8559574957082186
 20
2.849386583565707
 30
0.0
 40
0.0821454866301446
100
AcDbArc
 50
32.92267190244989
 51
57.39207898480503
  0
ARC
  5
1AE
330
2
100
AcDbEntity
  8
0
100
AcDbCircle
 10
0.8749999999999973
 20
2.879153450309794
 30
0.0
 40
0.0468087730667327
100
AcDbArc
 50
57.39207898479963
 51
89.99999999999565
  0
ARC
  5
1AF
330
2
100
AcDbEntity
  8
0
100
AcDbCircle
 10
0.8749999999999973
 20
2.769315473999612
 30
0.0
 40
0.0320532506230897
100
AcDbArc
 50
270.0000000000064
 51
303.5108229556756
  0
ARC
  5
1B0
330
2
100
AcDbEntity
  8
0
100
AcDbCircle
 10
0.8599249814362109
 20
2.79208199761424
 30
0.0
 40
0.0593583926698527
100
AcDbArc
 50
303.5108229556711
 51
327.9718933333926
  0
ARC
  5
1B1
330
2
100
AcDbEntity
  8
0
100
AcDbCircle
 10
0.8359215559125284
 20
2.807097380236037
 30
0.0
 40
0.0876713959042316
100
AcDbArc
 50
327.9718933333774
 51
345.4734521831884
  0
ARC
  5
1B2
330
2
100
AcDbEntity
  8
0
100
AcDbCircle
 10
0.7978980607363946
 20
2.816949723376503
 30
0.0
 40
0.1269505869698199
100
AcDbArc
 50
345.473452183214
 51
0.000000000011224
  0
ARC
  5
1B3
330
2
100
AcDbEntity
  8
0
100
AcDbCircle
 10
0.7978980607364212
 20
2.816949723376553
 30
0.0
 40
0.1269505869697927
100
AcDbArc
 50
359.9999999999888
 51
14.52654781678593
  0
ARC
  5
1B4
330
2
100
AcDbEntity
  8
0
100
AcDbCircle
 10
0.8359215559125337
 20
2.826802066517011
 30
0.0
 40
0.087671395904227
100
AcDbArc
 50
14.52654781681249
 51
32.0281066666245
  0
ARC
  5
1B5
330
2
100
AcDbEntity
  8
0
100
AcDbCircle
 10
0.8599249814362109
 20
2.841817449138809
 30
0.0
 40
0.0593583926698527
100
AcDbArc
 50
32.02810666660741
 51
56.48917704432887
  0
ARC
  5
1B6
330
2
100
AcDbEntity
  8
0
100
AcDbCircle
 10
0.8749999999999973
 20
2.864583972753437
 30
0.0
 40
0.0320532506230895
100
AcDbArc
 50
56.48917704432444
 51
89.99999999999365
  0
ARC
  5
1B7
330
2
100
AcDbEntity
  8
0
100
AcDbCircle
 10
0.8749999999999973
 20
3.882061695858845
 30
0.0
 40
0.0468087730667328
100
AcDbArc
 50
270.0000000000044
 51
302.6079210152004
  0
ARC
  5
1B8
330
2
100
AcDbEntity
  8
0
100
AcDbCircle
 10
0.8559574957082203
 20
3.911828562602928
 30
0.0
 40
0.0821454866301408
100
AcDbArc
 50
302.6079210151953
 51
327.0773280975515
  0
ARC
  5
1B9
330
2
100
AcDbEntity
  8
0
100
AcDbCircle
 10
0.8256995843951733
 20
3.931420271599201
 30
0.0
 40
0.1181923486076126
100
AcDbArc
 50
327.0773280975459
 51
344.9866289979984
  0
ARC
  5
1BA
330
2
100
AcDbEntity
  8
0
100
AcDbCircle
 10
0.7778055380618367
 20
3.944265422792107
 30
0.0
 40
0.1677790160026736
100
AcDbArc
 50
344.9866289980064
 51
0.0000000000036397
  0
ARC
  5
1BB
330
2
100
AcDbEntity
  8
0
100
AcDbCircle
 10
0.7778055380618669
 20
3.944265422792121
 30
0.0
 40
0.167779016002644
100
AcDbArc
 50
359.9999999999988
 51
15.01337100199628
  0
ARC
  5
1BC
330
2
100
AcDbEntity
  8
0
100
AcDbCircle
 10
0.8256995843951769
 20
3.957110573985027
 30
0.0
 40
0.1181923486076092
100
AcDbArc
 50
15.01337100200199
 51
32.92267190245504
  0
ARC
  5
1BD
330
2
100
AcDbEntity
  8
0
100
AcDbCircle
 10
0.8559574957082186
 20
3.976702282981297
 30
0.0
 40
0.0821454866301446
100
AcDbArc
 50
32.92267190244989
 51
57.39207898480503
  0
ARC
  5
1BE
330
2
100
AcDbEntity
  8
0
100
AcDbCircle
 10
0.8749999999999973
 20
4.006469149725383
 30
0.0
 40
0.0468087730667327
100
AcDbArc
 50
57.39207898479963
 51
89.99999999999565
  0
ARC
  5
1BF
330
2
100
AcDbEntity
  8
0
100
AcDbCircle
 10
0.8749999999999973
 20
3.896631173415202
 30
0.0
 40
0.0320532506230897
100
AcDbArc
 50
270.0000000000064
 51
303.5108229556756
  0
ARC
  5
1C0
330
2
100
AcDbEntity
  8
0
100
AcDbCircle
 10
0.8599249814362109
 20
3.919397697029829
 30
0.0
 40
0.0593583926698527
100
AcDbArc
 50
303.5108229556711
 51
327.9718933333926
  0
ARC
  5
1C1
330
2
100
AcDbEntity
  8
0
100
AcDbCircle
 10
0.8359215559125284
 20
3.934413079651627
 30
0.0
 40
0.0876713959042316
100
AcDbArc
 50
327.9718933333774
 51
345.4734521831884
  0
ARC
  5
1C2
330
2
100
AcDbEntity
  8
0
100
AcDbCircle
 10
0.7978980607363946
 20
3.944265422792093
 30
0.0
 40
0.1269505869698199
100
AcDbArc
 50
345.473452183214
 51
0.000000000011224
  0
ARC
  5
1C3
330
2
100
AcDbEntity
  8
0
100
AcDbCircle
 10
0.7978980607364212
 20
3.944265422792142
 30
0.0
 40
0.1269505869697927
100
AcDbArc
 50
359.9999999999888
 51
14.52654781678593
  0
ARC
  5
1C4
330
2
100
AcDbEntity
  8
0
100
AcDbCircle
 10
0.8359215559125337
 20
3.954117765932601
 30
0.0
 40
0.087671395904227
100
AcDbArc
 50
14.52654781681249
 51
32.0281066666245
  0
ARC
  5
1C5
330
2
100
AcDbEntity
  8
0
100
AcDbCircle
 10
0.8599249814362109
 20
3.969133148554398
 30
0.0
 40
0.0593583926698527
100
AcDbArc
 50
32.02810666660741
 51
56.48917704432887
  0
ARC
  5
1C6
330
2
100
AcDbEntity
  8
0
100
AcDbCircle
 10
0.8749999999999973
 20
3.991899672169026
 30
0.0
 40
0.0320532506230895
100
AcDbArc
 50
56.48917704432444
 51
89.99999999999365
  0
LINE
  5
1E3
330
2
100
AcDbEntity
  8
0
100
AcDbLine
 10
-6.335307721418425
 20
1.72651029675443
 30
0.0
 11
-4.980915950869076
 21
0.2000966907067792
 31
0.0
  0
LINE
  5
1E4
330
2
100
AcDbEntity
  8
0
100
AcDbLine
 10
-4.875493893907078
 20
-0.0098654406106675
 30
0.0
 11
-7.875493893907049
 21
-0.0098654406106675
 31
0.0
  0
LINE
  5
1E5
330
2
100
AcDbEntity
  8
0
100
AcDbLine
 10
-4.875493893907078
 20
0.0526345593893325
 30
0.0
 11
-4.875493893907078
 21
-0.0098654406106675
 31
0.0
  0
ARC
  5
1E6
330
2
100
AcDbEntity
  8
0
100
AcDbCircle
 10
-5.328213207718862
 20
-0.1596040396019198
 30
0.0
 40
0.5
100
AcDbArc
 50
25.11757623782306
 51
46.00508600525413
  0
LINE
  5
1E7
330
2
100
AcDbEntity
  8
0
100
AcDbLine
 10
-8.015713207718861
 20
5.365134559389333
 30
0.0
 11
-8.015713207718861
 21
0.1711148742811943
 31
0.0
  0
LINE
  5
1E8
330
2
100
AcDbEntity
  8
0
100
AcDbLine
 10
-7.953213207718862
 20
5.365134559389333
 30
0.0
 11
-7.953213207718862
 21
0.1711148742811943
 31
0.0
  0
LINE
  5
1E9
330
2
100
AcDbEntity
  8
0
100
AcDbLine
 10
-6.889416680762829
 20
1.24197967380606
 30
0.0
 11
-6.889416680762829
 21
1.518654673806065
 31
0.0
  0
LINE
  5
1FA
330
2
100
AcDbEntity
  8
0
100
AcDbLine
 10
-8.015713207718861
 20
0.1711148742811943
 30
0.0
 11
-7.953213207718862
 21
0.1711148742811943
 31
0.0
  0
LINE
  5
1FB
330
2
100
AcDbEntity
  8
0
100
AcDbLine
 10
-7.875493893907049
 20
0.0526345593893325
 30
0.0
 11
-7.875493893907049
 21
-0.0098654406106675
 31
0.0
  0
ARC
  5
1FC
330
2
100
AcDbEntity
  8
0
100
AcDbCircle
 10
-8.328213207718861
 20
-0.1596040396019198
 30
0.0
 40
0.5
100
AcDbArc
 50
25.11757623782321
 51
41.40962210927817
  0
LINE
  5
1FD
330
2
100
AcDbEntity
  8
0
100
AcDbLine
 10
-6.889416680762829
 20
4.111487161299994
 30
0.0
 11
-6.889416680762829
 21
4.388162161299999
 31
0.0
  0
LINE
  5
1FE
330
2
100
AcDbEntity
  8
0
100
AcDbLine
 10
-6.640713207718862
 20
2.414711757371844
 30
0.0
 11
-6.640713207718862
 21
4.365134559389333
 31
0.0
  0
ARC
  5
201
330
2
100
AcDbEntity
  8
0
100
AcDbCircle
 10
-5.640713207718858
 20
2.445911757371846
 30
0.0
 40
1.0
100
AcDbArc
 50
180.0
 51
226.0050860052541
  0
LINE
  5
202
330
2
100
AcDbEntity
  8
0
100
AcDbLine
 10
-6.889416680762829
 20
2.984171461884404
 30
0.0
 11
-6.889416680762829
 21
3.260846461884409
 31
0.0
  0
ARC
  5
214
330
2
100
AcDbEntity
  8
0
100
AcDbCircle
 10
-7.953213207718862
 20
1.927634559389336
 30
0.0
 40
0.1875000000000025
100
AcDbArc
 50
270.0
 51
90.0
  0
LINE
  5
215
330
2
100
AcDbEntity
  8
0
100
AcDbLine
 10
-8.015713207718861
 20
5.365134559389333
 30
0.0
 11
-6.953213207718862
 21
5.365134559389333
 31
0.0
  0
LINE
  5
216
330
2
100
AcDbEntity
  8
0
100
AcDbLine
 10
-6.953213207718862
 20
4.677634559389333
 30
0.0
 11
-6.953213207718862
 21
5.365134559389333
 31
0.0
  0
ARC
  5
224
330
2
100
AcDbEntity
  8
0
100
AcDbCircle
 10
-6.796963207718862
 20
4.677634559389336
 30
0.0
 40
0.15625
100
AcDbArc
 50
180.0
 51
269.9999999999999
  0
LINE
  5
225
330
2
100
AcDbEntity
  8
0
100
AcDbLine
 10
-6.796963207718862
 20
4.521384559389333
 30
0.0
 11
-6.796963207718862
 21
4.521384559389333
 31
0.0
  0
ARC
  5
226
330
2
100
AcDbEntity
  8
0
100
AcDbCircle
 10
-6.796963207718862
 20
4.365134559389336
 30
0.0
 40
0.15625
100
AcDbArc
 50
0.000000000000007
 51
90.0
  0
LINE
  5
229
330
2
100
AcDbEntity
  8
0
100
AcDbLine
 10
-0.8125000000000188
 20
12.02955106007896
 30
0.0
 11
-0.8125000000000041
 21
9.029551060078951
 31
0.0
  0
LINE
  5
22A
330
2
100
AcDbEntity
  8
0
100
AcDbLine
 10
0.812499999999972
 20
12.02955106007896
 30
0.0
 11
0.8124999999999725
 21
9.029551060078958
 31
0.0
  0
LINE
  5
23E
330
2
100
AcDbEntity
  8
0
  6
HIDDEN
100
AcDbLine
 10
-4.880251383907382
 20
0.0625000000000036
 30
0.0
 11
-7.880251383907381
 21
0.0625000000000036
 31
0.0
  0
LINE
  5
23F
330
2
100
AcDbEntity
  8
0
  6
HIDDEN
100
AcDbLine
 10
4.880251383907387
 20
0.0625
 30
0.0
 11
7.880251383907386
 21
0.0625
 31
0.0
  0
ARC
  5
279
330
2
100
AcDbEntity
  8
0
100
AcDbCircle
 10
-6.942354921619047
 20
1.409468248402087
 30
0.0
 40
0.1545284259354844
100
AcDbArc
 50
210.8424709887116
 51
235.2517244545657
  0
ARC
  5
27A
330
2
100
AcDbEntity
  8
0
100
AcDbCircle
 10
-6.942354921619054
 20
1.351166099210035
 30
0.0
 40
0.1545284259354811
100
AcDbArc
 50
124.7482755454322
 51
149.1575290112859
  0
LINE
  5
27B
330
2
100
AcDbEntity
  8
0
100
AcDbLine
 10
-6.889416680762829
 20
1.241979673806062
 30
0.0
 11
-6.889416680762829
 21
1.518654673806063
 31
0.0
  0
ARC
  5
27C
330
2
100
AcDbEntity
  8
0
100
AcDbCircle
 10
-6.889416680762822
 20
1.528477974043215
 30
0.0
 40
0.2864983002371524
100
AcDbArc
 50
253.9689634222568
 51
269.9999999999986
  0
ARC
  5
27D
330
2
100
AcDbEntity
  8
0
100
AcDbCircle
 10
-6.910358664849363
 20
1.455593626106131
 30
0.0
 40
0.2106649640867842
100
AcDbArc
 50
235.2517244545688
 51
253.9689634222602
  0
ARC
  5
27E
330
2
100
AcDbEntity
  8
0
100
AcDbCircle
 10
-6.910358664849349
 20
1.305040721505991
 30
0.0
 40
0.2106649640867918
100
AcDbArc
 50
106.0310365777433
 51
124.7482755454343
  0
ARC
  5
27F
330
2
100
AcDbEntity
  8
0
100
AcDbCircle
 10
-6.889416680762822
 20
1.232156373568914
 30
0.0
 40
0.2864983002371495
100
AcDbArc
 50
90.00000000000142
 51
106.0310365777434
  0
ARC
  5
280
330
2
100
AcDbEntity
  8
0
100
AcDbCircle
 10
-6.889416680762833
 20
1.332682924429145
 30
0.0
 40
0.0320532506230826
100
AcDbArc
 50
236.4891770443368
 51
270.0000000000064
  0
ARC
  5
282
330
2
100
AcDbEntity
  8
0
100
AcDbCircle
 10
-6.850338236675353
 20
1.370464830665556
 30
0.0
 40
0.0876713959042233
100
AcDbArc
 50
194.5265478167987
 51
212.0281066666096
  0
ARC
  5
283
330
2
100
AcDbEntity
  8
0
100
AcDbCircle
 10
-6.812314741499233
 20
1.380317173806064
 30
0.0
 40
0.1269505869698081
100
AcDbArc
 50
180.0
 51
194.5265478167974
  0
ARC
  5
284
330
2
100
AcDbEntity
  8
0
100
AcDbCircle
 10
-6.812314741499244
 20
1.380317173806061
 30
0.0
 40
0.126950586969798
100
AcDbArc
 50
165.4734521832015
 51
179.9999999999984
  0
ARC
  5
285
330
2
100
AcDbEntity
  8
0
100
AcDbCircle
 10
-6.850338236675346
 20
1.390169516946573
 30
0.0
 40
0.0876713959042293
100
AcDbArc
 50
147.9718933333928
 51
165.4734521832047
  0
ARC
  5
286
330
2
100
AcDbEntity
  8
0
100
AcDbCircle
 10
-6.874341662199037
 20
1.405184899568342
 30
0.0
 40
0.059358392669858
100
AcDbArc
 50
123.5108229556659
 51
147.9718933333877
  0
ARC
  5
287
330
2
100
AcDbEntity
  8
0
100
AcDbCircle
 10
-6.889416680762833
 20
1.427951423182984
 30
0.0
 40
0.0320532506230777
100
AcDbArc
 50
89.99999999999363
 51
123.5108229556667
  0
ARC
  5
288
330
2
100
AcDbEntity
  8
0
100
AcDbCircle
 10
-6.889416680762833
 20
1.318113446872788
 30
0.0
 40
0.0468087730667257
100
AcDbArc
 50
237.3920789848083
 51
270.0000000000044
  0
ARC
  5
289
330
2
100
AcDbEntity
  8
0
100
AcDbCircle
 10
-6.87037417647104
 20
1.347880313616885
 30
0.0
 40
0.0821454866301527
100
AcDbArc
 50
212.9226719024493
 51
237.3920789848056
  0
ARC
  5
28A
330
2
100
AcDbEntity
  8
0
100
AcDbCircle
 10
-6.840116265158
 20
1.367472022613141
 30
0.0
 40
0.1181923486076083
100
AcDbArc
 50
195.0133710019968
 51
212.9226719024493
  0
ARC
  5
28B
330
2
100
AcDbEntity
  8
0
100
AcDbCircle
 10
-6.792222218824674
 20
1.380317173806057
 30
0.0
 40
0.1677790160026616
100
AcDbArc
 50
179.9999999999976
 51
195.0133710019947
  0
ARC
  5
28C
330
2
100
AcDbEntity
  8
0
100
AcDbCircle
 10
-6.792222218824692
 20
1.380317173806072
 30
0.0
 40
0.167779016002644
100
AcDbArc
 50
164.9866289980049
 51
180.0000000000025
  0
ARC
  5
28D
330
2
100
AcDbEntity
  8
0
100
AcDbCircle
 10
-6.840116265158003
 20
1.393162324998984
 30
0.0
 40
0.1181923486076048
100
AcDbArc
 50
147.0773280975497
 51
164.9866289980028
  0
ARC
  5
28E
330
2
100
AcDbEntity
  8
0
100
AcDbCircle
 10
-6.870374176471036
 20
1.412754033995237
 30
0.0
 40
0.0821454866301574
100
AcDbArc
 50
122.6079210151952
 51
147.07732809755
  0
ARC
  5
28F
330
2
100
AcDbEntity
  8
0
100
AcDbCircle
 10
-6.889416680762829
 20
1.442520900739334
 30
0.0
 40
0.0468087730667289
100
AcDbArc
 50
90.0
 51
122.607921015193
  0
ARC
  5
290
330
2
100
AcDbEntity
  8
0
100
AcDbCircle
 10
-6.991173990508835
 20
1.380317173806061
 30
0.0
 40
0.0976681881821226
100
AcDbArc
 50
180.0
 51
210.8424709887126
  0
ARC
  5
291
330
2
100
AcDbEntity
  8
0
100
AcDbCircle
 10
-6.991173990508828
 20
1.380317173806064
 30
0.0
 40
0.09766818818213
100
AcDbArc
 50
149.1575290112896
 51
180.0000000000021
  0
ARC
  5
292
330
2
100
AcDbEntity
  8
0
100
AcDbCircle
 10
-6.942354921619047
 20
4.278975735896021
 30
0.0
 40
0.1545284259354844
100
AcDbArc
 50
210.8424709887116
 51
235.2517244545657
  0
ARC
  5
293
330
2
100
AcDbEntity
  8
0
100
AcDbCircle
 10
-6.942354921619054
 20
4.220673586703969
 30
0.0
 40
0.1545284259354811
100
AcDbArc
 50
124.7482755454322
 51
149.1575290112859
  0
ARC
  5
294
330
2
100
AcDbEntity
  8
0
100
AcDbCircle
 10
-6.889416680762822
 20
4.397985461537148
 30
0.0
 40
0.2864983002371524
100
AcDbArc
 50
253.9689634222568
 51
269.9999999999986
  0
ARC
  5
295
330
2
100
AcDbEntity
  8
0
100
AcDbCircle
 10
-6.910358664849363
 20
4.325101113600065
 30
0.0
 40
0.2106649640867842
100
AcDbArc
 50
235.2517244545688
 51
253.9689634222602
  0
ARC
  5
296
330
2
100
AcDbEntity
  8
0
100
AcDbCircle
 10
-6.910358664849349
 20
4.174548208999925
 30
0.0
 40
0.2106649640867918
100
AcDbArc
 50
106.0310365777433
 51
124.7482755454343
  0
ARC
  5
297
330
2
100
AcDbEntity
  8
0
100
AcDbCircle
 10
-6.889416680762822
 20
4.101663861062848
 30
0.0
 40
0.2864983002371495
100
AcDbArc
 50
90.00000000000142
 51
106.0310365777434
  0
ARC
  5
298
330
2
100
AcDbEntity
  8
0
100
AcDbCircle
 10
-6.889416680762833
 20
4.202190411923079
 30
0.0
 40
0.0320532506230826
100
AcDbArc
 50
236.4891770443368
 51
270.0000000000064
  0
ARC
  5
299
330
2
100
AcDbEntity
  8
0
100
AcDbCircle
 10
-6.87434166219903
 20
4.224956935537721
 30
0.0
 40
0.0593583926698646
100
AcDbArc
 50
212.0281066666087
 51
236.4891770443303
  0
ARC
  5
29A
330
2
100
AcDbEntity
  8
0
100
AcDbCircle
 10
-6.850338236675353
 20
4.23997231815949
 30
0.0
 40
0.0876713959042233
100
AcDbArc
 50
194.5265478167987
 51
212.0281066666096
  0
ARC
  5
29B
330
2
100
AcDbEntity
  8
0
100
AcDbCircle
 10
-6.812314741499233
 20
4.249824661299998
 30
0.0
 40
0.1269505869698081
100
AcDbArc
 50
180.0
 51
194.5265478167974
  0
ARC
  5
29C
330
2
100
AcDbEntity
  8
0
100
AcDbCircle
 10
-6.812314741499244
 20
4.249824661299995
 30
0.0
 40
0.126950586969798
100
AcDbArc
 50
165.4734521832015
 51
179.9999999999984
  0
ARC
  5
29D
330
2
100
AcDbEntity
  8
0
100
AcDbCircle
 10
-6.850338236675346
 20
4.259677004440507
 30
0.0
 40
0.0876713959042293
100
AcDbArc
 50
147.9718933333928
 51
165.4734521832047
  0
ARC
  5
29E
330
2
100
AcDbEntity
  8
0
100
AcDbCircle
 10
-6.874341662199037
 20
4.274692387062276
 30
0.0
 40
0.059358392669858
100
AcDbArc
 50
123.5108229556659
 51
147.9718933333877
  0
ARC
  5
29F
330
2
100
AcDbEntity
  8
0
100
AcDbCircle
 10
-6.889416680762833
 20
4.297458910676918
 30
0.0
 40
0.0320532506230777
100
AcDbArc
 50
89.99999999999363
 51
123.5108229556667
  0
ARC
  5
2A0
330
2
100
AcDbEntity
  8
0
100
AcDbCircle
 10
-6.889416680762833
 20
4.187620934366722
 30
0.0
 40
0.0468087730667257
100
AcDbArc
 50
237.3920789848083
 51
270.0000000000044
  0
ARC
  5
2A1
330
2
100
AcDbEntity
  8
0
100
AcDbCircle
 10
-6.87037417647104
 20
4.217387801110819
 30
0.0
 40
0.0821454866301527
100
AcDbArc
 50
212.9226719024493
 51
237.3920789848056
  0
ARC
  5
2A2
330
2
100
AcDbEntity
  8
0
100
AcDbCircle
 10
-6.840116265158
 20
4.236979510107075
 30
0.0
 40
0.1181923486076083
100
AcDbArc
 50
195.0133710019968
 51
212.9226719024493
  0
ARC
  5
2A3
330
2
100
AcDbEntity
  8
0
100
AcDbCircle
 10
-6.792222218824674
 20
4.249824661299991
 30
0.0
 40
0.1677790160026616
100
AcDbArc
 50
179.9999999999976
 51
195.0133710019947
  0
ARC
  5
2A4
330
2
100
AcDbEntity
  8
0
100
AcDbCircle
 10
-6.792222218824692
 20
4.249824661300005
 30
0.0
 40
0.167779016002644
100
AcDbArc
 50
164.9866289980049
 51
180.0000000000025
  0
ARC
  5
2A5
330
2
100
AcDbEntity
  8
0
100
AcDbCircle
 10
-6.840116265158003
 20
4.262669812492918
 30
0.0
 40
0.1181923486076048
100
AcDbArc
 50
147.0773280975497
 51
164.9866289980028
  0
ARC
  5
2A6
330
2
100
AcDbEntity
  8
0
100
AcDbCircle
 10
-6.870374176471036
 20
4.28226152148917
 30
0.0
 40
0.0821454866301574
100
AcDbArc
 50
122.6079210151952
 51
147.07732809755
  0
ARC
  5
2A7
330
2
100
AcDbEntity
  8
0
100
AcDbCircle
 10
-6.889416680762829
 20
4.312028388233268
 30
0.0
 40
0.0468087730667289
100
AcDbArc
 50
90.0
 51
122.607921015193
  0
ARC
  5
2A8
330
2
100
AcDbEntity
  8
0
100
AcDbCircle
 10
-6.991173990508835
 20
4.249824661299995
 30
0.0
 40
0.0976681881821226
100
AcDbArc
 50
180.0
 51
210.8424709887126
  0
ARC
  5
2A9
330
2
100
AcDbEntity
  8
0
100
AcDbCircle
 10
-6.991173990508828
 20
4.249824661299998
 30
0.0
 40
0.09766818818213
100
AcDbArc
 50
149.1575290112896
 51
180.0000000000021
  0
ARC
  5
2AA
330
2
100
AcDbEntity
  8
0
100
AcDbCircle
 10
-6.942354921619047
 20
3.151660036480431
 30
0.0
 40
0.1545284259354844
100
AcDbArc
 50
210.8424709887116
 51
235.2517244545657
  0
ARC
  5
2AB
330
2
100
AcDbEntity
  8
0
100
AcDbCircle
 10
-6.942354921619054
 20
3.093357887288379
 30
0.0
 40
0.1545284259354811
100
AcDbArc
 50
124.7482755454322
 51
149.1575290112859
  0
ARC
  5
2AC
330
2
100
AcDbEntity
  8
0
100
AcDbCircle
 10
-6.889416680762822
 20
3.270669762121559
 30
0.0
 40
0.2864983002371524
100
AcDbArc
 50
253.9689634222568
 51
269.9999999999986
  0
ARC
  5
2AD
330
2
100
AcDbEntity
  8
0
100
AcDbCircle
 10
-6.910358664849363
 20
3.197785414184475
 30
0.0
 40
0.2106649640867842
100
AcDbArc
 50
235.2517244545688
 51
253.9689634222602
  0
ARC
  5
2AE
330
2
100
AcDbEntity
  8
0
100
AcDbCircle
 10
-6.910358664849349
 20
3.047232509584335
 30
0.0
 40
0.2106649640867918
100
AcDbArc
 50
106.0310365777433
 51
124.7482755454343
  0
ARC
  5
2AF
330
2
100
AcDbEntity
  8
0
100
AcDbCircle
 10
-6.889416680762822
 20
2.974348161647258
 30
0.0
 40
0.2864983002371495
100
AcDbArc
 50
90.00000000000142
 51
106.0310365777434
  0
ARC
  5
2B0
330
2
100
AcDbEntity
  8
0
100
AcDbCircle
 10
-6.889416680762833
 20
3.074874712507489
 30
0.0
 40
0.0320532506230826
100
AcDbArc
 50
236.4891770443368
 51
270.0000000000064
  0
ARC
  5
2B1
330
2
100
AcDbEntity
  8
0
100
AcDbCircle
 10
-6.87434166219903
 20
3.097641236122131
 30
0.0
 40
0.0593583926698646
100
AcDbArc
 50
212.0281066666087
 51
236.4891770443303
  0
ARC
  5
2B2
330
2
100
AcDbEntity
  8
0
100
AcDbCircle
 10
-6.850338236675353
 20
3.1126566187439
 30
0.0
 40
0.0876713959042233
100
AcDbArc
 50
194.5265478167987
 51
212.0281066666096
  0
ARC
  5
2B3
330
2
100
AcDbEntity
  8
0
100
AcDbCircle
 10
-6.812314741499233
 20
3.122508961884408
 30
0.0
 40
0.1269505869698081
100
AcDbArc
 50
180.0
 51
194.5265478167974
  0
ARC
  5
2B4
330
2
100
AcDbEntity
  8
0
100
AcDbCircle
 10
-6.812314741499244
 20
3.122508961884405
 30
0.0
 40
0.126950586969798
100
AcDbArc
 50
165.4734521832015
 51
179.9999999999984
  0
ARC
  5
2B5
330
2
100
AcDbEntity
  8
0
100
AcDbCircle
 10
-6.850338236675346
 20
3.132361305024917
 30
0.0
 40
0.0876713959042293
100
AcDbArc
 50
147.9718933333928
 51
165.4734521832047
  0
ARC
  5
2B6
330
2
100
AcDbEntity
  8
0
100
AcDbCircle
 10
-6.874341662199037
 20
3.147376687646686
 30
0.0
 40
0.059358392669858
100
AcDbArc
 50
123.5108229556659
 51
147.9718933333877
  0
ARC
  5
2B7
330
2
100
AcDbEntity
  8
0
100
AcDbCircle
 10
-6.889416680762833
 20
3.170143211261328
 30
0.0
 40
0.0320532506230777
100
AcDbArc
 50
89.99999999999363
 51
123.5108229556667
  0
ARC
  5
2B8
330
2
100
AcDbEntity
  8
0
100
AcDbCircle
 10
-6.889416680762833
 20
3.060305234951132
 30
0.0
 40
0.0468087730667257
100
AcDbArc
 50
237.3920789848083
 51
270.0000000000044
  0
ARC
  5
2B9
330
2
100
AcDbEntity
  8
0
100
AcDbCircle
 10
-6.87037417647104
 20
3.090072101695229
 30
0.0
 40
0.0821454866301527
100
AcDbArc
 50
212.9226719024493
 51
237.3920789848056
  0
ARC
  5
2BA
330
2
100
AcDbEntity
  8
0
100
AcDbCircle
 10
-6.840116265158
 20
3.109663810691485
 30
0.0
 40
0.1181923486076083
100
AcDbArc
 50
195.0133710019968
 51
212.9226719024493
  0
ARC
  5
2BB
330
2
100
AcDbEntity
  8
0
100
AcDbCircle
 10
-6.792222218824674
 20
3.122508961884401
 30
0.0
 40
0.1677790160026616
100
AcDbArc
 50
179.9999999999976
 51
195.0133710019947
  0
ARC
  5
2BC
330
2
100
AcDbEntity
  8
0
100
AcDbCircle
 10
-6.792222218824692
 20
3.122508961884416
 30
0.0
 40
0.167779016002644
100
AcDbArc
 50
164.9866289980049
 51
180.0000000000025
  0
ARC
  5
2BD
330
2
100
AcDbEntity
  8
0
100
AcDbCircle
 10
-6.840116265158003
 20
3.135354113077328
 30
0.0
 40
0.1181923486076048
100
AcDbArc
 50
147.0773280975497
 51
164.9866289980028
  0
ARC
  5
2BE
330
2
100
AcDbEntity
  8
0
100
AcDbCircle
 10
-6.870374176471036
 20
3.15494582207358
 30
0.0
 40
0.0821454866301574
100
AcDbArc
 50
122.6079210151952
 51
147.07732809755
  0
ARC
  5
2BF
330
2
100
AcDbEntity
  8
0
100
AcDbCircle
 10
-6.889416680762829
 20
3.184712688817678
 30
0.0
 40
0.0468087730667289
100
AcDbArc
 50
90.0
 51
122.607921015193
  0
ARC
  5
2C0
330
2
100
AcDbEntity
  8
0
100
AcDbCircle
 10
-6.991173990508835
 20
3.122508961884405
 30
0.0
 40
0.0976681881821226
100
AcDbArc
 50
180.0
 51
210.8424709887126
  0
ARC
  5
2C1
330
2
100
AcDbEntity
  8
0
100
AcDbCircle
 10
-6.991173990508828
 20
3.122508961884408
 30
0.0
 40
0.09766818818213
100
AcDbArc
 50
149.1575290112896
 51
180.0000000000021
  0
ARC
  5
2DB
330
2
100
AcDbEntity
  8
0
100
AcDbCircle
 10
6.942354921619054
 20
3.583362316160288
 30
0.0
 40
0.1545284259354844
100
AcDbArc
 50
304.7482755454344
 51
329.1575290112884
  0
ARC
  5
2DC
330
2
100
AcDbEntity
  8
0
100
AcDbCircle
 10
6.942354921619061
 20
3.525060166968236
 30
0.0
 40
0.1545284259354811
100
AcDbArc
 50
30.84247098871409
 51
55.25172445456781
  0
ARC
  5
2DD
330
2
100
AcDbEntity
  8
0
100
AcDbCircle
 10
6.889416680762829
 20
3.702372041801416
 30
0.0
 40
0.2864983002371524
100
AcDbArc
 50
270.0000000000014
 51
286.0310365777432
  0
ARC
  5
2DE
330
2
100
AcDbEntity
  8
0
100
AcDbCircle
 10
6.91035866484937
 20
3.629487693864332
 30
0.0
 40
0.2106649640867842
100
AcDbArc
 50
286.0310365777398
 51
304.7482755454312
  0
ARC
  5
2DF
330
2
100
AcDbEntity
  8
0
100
AcDbCircle
 10
6.910358664849356
 20
3.478934789264192
 30
0.0
 40
0.2106649640867918
100
AcDbArc
 50
55.25172445456567
 51
73.96896342225675
  0
ARC
  5
2E0
330
2
100
AcDbEntity
  8
0
100
AcDbCircle
 10
6.889416680762829
 20
3.406050441327116
 30
0.0
 40
0.2864983002371495
100
AcDbArc
 50
73.96896342225659
 51
89.99999999999859
  0
ARC
  5
2E1
330
2
100
AcDbEntity
  8
0
100
AcDbCircle
 10
6.88941668076284
 20
3.506576992187346
 30
0.0
 40
0.0320532506230826
100
AcDbArc
 50
269.9999999999936
 51
303.5108229556632
  0
ARC
  5
2E2
330
2
100
AcDbEntity
  8
0
100
AcDbCircle
 10
6.874341662199037
 20
3.529343515801989
 30
0.0
 40
0.0593583926698646
100
AcDbArc
 50
303.5108229556697
 51
327.9718933333913
  0
ARC
  5
2E3
330
2
100
AcDbEntity
  8
0
100
AcDbCircle
 10
6.85033823667536
 20
3.544358898423758
 30
0.0
 40
0.0876713959042233
100
AcDbArc
 50
327.9718933333904
 51
345.4734521832014
  0
ARC
  5
2E4
330
2
100
AcDbEntity
  8
0
100
AcDbCircle
 10
6.81231474149924
 20
3.554211241564266
 30
0.0
 40
0.1269505869698081
100
AcDbArc
 50
345.4734521832027
 51
0.000000000000007
  0
ARC
  5
2E5
330
2
100
AcDbEntity
  8
0
100
AcDbCircle
 10
6.812314741499251
 20
3.554211241564262
 30
0.0
 40
0.126950586969798
100
AcDbArc
 50
0.00000000000161
 51
14.52654781679856
  0
ARC
  5
2E6
330
2
100
AcDbEntity
  8
0
100
AcDbCircle
 10
6.850338236675353
 20
3.564063584704774
 30
0.0
 40
0.0876713959042293
100
AcDbArc
 50
14.5265478167953
 51
32.02810666660718
  0
ARC
  5
2E7
330
2
100
AcDbEntity
  8
0
100
AcDbCircle
 10
6.874341662199044
 20
3.579078967326543
 30
0.0
 40
0.059358392669858
100
AcDbArc
 50
32.02810666661232
 51
56.48917704433411
  0
ARC
  5
2E8
330
2
100
AcDbEntity
  8
0
100
AcDbCircle
 10
6.88941668076284
 20
3.601845490941185
 30
0.0
 40
0.0320532506230777
100
AcDbArc
 50
56.48917704433333
 51
90.00000000000637
  0
ARC
  5
2E9
330
2
100
AcDbEntity
  8
0
100
AcDbCircle
 10
6.88941668076284
 20
3.49200751463099
 30
0.0
 40
0.0468087730667257
100
AcDbArc
 50
269.9999999999956
 51
302.6079210151917
  0
ARC
  5
2EA
330
2
100
AcDbEntity
  8
0
100
AcDbCircle
 10
6.870374176471047
 20
3.521774381375087
 30
0.0
 40
0.0821454866301527
100
AcDbArc
 50
302.6079210151943
 51
327.0773280975507
  0
ARC
  5
2EB
330
2
100
AcDbEntity
  8
0
100
AcDbCircle
 10
6.840116265158007
 20
3.541366090371342
 30
0.0
 40
0.1181923486076083
100
AcDbArc
 50
327.0773280975507
 51
344.9866289980032
  0
ARC
  5
2EC
330
2
100
AcDbEntity
  8
0
100
AcDbCircle
 10
6.792222218824681
 20
3.554211241564259
 30
0.0
 40
0.1677790160026616
100
AcDbArc
 50
344.9866289980054
 51
0.0000000000024242
  0
ARC
  5
2ED
330
2
100
AcDbEntity
  8
0
100
AcDbCircle
 10
6.792222218824699
 20
3.554211241564273
 30
0.0
 40
0.167779016002644
100
AcDbArc
 50
359.9999999999976
 51
15.01337100199511
  0
ARC
  5
2EE
330
2
100
AcDbEntity
  8
0
100
AcDbCircle
 10
6.84011626515801
 20
3.567056392757186
 30
0.0
 40
0.1181923486076048
100
AcDbArc
 50
15.01337100199722
 51
32.92267190245028
  0
ARC
  5
2EF
330
2
100
AcDbEntity
  8
0
100
AcDbCircle
 10
6.870374176471043
 20
3.586648101753438
 30
0.0
 40
0.0821454866301574
100
AcDbArc
 50
32.92267190245001
 51
57.39207898480487
  0
ARC
  5
2F0
330
2
100
AcDbEntity
  8
0
100
AcDbCircle
 10
6.889416680762836
 20
3.616414968497535
 30
0.0
 40
0.0468087730667289
100
AcDbArc
 50
57.39207898480698
 51
90.0
  0
ARC
  5
2F1
330
2
100
AcDbEntity
  8
0
100
AcDbCircle
 10
6.991173990508842
 20
3.554211241564262
 30
0.0
 40
0.0976681881821226
100
AcDbArc
 50
329.1575290112875
 51
0.000000000000007
  0
ARC
  5
2F2
330
2
100
AcDbEntity
  8
0
100
AcDbCircle
 10
6.991173990508835
 20
3.554211241564266
 30
0.0
 40
0.09766818818213
100
AcDbArc
 50
359.9999999999979
 51
30.84247098871043
  0
ARC
  5
2F3
330
2
100
AcDbEntity
  8
0
100
AcDbCircle
 10
6.942354921619054
 20
2.456046616744699
 30
0.0
 40
0.1545284259354844
100
AcDbArc
 50
304.7482755454344
 51
329.1575290112884
  0
ARC
  5
2F4
330
2
100
AcDbEntity
  8
0
100
AcDbCircle
 10
6.942354921619061
 20
2.397744467552647
 30
0.0
 40
0.1545284259354811
100
AcDbArc
 50
30.84247098871409
 51
55.25172445456781
  0
ARC
  5
2F5
330
2
100
AcDbEntity
  8
0
100
AcDbCircle
 10
6.889416680762829
 20
2.575056342385826
 30
0.0
 40
0.2864983002371524
100
AcDbArc
 50
270.0000000000014
 51
286.0310365777432
  0
ARC
  5
2F6
330
2
100
AcDbEntity
  8
0
100
AcDbCircle
 10
6.91035866484937
 20
2.502171994448743
 30
0.0
 40
0.2106649640867842
100
AcDbArc
 50
286.0310365777398
 51
304.7482755454312
  0
ARC
  5
2F7
330
2
100
AcDbEntity
  8
0
100
AcDbCircle
 10
6.910358664849356
 20
2.351619089848603
 30
0.0
 40
0.2106649640867918
100
AcDbArc
 50
55.25172445456567
 51
73.96896342225675
  0
ARC
  5
2F8
330
2
100
AcDbEntity
  8
0
100
AcDbCircle
 10
6.889416680762829
 20
2.278734741911526
 30
0.0
 40
0.2864983002371495
100
AcDbArc
 50
73.96896342225659
 51
89.99999999999859
  0
ARC
  5
2F9
330
2
100
AcDbEntity
  8
0
100
AcDbCircle
 10
6.88941668076284
 20
2.379261292771757
 30
0.0
 40
0.0320532506230826
100
AcDbArc
 50
269.9999999999936
 51
303.5108229556632
  0
ARC
  5
2FA
330
2
100
AcDbEntity
  8
0
100
AcDbCircle
 10
6.874341662199037
 20
2.402027816386399
 30
0.0
 40
0.0593583926698646
100
AcDbArc
 50
303.5108229556697
 51
327.9718933333913
  0
ARC
  5
2FB
330
2
100
AcDbEntity
  8
0
100
AcDbCircle
 10
6.85033823667536
 20
2.417043199008168
 30
0.0
 40
0.0876713959042233
100
AcDbArc
 50
327.9718933333904
 51
345.4734521832014
  0
ARC
  5
2FC
330
2
100
AcDbEntity
  8
0
100
AcDbCircle
 10
6.81231474149924
 20
2.426895542148676
 30
0.0
 40
0.1269505869698081
100
AcDbArc
 50
345.4734521832027
 51
0.000000000000007
  0
ARC
  5
2FD
330
2
100
AcDbEntity
  8
0
100
AcDbCircle
 10
6.812314741499251
 20
2.426895542148673
 30
0.0
 40
0.126950586969798
100
AcDbArc
 50
0.00000000000161
 51
14.52654781679856
  0
ARC
  5
2FE
330
2
100
AcDbEntity
  8
0
100
AcDbCircle
 10
6.850338236675353
 20
2.436747885289185
 30
0.0
 40
0.0876713959042293
100
AcDbArc
 50
14.5265478167953
 51
32.02810666660718
  0
ARC
  5
2FF
330
2
100
AcDbEntity
  8
0
100
AcDbCircle
 10
6.874341662199044
 20
2.451763267910954
 30
0.0
 40
0.059358392669858
100
AcDbArc
 50
32.02810666661232
 51
56.48917704433411
  0
ARC
  5
300
330
2
100
AcDbEntity
  8
0
100
AcDbCircle
 10
6.88941668076284
 20
2.474529791525596
 30
0.0
 40
0.0320532506230777
100
AcDbArc
 50
56.48917704433333
 51
90.00000000000637
  0
ARC
  5
301
330
2
100
AcDbEntity
  8
0
100
AcDbCircle
 10
6.88941668076284
 20
2.3646918152154
 30
0.0
 40
0.0468087730667257
100
AcDbArc
 50
269.9999999999956
 51
302.6079210151917
  0
ARC
  5
302
330
2
100
AcDbEntity
  8
0
100
AcDbCircle
 10
6.870374176471047
 20
2.394458681959497
 30
0.0
 40
0.0821454866301527
100
AcDbArc
 50
302.6079210151943
 51
327.0773280975507
  0
ARC
  5
303
330
2
100
AcDbEntity
  8
0
100
AcDbCircle
 10
6.840116265158007
 20
2.414050390955753
 30
0.0
 40
0.1181923486076083
100
AcDbArc
 50
327.0773280975507
 51
344.9866289980032
  0
ARC
  5
304
330
2
100
AcDbEntity
  8
0
100
AcDbCircle
 10
6.792222218824681
 20
2.426895542148669
 30
0.0
 40
0.1677790160026616
100
AcDbArc
 50
344.9866289980054
 51
0.0000000000024242
  0
ARC
  5
305
330
2
100
AcDbEntity
  8
0
100
AcDbCircle
 10
6.792222218824699
 20
2.426895542148683
 30
0.0
 40
0.167779016002644
100
AcDbArc
 50
359.9999999999976
 51
15.01337100199511
  0
ARC
  5
306
330
2
100
AcDbEntity
  8
0
100
AcDbCircle
 10
6.84011626515801
 20
2.439740693341596
 30
0.0
 40
0.1181923486076048
100
AcDbArc
 50
15.01337100199722
 51
32.92267190245028
  0
ARC
  5
307
330
2
100
AcDbEntity
  8
0
100
AcDbCircle
 10
6.870374176471043
 20
2.459332402337848
 30
0.0
 40
0.0821454866301574
100
AcDbArc
 50
32.92267190245001
 51
57.39207898480487
  0
ARC
  5
308
330
2
100
AcDbEntity
  8
0
100
AcDbCircle
 10
6.889416680762836
 20
2.489099269081946
 30
0.0
 40
0.0468087730667289
100
AcDbArc
 50
57.39207898480698
 51
90.0
  0
ARC
  5
309
330
2
100
AcDbEntity
  8
0
100
AcDbCircle
 10
6.991173990508842
 20
2.426895542148673
 30
0.0
 40
0.0976681881821226
100
AcDbArc
 50
329.1575290112875
 51
0.000000000000007
  0
ARC
  5
30A
330
2
100
AcDbEntity
  8
0
100
AcDbCircle
 10
6.991173990508835
 20
2.426895542148676
 30
0.0
 40
0.09766818818213
100
AcDbArc
 50
359.9999999999979
 51
30.84247098871043
  0
ARC
  5
30B
330
2
100
AcDbEntity
  8
0
100
AcDbCircle
 10
6.942354921619054
 20
0.7138548286663546
 30
0.0
 40
0.1545284259354844
100
AcDbArc
 50
304.7482755454344
 51
329.1575290112884
  0
ARC
  5
30C
330
2
100
AcDbEntity
  8
0
100
AcDbCircle
 10
6.942354921619061
 20
0.6555526794743027
 30
0.0
 40
0.1545284259354811
100
AcDbArc
 50
30.84247098871409
 51
55.25172445456781
  0
ARC
  5
30D
330
2
100
AcDbEntity
  8
0
100
AcDbCircle
 10
6.889416680762829
 20
0.8328645543074824
 30
0.0
 40
0.2864983002371524
100
AcDbArc
 50
270.0000000000014
 51
286.0310365777432
  0
ARC
  5
30E
330
2
100
AcDbEntity
  8
0
100
AcDbCircle
 10
6.91035866484937
 20
0.7599802063703987
 30
0.0
 40
0.2106649640867842
100
AcDbArc
 50
286.0310365777398
 51
304.7482755454312
  0
ARC
  5
30F
330
2
100
AcDbEntity
  8
0
100
AcDbCircle
 10
6.910358664849356
 20
0.6094273017702587
 30
0.0
 40
0.2106649640867918
100
AcDbArc
 50
55.25172445456567
 51
73.96896342225675
  0
ARC
  5
310
330
2
100
AcDbEntity
  8
0
100
AcDbCircle
 10
6.889416680762829
 20
0.5365429538331821
 30
0.0
 40
0.2864983002371495
100
AcDbArc
 50
73.96896342225659
 51
89.99999999999859
  0
ARC
  5
311
330
2
100
AcDbEntity
  8
0
100
AcDbCircle
 10
6.88941668076284
 20
0.6370695046934127
 30
0.0
 40
0.0320532506230826
100
AcDbArc
 50
269.9999999999936
 51
303.5108229556632
  0
ARC
  5
312
330
2
100
AcDbEntity
  8
0
100
AcDbCircle
 10
6.874341662199037
 20
0.6598360283080549
 30
0.0
 40
0.0593583926698646
100
AcDbArc
 50
303.5108229556697
 51
327.9718933333913
  0
ARC
  5
313
330
2
100
AcDbEntity
  8
0
100
AcDbCircle
 10
6.85033823667536
 20
0.6748514109298238
 30
0.0
 40
0.0876713959042233
100
AcDbArc
 50
327.9718933333904
 51
345.4734521832014
  0
ARC
  5
314
330
2
100
AcDbEntity
  8
0
100
AcDbCircle
 10
6.81231474149924
 20
0.6847037540703322
 30
0.0
 40
0.1269505869698081
100
AcDbArc
 50
345.4734521832027
 51
0.000000000000007
  0
ARC
  5
315
330
2
100
AcDbEntity
  8
0
100
AcDbCircle
 10
6.812314741499251
 20
0.6847037540703287
 30
0.0
 40
0.126950586969798
100
AcDbArc
 50
0.00000000000161
 51
14.52654781679856
  0
ARC
  5
316
330
2
100
AcDbEntity
  8
0
100
AcDbCircle
 10
6.850338236675353
 20
0.6945560972108407
 30
0.0
 40
0.0876713959042293
100
AcDbArc
 50
14.5265478167953
 51
32.02810666660718
  0
ARC
  5
317
330
2
100
AcDbEntity
  8
0
100
AcDbCircle
 10
6.874341662199044
 20
0.7095714798326096
 30
0.0
 40
0.059358392669858
100
AcDbArc
 50
32.02810666661232
 51
56.48917704433411
  0
ARC
  5
318
330
2
100
AcDbEntity
  8
0
100
AcDbCircle
 10
6.88941668076284
 20
0.7323380034472518
 30
0.0
 40
0.0320532506230777
100
AcDbArc
 50
56.48917704433333
 51
90.00000000000637
  0
ARC
  5
319
330
2
100
AcDbEntity
  8
0
100
AcDbCircle
 10
6.88941668076284
 20
0.6225000271370558
 30
0.0
 40
0.0468087730667257
100
AcDbArc
 50
269.9999999999956
 51
302.6079210151917
  0
ARC
  5
31A
330
2
100
AcDbEntity
  8
0
100
AcDbCircle
 10
6.870374176471047
 20
0.6522668938811531
 30
0.0
 40
0.0821454866301527
100
AcDbArc
 50
302.6079210151943
 51
327.0773280975507
  0
ARC
  5
31B
330
2
100
AcDbEntity
  8
0
100
AcDbCircle
 10
6.840116265158007
 20
0.6718586028774087
 30
0.0
 40
0.1181923486076083
100
AcDbArc
 50
327.0773280975507
 51
344.9866289980032
  0
ARC
  5
31C
330
2
100
AcDbEntity
  8
0
100
AcDbCircle
 10
6.792222218824681
 20
0.6847037540703251
 30
0.0
 40
0.1677790160026616
100
AcDbArc
 50
344.9866289980054
 51
0.0000000000024242
  0
ARC
  5
31D
330
2
100
AcDbEntity
  8
0
100
AcDbCircle
 10
6.792222218824699
 20
0.6847037540703393
 30
0.0
 40
0.167779016002644
100
AcDbArc
 50
359.9999999999976
 51
15.01337100199511
  0
ARC
  5
31E
330
2
100
AcDbEntity
  8
0
100
AcDbCircle
 10
6.84011626515801
 20
0.6975489052632522
 30
0.0
 40
0.1181923486076048
100
AcDbArc
 50
15.01337100199722
 51
32.92267190245028
  0
ARC
  5
31F
330
2
100
AcDbEntity
  8
0
100
AcDbCircle
 10
6.870374176471043
 20
0.7171406142595043
 30
0.0
 40
0.0821454866301574
100
AcDbArc
 50
32.92267190245001
 51
57.39207898480487
  0
ARC
  5
320
330
2
100
AcDbEntity
  8
0
100
AcDbCircle
 10
6.889416680762836
 20
0.7469074810036016
 30
0.0
 40
0.0468087730667289
100
AcDbArc
 50
57.39207898480698
 51
90.0
  0
ARC
  5
321
330
2
100
AcDbEntity
  8
0
100
AcDbCircle
 10
6.991173990508842
 20
0.6847037540703287
 30
0.0
 40
0.0976681881821226
100
AcDbArc
 50
329.1575290112875
 51
0.000000000000007
  0
ARC
  5
322
330
2
100
AcDbEntity
  8
0
100
AcDbCircle
 10
6.991173990508835
 20
0.6847037540703322
 30
0.0
 40
0.09766818818213
100
AcDbArc
 50
359.9999999999979
 51
30.84247098871043
  0
ENDSEC
  0
SECTION
  2
OBJECTS
  0
DICTIONARY
  5
9
330
0
100
AcDbDictionary
281
     1
  3
ACAD_COLOR
350
22E
  3
ACAD_GROUP
350
23
  3
ACAD_LAYOUT
350
D
  3
ACAD_MATERIAL
350
22D
  3
ACAD_MLINESTYLE
350
24
  3
ACAD_PLOTSETTINGS
350
25
  3
ACAD_PLOTSTYLENAME
350
8
  3
ACAD_TABLESTYLE
350
22F
  3
ACDBHEADERROUNDTRIPXREC
350
32A
  3
AcDbVariableDictionary
350
C4
  0
DICTIONARY
  5
22E
102
{ACAD_REACTORS
330
9
102
}
330
9
100
AcDbDictionary
281
     1
  0
DICTIONARY
  5
23
102
{ACAD_REACTORS
330
9
102
}
330
9
100
AcDbDictionary
281
     1
  0
DICTIONARY
  5
D
102
{ACAD_REACTORS
330
9
102
}
330
9
100
AcDbDictionary
281
     1
  3
Layout1
350
13
  3
Model
350
C
  0
DICTIONARY
  5
22D
102
{ACAD_REACTORS
330
9
102
}
330
9
100
AcDbDictionary
281
     1
  0
DICTIONARY
  5
24
102
{ACAD_REACTORS
330
9
102
}
330
9
100
AcDbDictionary
281
     1
  3
STANDARD
350
27
  0
DICTIONARY
  5
25
102
{ACAD_REACTORS
330
9
102
}
330
9
100
AcDbDictionary
281
     1
  0
ACDBDICTIONARYWDFLT
  5
8
102
{ACAD_REACTORS
330
9
102
}
330
9
100
AcDbDictionary
281
     1
  3
Normal
350
7
100
AcDbDictionaryWithDefault
340
7
  0
DICTIONARY
  5
22F
102
{ACAD_REACTORS
330
9
102
}
330
9
100
AcDbDictionary
281
     1
  3
Standard
350
230
  0
DICTIONARY
  5
32A
102
{ACAD_REACTORS
330
9
102
}
330
9
100
AcDbDictionary
281
     1
  3
COLORDICT
350
32B
  3
MATERIALDICT
350
32C
  0
DICTIONARY
  5
C4
102
{ACAD_REACTORS
330
9
102
}
330
9
100
AcDbDictionary
281
     1
  3
CTABLESTYLE
350
24E
  3
HIDETEXT
350
329
  0
LAYOUT
  5
13
102
{ACAD_REACTORS
330
D
102
}
102
{ACAD_XDICTIONARY
360
32D
102
}
330
D
100
AcDbPlotSettings
  1

  2
HP LaserJet 4
  4

  6

 40
0.0
 41
0.0
 42
0.0
 43
0.0
 44
0.0
 45
0.0
 46
0.0
 47
0.0
 48
0.0
 49
0.0
140
0.0
141
0.0
142
1.0
143
1.0
 70
   688
 72
     0
 73
     0
 74
     5
  7

 75
    16
147
1.0
148
0.0
149
0.0
100
AcDbLayout
  1
Layout1
 70
     0
 71
     1
 10
0.0
 20
0.0
 11
12.0
 21
9.0
 12
0.0
 22
0.0
 32
0.0
 14
1.000000000000000E+20
 24
1.000000000000000E+20
 34
1.000000000000000E+20
 15
-1.000000000000000E+20
 25
-1.000000000000000E+20
 35
-1.000000000000000E+20
146
0.0
 13
0.0
 23
0.0
 33
0.0
 16
1.0
 26
0.0
 36
0.0
 17
0.0
 27
1.0
 37
0.0
 76
     0
330
E
  0
LAYOUT
  5
C
102
{ACAD_REACTORS
330
D
102
}
102
{ACAD_XDICTIONARY
360
32F
102
}
330
D
100
AcDbPlotSettings
  1

  2
HP LaserJet 4
  4
Letter
  6

 40
7.143749713897705
 41
6.127734661102295
 42
7.14373779296875
 43
7.14373779296875
 44
215.8999938964844
 45
279.3999938964844
 46
0.0
 47
0.0
 48
0.0
 49
0.0
140
0.0
141
0.0
142
1.0
143
1.0
 70
 11952
 72
     0
 73
     1
 74
     0
  7

 75
     0
147
1.0
148
-335.8108301352385
149
11.40798746220644
100
AcDbLayout
  1
Model
 70
     1
 71
     0
 10
0.0
 20
0.0
 11
12.0
 21
9.0
 12
0.0
 22
0.0
 32
0.0
 14
0.0
 24
0.0
 34
0.0
 15
0.0
 25
0.0
 35
0.0
146
0.0
 13
0.0
 23
0.0
 33
0.0
 16
1.0
 26
0.0
 36
0.0
 17
0.0
 27
1.0
 37
0.0
 76
     0
330
2
  0
MLINESTYLE
  5
27
102
{ACAD_REACTORS
330
24
102
}
330
24
100
AcDbMlineStyle
  2
STANDARD
 70
     0
  3

 62
   256
 51
90.0
 52
90.0
 71
     2
 49
0.5
 62
   256
  6
BYLAYER
 49
-0.5
 62
   256
  6
BYLAYER
  0
ACDBPLACEHOLDER
  5
7
102
{ACAD_REACTORS
330
8
102
}
330
8
  0
ACAD_PROXY_OBJECT
  5
230
102
{ACAD_REACTORS
330
22F
102
}
330
22F
100
AcDbProxyObject
 90
      499
 91
      561
 95
   983063
 70
     0
 93
     1841
310
4214DD185B99185C9928B81E85EB51B8AE3F2E07A17AD46E2B8FC02B5E8DC0F42B1CFD028000000C1008070000C3001FDFF8000000C1003FBFF000000182007F7FE00000030400FEFFC00000060801FDFF8000000C1003FBFF00000018200000000000000681FA0B0000001820100E000186003FBFF000000182007F7FE000
310
00030400FEFFC00000060801FDFF8000000C1003FBFF000000182007F7FE000000304000AD7A3703D0AC73F4160000003040201C00030C007F7FE00000030400FEFFC00000060801FDFF8000000C1003FBFF000000182007F7FE00000030400FEFFC000000608000
340
16
340
16
340
16
 94
        0
  0
XRECORD
  5
32B
102
{ACAD_REACTORS
330
32A
102
}
330
32A
100
AcDbXrecord
340
22E
  0
XRECORD
  5
32C
102
{ACAD_REACTORS
330
32A
102
}
330
32A
100
AcDbXrecord
340
22D
  0
DICTIONARYVAR
  5
24E
102
{ACAD_REACTORS
330
C4
102
}
330
C4
100
DictionaryVariables
280
     0
  1
STANDARD
  0
DICTIONARYVAR
  5
329
102
{ACAD_REACTORS
330
C4
102
}
330
C4
100
DictionaryVariables
280
     0
  1
0
  0
DICTIONARY
  5
32D
330
13
100
AcDbDictionary
280
     1
281
     1
  3
ACAD_XREC_ROUNDTRIP
360
32E
  0
DICTIONARY
  5
32F
330
C
100
AcDbDictionary
280
     1
281
     1
  3
ACAD_XREC_ROUNDTRIP
360
330
  0
XRECORD
  5
32E
102
{ACAD_REACTORS
330
32D
102
}
330
32D
100
AcDbXrecord
102
SHADEPLOT
 70
     0
102
SHADEPLOTRESLEVEL
 70
     2
102
SHADEPLOTCUSTOMDPI
 70
   300
  0
XRECORD
  5
330
102
{ACAD_REACTORS
330
32F
102
}
330
32F
100
AcDbXrecord
102
SHADEPLOT
 70
     0
102
SHADEPLOTRESLEVEL
 70
     2
102
SHADEPLOTCUSTOMDPI
 70
   300
  0
ENDSEC
  0
EOF
