  0
SECTION
  2
HEADER
  9
$ACADVER
  1
AC1015
  9
$ACADMAINTVER
 70
     6
  9
$DWGCODEPAGE
  3
ANSI_1252
  9
$INSBASE
 10
0.0
 20
0.0
 30
0.0
  9
$EXTMIN
 10
-9.130470822820193
 20
-0.0289949493661161
 30
0.0
  9
$EXTMAX
 10
9.130470822820193
 20
13.19197066071132
 30
0.0
  9
$LIMMIN
 10
0.0
 20
0.0
  9
$LIMMAX
 10
26.6664
 20
34.99965
  9
$ORTHOMODE
 70
     1
  9
$REGENMODE
 70
     1
  9
$FILLMODE
 70
     1
  9
$QTEXTMODE
 70
     0
  9
$MIRRTEXT
 70
     0
  9
$LTSCALE
 40
1.0
  9
$ATTMODE
 70
     1
  9
$TEXTSIZE
 40
0.299997
  9
$TRACEWID
 40
0.05
  9
$TEXTSTYLE
  7
STANDARD
  9
$CLAYER
  8
0
  9
$CELTYPE
  6
BYLAYER
  9
$CECOLOR
 62
   256
  9
$CELTSCALE
 40
1.0
  9
$DISPSILH
 70
     0
  9
$DIMSCALE
 40
3.3333
  9
$DIMASZ
 40
0.125
  9
$DIMEXO
 40
0.062
  9
$DIMDLI
 40
0.375
  9
$DIMRND
 40
0.0
  9
$DIMDLE
 40
0.0
  9
$DIMEXE
 40
0.08
  9
$DIMTP
 40
0.0
  9
$DIMTM
 40
0.0
  9
$DIMTXT
 40
0.09
  9
$DIMCEN
 40
-0.03125
  9
$DIMTSZ
 40
0.0
  9
$DIMTOL
 70
     0
  9
$DIMLIM
 70
     0
  9
$DIMTIH
 70
     1
  9
$DIMTOH
 70
     1
  9
$DIMSE1
 70
     0
  9
$DIMSE2
 70
     0
  9
$DIMTAD
 70
     0
  9
$DIMZIN
 70
     0
  9
$DIMBLK
  1

  9
$DIMASO
 70
     0
  9
$DIMSHO
 70
     0
  9
$DIMPOST
  1

  9
$DIMAPOST
  1

  9
$DIMALT
 70
     0
  9
$DIMALTD
 70
     2
  9
$DIMALTF
 40
25.4
  9
$DIMLFAC
 40
1.0
  9
$DIMTOFL
 70
     0
  9
$DIMTVP
 40
0.0
  9
$DIMTIX
 70
     0
  9
$DIMSOXD
 70
     0
  9
$DIMSAH
 70
     0
  9
$DIMBLK1
  1

  9
$DIMBLK2
  1

  9
$DIMSTYLE
  2
STANDARD
  9
$DIMCLRD
 70
     0
  9
$DIMCLRE
 70
     0
  9
$DIMCLRT
 70
     0
  9
$DIMTFAC
 40
1.0
  9
$DIMGAP
 40
0.08984375
  9
$DIMJUST
 70
     0
  9
$DIMSD1
 70
     0
  9
$DIMSD2
 70
     0
  9
$DIMTOLJ
 70
     1
  9
$DIMTZIN
 70
     0
  9
$DIMALTZ
 70
     0
  9
$DIMALTTZ
 70
     0
  9
$DIMUPT
 70
     0
  9
$DIMDEC
 70
     5
  9
$DIMTDEC
 70
     6
  9
$DIMALTU
 70
     5
  9
$DIMALTTD
 70
     2
  9
$DIMTXSTY
  7
STANDARD
  9
$DIMAUNIT
 70
     0
  9
$DIMADEC
 70
     0
  9
$DIMALTRND
 40
0.0
  9
$DIMAZIN
 70
     0
  9
$DIMDSEP
 70
    46
  9
$DIMATFIT
 70
     3
  9
$DIMFRAC
 70
     2
  9
$DIMLDRBLK
  1

  9
$DIMLUNIT
 70
     5
  9
$DIMLWD
 70
    -2
  9
$DIMLWE
 70
    -2
  9
$DIMTMOVE
 70
     2
  9
$LUNITS
 70
     5
  9
$LUPREC
 70
     6
  9
$SKETCHINC
 40
0.1
  9
$FILLETRAD
 40
0.0
  9
$AUNITS
 70
     0
  9
$AUPREC
 70
     0
  9
$MENU
  1
acad
  9
$ELEVATION
 40
0.0
  9
$PELEVATION
 40
0.0
  9
$THICKNESS
 40
0.0
  9
$LIMCHECK
 70
     0
  9
$CHAMFERA
 40
0.0
  9
$CHAMFERB
 40
0.0
  9
$CHAMFERC
 40
0.0
  9
$CHAMFERD
 40
0.0
  9
$SKPOLY
 70
     0
  9
$TDCREATE
 40
2449876.698923032
  9
$TDUCREATE
 40
2449877.032256366
  9
$TDUPDATE
 40
2454166.778369514
  9
$TDUUPDATE
 40
2454167.111702847
  9
$TDINDWG
 40
0.1557613194
  9
$TDUSRTIMER
 40
0.1557613194
  9
$USRTIMER
 70
     1
  9
$ANGBASE
 50
0.0
  9
$ANGDIR
 70
     0
  9
$PDMODE
 70
     0
  9
$PDSIZE
 40
0.0
  9
$PLINEWID
 40
0.0
  9
$SPLFRAME
 70
     0
  9
$SPLINETYPE
 70
     6
  9
$SPLINESEGS
 70
     8
  9
$HANDSEED
  5
27A
  9
$SURFTAB1
 70
     6
  9
$SURFTAB2
 70
     6
  9
$SURFTYPE
 70
     6
  9
$SURFU
 70
     6
  9
$SURFV
 70
     6
  9
$UCSBASE
  2

  9
$UCSNAME
  2

  9
$UCSORG
 10
0.0
 20
0.0
 30
0.0
  9
$UCSXDIR
 10
1.0
 20
0.0
 30
0.0
  9
$UCSYDIR
 10
0.0
 20
1.0
 30
0.0
  9
$UCSORTHOREF
  2

  9
$UCSORTHOVIEW
 70
     0
  9
$UCSORGTOP
 10
0.0
 20
0.0
 30
0.0
  9
$UCSORGBOTTOM
 10
0.0
 20
0.0
 30
0.0
  9
$UCSORGLEFT
 10
0.0
 20
0.0
 30
0.0
  9
$UCSORGRIGHT
 10
0.0
 20
0.0
 30
0.0
  9
$UCSORGFRONT
 10
0.0
 20
0.0
 30
0.0
  9
$UCSORGBACK
 10
0.0
 20
0.0
 30
0.0
  9
$PUCSBASE
  2

  9
$PUCSNAME
  2

  9
$PUCSORG
 10
0.0
 20
0.0
 30
0.0
  9
$PUCSXDIR
 10
1.0
 20
0.0
 30
0.0
  9
$PUCSYDIR
 10
0.0
 20
1.0
 30
0.0
  9
$PUCSORTHOREF
  2

  9
$PUCSORTHOVIEW
 70
     0
  9
$PUCSORGTOP
 10
0.0
 20
0.0
 30
0.0
  9
$PUCSORGBOTTOM
 10
0.0
 20
0.0
 30
0.0
  9
$PUCSORGLEFT
 10
0.0
 20
0.0
 30
0.0
  9
$PUCSORGRIGHT
 10
0.0
 20
0.0
 30
0.0
  9
$PUCSORGFRONT
 10
0.0
 20
0.0
 30
0.0
  9
$PUCSORGBACK
 10
0.0
 20
0.0
 30
0.0
  9
$USERI1
 70
     0
  9
$USERI2
 70
     0
  9
$USERI3
 70
     0
  9
$USERI4
 70
     0
  9
$USERI5
 70
     0
  9
$USERR1
 40
0.0
  9
$USERR2
 40
0.0
  9
$USERR3
 40
0.0
  9
$USERR4
 40
0.0
  9
$USERR5
 40
0.0
  9
$WORLDVIEW
 70
     1
  9
$SHADEDGE
 70
     3
  9
$SHADEDIF
 70
    70
  9
$TILEMODE
 70
     1
  9
$MAXACTVP
 70
    16
  9
$PINSBASE
 10
0.0
 20
0.0
 30
0.0
  9
$PLIMCHECK
 70
     0
  9
$PEXTMIN
 10
1.000000000000000E+20
 20
1.000000000000000E+20
 30
1.000000000000000E+20
  9
$PEXTMAX
 10
-1.000000000000000E+20
 20
-1.000000000000000E+20
 30
-1.000000000000000E+20
  9
$PLIMMIN
 10
0.0
 20
0.0
  9
$PLIMMAX
 10
12.0
 20
9.0
  9
$UNITMODE
 70
     0
  9
$VISRETAIN
 70
     0
  9
$PLINEGEN
 70
     1
  9
$PSLTSCALE
 70
     0
  9
$TREEDEPTH
 70
  3020
  9
$CMLSTYLE
  2
STANDARD
  9
$CMLJUST
 70
     0
  9
$CMLSCALE
 40
1.0
  9
$PROXYGRAPHICS
 70
     1
  9
$MEASUREMENT
 70
     0
  9
$CELWEIGHT
370
    -1
  9
$ENDCAPS
280
     0
  9
$JOINSTYLE
280
     0
  9
$LWDISPLAY
290
     0
  9
$INSUNITS
 70
     0
  9
$HYPERLINKBASE
  1

  9
$STYLESHEET
  1

  9
$XEDIT
290
     1
  9
$CEPSNTYPE
380
     0
  9
$PSTYLEMODE
290
     1
  9
$FINGERPRINTGUID
  2
{B458E5C0-DD25-47CE-97B3-8A594AF542AA}
  9
$VERSIONGUID
  2
{721420EF-137B-48AB-AA51-FE6652DAD980}
  9
$EXTNAMES
290
     1
  9
$PSVPSCALE
 40
0.0
  9
$OLESTARTUP
290
     0
  0
ENDSEC
  0
SECTION
  2
CLASSES
  0
CLASS
  1
DICTIONARYVAR
  2
AcDbDictionaryVar
  3
AutoCAD 2000
 90
        0
280
     0
281
     0
  0
CLASS
  1
LWPOLYLINE
  2
AcDbPolyline
  3
AutoCAD 2000
 90
        0
280
     0
281
     1
  0
CLASS
  1
ACDBDICTIONARYWDFLT
  2
AcDbDictionaryWithDefault
  3
AutoCAD 2000
 90
        0
280
     0
281
     0
  0
CLASS
  1
ACDBPLACEHOLDER
  2
AcDbPlaceHolder
  3
ObjectDBX Classes
 90
        0
280
     0
281
     0
  0
CLASS
  1
LAYOUT
  2
AcDbLayout
  3
ObjectDBX Classes
 90
        0
280
     0
281
     0
  0
CLASS
  1
LONG_TRANSACTION
  2
AcDbLongTransaction
  3
ObjectDBX Classes
 90
   -65536
280
     1
281
     0
  0
CLASS
  1
LWPOLYLINE
  2
AcDbPolyline
  3
AutoCAD 2000
 90
        0
280
     0
281
     1
  0
CLASS
  1
HATCH
  2
AcDbHatch
  3
AutoCAD 2000
 90
        0
280
     0
281
     1
  0
CLASS
  1
XRECORD
  2
AcDbXrecord
  3
AutoCAD 2000
 90
        0
280
     0
281
     0
  0
CLASS
  1
LONG_TRANSACTION
  2
AcDbLongTransaction
  3
ObjectDBX Classes
 90
   -65536
280
     1
281
     0
  0
CLASS
  1
LWPOLYLINE
  2
AcDbPolyline
  3
AutoCAD 2000
 90
        0
280
     0
281
     1
  0
CLASS
  1
HATCH
  2
AcDbHatch
  3
AutoCAD 2000
 90
        0
280
     0
281
     1
  0
CLASS
  1
XRECORD
  2
AcDbXrecord
  3
AutoCAD 2000
 90
        0
280
     0
281
     0
  0
CLASS
  1
LONG_TRANSACTION
  2
AcDbLongTransaction
  3
ObjectDBX Classes
 90
   -65536
280
     1
281
     0
  0
CLASS
  1
LWPOLYLINE
  2
AcDbPolyline
  3
AutoCAD 2000
 90
        0
280
     0
281
     1
  0
CLASS
  1
HATCH
  2
AcDbHatch
  3
AutoCAD 2000
 90
        0
280
     0
281
     1
  0
CLASS
  1
XRECORD
  2
AcDbXrecord
  3
AutoCAD 2000
 90
        0
280
     0
281
     0
  0
CLASS
  1
LONG_TRANSACTION
  2
AcDbLongTransaction
  3
ObjectDBX Classes
 90
   -65536
280
     1
281
     0
  0
CLASS
  1
LWPOLYLINE
  2
AcDbPolyline
  3
AutoCAD 2000
 90
        0
280
     0
281
     1
  0
CLASS
  1
HATCH
  2
AcDbHatch
  3
AutoCAD 2000
 90
        0
280
     0
281
     1
  0
CLASS
  1
XRECORD
  2
AcDbXrecord
  3
AutoCAD 2000
 90
        0
280
     0
281
     0
  0
CLASS
  1
LONG_TRANSACTION
  2
AcDbLongTransaction
  3
ObjectDBX Classes
 90
   -65536
280
     1
281
     0
  0
CLASS
  1
LWPOLYLINE
  2
AcDbPolyline
  3
AutoCAD 2000
 90
        0
280
     0
281
     1
  0
CLASS
  1
HATCH
  2
AcDbHatch
  3
AutoCAD 2000
 90
        0
280
     0
281
     1
  0
CLASS
  1
XRECORD
  2
AcDbXrecord
  3
AutoCAD 2000
 90
        0
280
     0
281
     0
  0
CLASS
  1
LONG_TRANSACTION
  2
AcDbLongTransaction
  3
ObjectDBX Classes
 90
   -65536
280
     1
281
     0
  0
CLASS
  1
LWPOLYLINE
  2
AcDbPolyline
  3
AutoCAD 2000
 90
        0
280
     0
281
     1
  0
CLASS
  1
HATCH
  2
AcDbHatch
  3
AutoCAD 2000
 90
        0
280
     0
281
     1
  0
CLASS
  1
XRECORD
  2
AcDbXrecord
  3
AutoCAD 2000
 90
        0
280
     0
281
     0
  0
CLASS
  1
TABLESTYLE
  2
AcDbTableStyle
  3
ObjectDBX Classes
 90
     2047
280
     1
281
     0
  0
ENDSEC
  0
SECTION
  2
TABLES
  0
TABLE
  2
VPORT
  5
1D
330
0
100
AcDbSymbolTable
 70
     3
  0
VPORT
  5
26C
330
1D
100
AcDbSymbolTableRecord
100
AcDbViewportTableRecord
  2
*Active
 70
     0
 10
0.0
 20
0.0
 11
1.0
 21
1.0
 12
7.018622957284883
 22
12.30133058385963
 13
0.0
 23
0.0
 14
0.063
 24
0.063
 15
0.25
 25
0.25
 16
0.0
 26
0.0
 36
1.0
 17
0.0
 27
0.0
 37
0.0
 40
31.34206791394151
 41
1.814583333333333
 42
50.0
 43
0.0
 44
0.0
 50
0.0
 51
0.0
 71
     0
 72
   100
 73
     1
 74
     0
 75
     0
 76
     0
 77
     0
 78
     0
281
     0
 65
     1
110
0.0
120
0.0
130
0.0
111
1.0
121
0.0
131
0.0
112
0.0
122
1.0
132
0.0
 79
     0
146
0.0
  0
ENDTAB
  0
TABLE
  2
LTYPE
  5
18
330
0
100
AcDbSymbolTable
 70
     2
  0
LTYPE
  5
19
330
18
100
AcDbSymbolTableRecord
100
AcDbLinetypeTableRecord
  2
BYBLOCK
 70
     0
  3

 72
    65
 73
     0
 40
0.0
  0
LTYPE
  5
1A
330
18
100
AcDbSymbolTableRecord
100
AcDbLinetypeTableRecord
  2
BYLAYER
 70
     0
  3

 72
    65
 73
     0
 40
0.0
  0
LTYPE
  5
A
330
18
100
AcDbSymbolTableRecord
100
AcDbLinetypeTableRecord
  2
CONTINUOUS
 70
     0
  3
Solid line
 72
    65
 73
     0
 40
0.0
  0
LTYPE
  5
251
330
18
100
AcDbSymbolTableRecord
100
AcDbLinetypeTableRecord
  2
HIDDEN
 70
     0
  3
Hidden __ __ __ __ __ __ __ __ __ __ __ __ __ _
 72
    65
 73
     2
 40
0.375
 49
0.25
 74
     0
 49
-0.125
 74
     0
  0
ENDTAB
  0
TABLE
  2
LAYER
  5
14
330
0
100
AcDbSymbolTable
 70
     1
  0
LAYER
  5
6
330
14
100
AcDbSymbolTableRecord
100
AcDbLayerTableRecord
  2
0
 70
     0
 62
     7
  6
CONTINUOUS
370
    -3
390
7
  0
ENDTAB
  0
TABLE
  2
STYLE
  5
15
330
0
100
AcDbSymbolTable
 70
     2
  0
STYLE
  5
16
330
15
100
AcDbSymbolTableRecord
100
AcDbTextStyleTableRecord
  2
STANDARD
 70
     0
 40
0.0
 41
1.0
 50
0.0
 71
     0
 42
0.299997
  3
TXT
  4

  0
STYLE
  5
250
330
15
100
AcDbSymbolTableRecord
100
AcDbTextStyleTableRecord
  2

 70
     1
 40
0.0
 41
1.0
 50
0.0
 71
     0
 42
0.299997
  3
ltypeshp.shx
  4

  0
ENDTAB
  0
TABLE
  2
VIEW
  5
1B
330
0
100
AcDbSymbolTable
 70
     0
  0
ENDTAB
  0
TABLE
  2
UCS
  5
1C
330
0
100
AcDbSymbolTable
 70
     0
  0
ENDTAB
  0
TABLE
  2
APPID
  5
1F
330
0
100
AcDbSymbolTable
 70
     1
  0
APPID
  5
20
330
1F
100
AcDbSymbolTableRecord
100
AcDbRegAppTableRecord
  2
ACAD
 70
     0
  0
ENDTAB
  0
TABLE
  2
DIMSTYLE
  5
21
330
0
100
AcDbSymbolTable
 70
     1
100
AcDbDimStyleTable
  0
DIMSTYLE
105
28
330
21
100
AcDbSymbolTableRecord
100
AcDbDimStyleTableRecord
  2
STANDARD
 70
     0
  3

  4

340
16
  0
ENDTAB
  0
TABLE
  2
BLOCK_RECORD
  5
1
330
0
100
AcDbSymbolTable
 70
     0
  0
BLOCK_RECORD
  5
2
330
1
100
AcDbSymbolTableRecord
100
AcDbBlockTableRecord
  2
*MODEL_SPACE
340
C
  0
BLOCK_RECORD
  5
E
330
1
100
AcDbSymbolTableRecord
100
AcDbBlockTableRecord
  2
*PAPER_SPACE
340
13
  0
ENDTAB
  0
ENDSEC
  0
SECTION
  2
BLOCKS
  0
BLOCK
  5
5
330
2
100
AcDbEntity
  8
0
100
AcDbBlockBegin
  2
*MODEL_SPACE
 70
     0
 10
0.0
 20
0.0
 30
0.0
  3
*MODEL_SPACE
  1

  4

  0
ENDBLK
  5
B
330
2
100
AcDbEntity
  8
0
100
AcDbBlockEnd
  0
BLOCK
  5
11
330
E
100
AcDbEntity
 67
     1
  8
0
100
AcDbBlockBegin
  2
*PAPER_SPACE
 70
     0
 10
0.0
 20
0.0
 30
0.0
  3
*PAPER_SPACE
  1

  4

  0
ENDBLK
  5
12
330
E
100
AcDbEntity
 67
     1
  8
0
100
AcDbBlockEnd
  0
ENDSEC
  0
SECTION
  2
ENTITIES
  0
LINE
  5
192
330
2
100
AcDbEntity
  8
0
100
AcDbLine
 10
0.9937609237889546
 20
6.433352529636046
 30
0.0
 11
0.9937609237889546
 21
7.2575
 31
0.0
  0
LINE
  5
193
330
2
100
AcDbEntity
  8
0
100
AcDbLine
 10
0.0004823679477468
 20
2.683118473996665
 30
0.0
 11
0.0004823679477539
 21
7.2575
 31
0.0
  0
LINE
  5
194
330
2
100
AcDbEntity
  8
0
100
AcDbLine
 10
0.0704823679477471
 20
2.683118473996665
 30
0.0
 11
0.0704823679477542
 21
7.2575
 31
0.0
  0
LINE
  5
195
330
2
100
AcDbEntity
  8
0
100
AcDbLine
 10
0.2496121658671555
 20
0.0014741434234846
 30
0.0
 11
2.249612165867157
 21
0.0014741434234864
 31
0.0
  0
LINE
  5
196
330
2
100
AcDbEntity
  8
0
  6
HIDDEN
100
AcDbLine
 10
0.2496121658671555
 20
0.0714741434234849
 30
0.0
 11
2.249612165867157
 21
0.0714741434234867
 31
0.0
  0
LINE
  5
197
330
2
100
AcDbEntity
  8
0
100
AcDbLine
 10
2.214687191718413
 20
0.7149685570207041
 30
0.0
 11
1.028685897937692
 21
2.324370368313716
 31
0.0
  0
LINE
  5
198
330
2
100
AcDbEntity
  8
0
100
AcDbLine
 10
2.249612165867157
 20
0.0014741434234882
 30
0.0
 11
2.24961216586715
 21
0.6059863956983733
 31
0.0
  0
ARC
  5
199
330
2
100
AcDbEntity
  8
0
100
AcDbCircle
 10
2.06211216586715
 20
0.6059863956983733
 30
0.0
 40
0.1875
100
AcDbArc
 50
0.0000000000001342
 51
35.53767779197442
  0
LINE
  5
19A
330
2
100
AcDbEntity
  8
0
100
AcDbLine
 10
0.0004823679477468
 20
2.683118473996665
 30
0.0
 11
0.0004823679477468
 21
1.013790221234977
 31
0.0
  0
LINE
  5
19B
330
2
100
AcDbEntity
  8
0
100
AcDbLine
 10
0.0704823679477471
 20
2.683118473996665
 30
0.0
 11
0.0704823679477471
 21
0.9188152602923765
 31
0.0
  0
LINE
  5
19C
330
2
100
AcDbEntity
  8
0
100
AcDbLine
 10
0.9996121658671733
 20
1.447791542145767
 30
0.0
 11
0.9996121658671733
 21
1.713399542145771
 31
0.0
  0
LWPOLYLINE
  5
19D
330
2
100
AcDbEntity
  8
0
100
AcDbPolyline
 90
        9
 70
     0
 43
0.0
 10
0.9996121658671733
 20
1.475943542145766
 42
-0.1432467981947568
 10
0.9753965010459353
 20
1.483026515142166
 42
-0.1071754848060475
 10
0.9516977817141736
 20
1.506595403281033
 42
-0.0783035184710328
 10
0.9373489807967061
 20
1.538871807457799
 42
-0.0656020556757086
 10
0.9318509939652451
 20
1.580595542145773
 42
-0.0656020556757101
 10
0.9373489807967061
 20
1.622319276833739
 42
-0.0783035184710357
 10
0.9516977817141736
 20
1.654595681010505
 42
-0.1071754848060445
 10
0.9753965010459353
 20
1.67816456914937
 42
-0.1432467981947535
 10
0.9996121658671733
 20
1.68524754214577
 42
-0.1432467981947515
  0
LWPOLYLINE
  5
19E
330
2
100
AcDbEntity
  8
0
100
AcDbPolyline
 90
        9
 70
     0
 43
0.0
 10
0.9996121658671733
 20
1.504095542145766
 42
-0.147269582437036
 10
0.9826235996311361
 20
1.509210270166049
 42
-0.1071386913803464
 10
0.9657737817141729
 20
1.526501873384998
 42
-0.0765137470862007
 10
0.9556535442292748
 20
1.55002642189779
 42
-0.063469041210727
 10
0.9517574640692104
 20
1.580595542145773
 42
-0.0634690412107267
 10
0.9556535442292748
 20
1.611164662393746
 42
-0.0765137470862059
 10
0.9657737817141729
 20
1.63468921090654
 42
-0.1071386913803463
 10
0.9826235996311361
 20
1.651980814125487
 42
-0.1472695824370325
 10
0.9996121658671733
 20
1.65709554214577
 42
-0.1472695824370333
  0
LINE
  5
19F
330
2
100
AcDbEntity
  8
0
100
AcDbLine
 10
0.2146871917184186
 20
0.7231602959301782
 30
0.0
 11
0.0004823679477468
 21
1.013790221234979
 31
0.0
  0
LINE
  5
1A0
330
2
100
AcDbEntity
  8
0
100
AcDbLine
 10
0.2496121658671555
 20
0.0014741434234846
 30
0.0
 11
0.2496121658671555
 21
0.6141781346078474
 31
0.0
  0
ARC
  5
1A1
330
2
100
AcDbEntity
  8
0
100
AcDbCircle
 10
0.0621121658671555
 20
0.6141781346078474
 30
0.0
 40
0.1875
100
AcDbArc
 50
0.0000000000000325
 51
35.53767779197451
  0
ARC
  5
1A2
330
2
100
AcDbEntity
  8
0
100
AcDbCircle
 10
0.0621121658671555
 20
0.6141781346078474
 30
0.0
 40
0.1875
100
AcDbArc
 50
359.9999999999999
 51
35.53767779197451
  0
LINE
  5
1A3
330
2
100
AcDbEntity
  8
0
100
AcDbLine
 10
1.295469341820764
 20
4.079412541273143
 30
0.0
 11
1.295469341820764
 21
3.479412541273142
 31
0.0
  0
ARC
  5
1A4
330
2
100
AcDbEntity
  8
0
100
AcDbCircle
 10
1.181260923788956
 20
2.433352529636046
 30
0.0
 40
0.1875
100
AcDbArc
 50
180.0
 51
215.5376777919745
  0
ARC
  5
1A5
330
2
100
AcDbEntity
  8
0
100
AcDbCircle
 10
1.09546934182076
 20
3.470599710936654
 30
0.0
 40
0.2
100
AcDbArc
 50
282.6356250930186
 51
0.0000000000000325
  0
LINE
  5
1A6
330
2
100
AcDbEntity
  8
0
100
AcDbLine
 10
0.9937609237889546
 20
2.433352529636046
 30
0.0
 11
0.9937609237889546
 21
3.123265332121953
 31
0.0
  0
ARC
  5
1A7
330
2
100
AcDbEntity
  8
0
100
AcDbCircle
 10
1.189094416501954
 20
3.089100166373179
 30
0.0
 40
0.2
100
AcDbArc
 50
102.6356250930189
 51
175.9335403648831
  0
ARC
  5
1A8
330
2
100
AcDbEntity
  8
0
100
AcDbCircle
 10
1.189094416501954
 20
5.089100166373179
 30
0.0
 40
0.2
100
AcDbArc
 50
102.6356250930189
 51
175.9335403648831
  0
ARC
  5
1A9
330
2
100
AcDbEntity
  8
0
100
AcDbCircle
 10
1.100730611699994
 20
4.079412541273143
 30
0.0
 40
0.2
100
AcDbArc
 50
0.0000000000000325
 51
77.36437490698127
  0
LINE
  5
1AA
330
2
100
AcDbEntity
  8
0
100
AcDbLine
 10
0.9937609237889546
 20
4.433352529636046
 30
0.0
 11
0.9937609237889546
 21
5.123265332121953
 31
0.0
  0
ARC
  5
1AB
330
2
100
AcDbEntity
  8
0
100
AcDbCircle
 10
1.188230611699995
 20
4.469724916173099
 30
0.0
 40
0.2
100
AcDbArc
 50
180.0
 51
257.3643749069807
  0
LINE
  5
1AC
330
2
100
AcDbEntity
  8
0
100
AcDbLine
 10
0.9996121658671733
 20
3.760291542145767
 30
0.0
 11
0.9996121658671733
 21
4.025899542145771
 31
0.0
  0
LWPOLYLINE
  5
1AD
330
2
100
AcDbEntity
  8
0
100
AcDbPolyline
 90
        9
 70
     0
 43
0.0
 10
0.9996121658671733
 20
3.788443542145769
 42
-0.1432467981947568
 10
0.9753965010459353
 20
3.79552651514217
 42
-0.1071754848060475
 10
0.9516977817141736
 20
3.819095403281034
 42
-0.0783035184710328
 10
0.9373489807967061
 20
3.851371807457801
 42
-0.0656020556757086
 10
0.9318509939652451
 20
3.893095542145774
 42
-0.0656020556757101
 10
0.9373489807967061
 20
3.934819276833741
 42
-0.0783035184710357
 10
0.9516977817141736
 20
3.967095681010507
 42
-0.1071754848060445
 10
0.9753965010459353
 20
3.990664569149372
 42
-0.1432467981947535
 10
0.9996121658671733
 20
3.997747542145772
 42
-0.1432467981947515
  0
LWPOLYLINE
  5
1AE
330
2
100
AcDbEntity
  8
0
100
AcDbPolyline
 90
        9
 70
     0
 43
0.0
 10
0.9996121658671733
 20
3.816595542145768
 42
-0.147269582437036
 10
0.9826235996311361
 20
3.821710270166053
 42
-0.1071386913803464
 10
0.9657737817141729
 20
3.839001873385
 42
-0.0765137470862007
 10
0.9556535442292748
 20
3.862526421897792
 42
-0.063469041210727
 10
0.9517574640692104
 20
3.893095542145774
 42
-0.0634690412107267
 10
0.9556535442292748
 20
3.923664662393749
 42
-0.0765137470862059
 10
0.9657737817141729
 20
3.947189210906542
 42
-0.1071386913803463
 10
0.9826235996311361
 20
3.964480814125489
 42
-0.1472695824370325
 10
0.9996121658671733
 20
3.969595542145774
 42
-0.1472695824370333
  0
ARC
  5
1AF
330
2
100
AcDbEntity
  8
0
100
AcDbCircle
 10
1.100730611699994
 20
6.079412541273143
 30
0.0
 40
0.2
100
AcDbArc
 50
0.0000000000000325
 51
77.36437490698127
  0
ARC
  5
1B0
330
2
100
AcDbEntity
  8
0
100
AcDbCircle
 10
1.09546934182076
 20
5.470599710936654
 30
0.0
 40
0.2
100
AcDbArc
 50
282.6356250930186
 51
0.0000000000000325
  0
LINE
  5
1B1
330
2
100
AcDbEntity
  8
0
100
AcDbLine
 10
1.295469341820764
 20
6.079412541273143
 30
0.0
 11
1.295469341820764
 21
5.479412541273142
 31
0.0
  0
ARC
  5
1B2
330
2
100
AcDbEntity
  8
0
100
AcDbCircle
 10
1.188230611699995
 20
6.469724916173099
 30
0.0
 40
0.2
100
AcDbArc
 50
180.0
 51
257.3643749069807
  0
LINE
  5
1B3
330
2
100
AcDbEntity
  8
0
100
AcDbLine
 10
0.9996121658671733
 20
5.760291542145767
 30
0.0
 11
0.9996121658671733
 21
6.025899542145771
 31
0.0
  0
LWPOLYLINE
  5
1B4
330
2
100
AcDbEntity
  8
0
100
AcDbPolyline
 90
        9
 70
     0
 43
0.0
 10
0.9996121658671733
 20
5.788443542145769
 42
-0.1432467981947568
 10
0.9753965010459353
 20
5.79552651514217
 42
-0.1071754848060475
 10
0.9516977817141736
 20
5.819095403281034
 42
-0.0783035184710328
 10
0.9373489807967061
 20
5.851371807457801
 42
-0.0656020556757086
 10
0.9318509939652451
 20
5.893095542145774
 42
-0.0656020556757101
 10
0.9373489807967061
 20
5.934819276833741
 42
-0.0783035184710357
 10
0.9516977817141736
 20
5.967095681010507
 42
-0.1071754848060445
 10
0.9753965010459353
 20
5.990664569149372
 42
-0.1432467981947535
 10
0.9996121658671733
 20
5.997747542145772
 42
-0.1432467981947515
  0
LWPOLYLINE
  5
1B5
330
2
100
AcDbEntity
  8
0
100
AcDbPolyline
 90
        9
 70
     0
 43
0.0
 10
0.9996121658671733
 20
5.816595542145768
 42
-0.147269582437036
 10
0.9826235996311361
 20
5.821710270166053
 42
-0.1071386913803464
 10
0.9657737817141729
 20
5.839001873385
 42
-0.0765137470862007
 10
0.9556535442292748
 20
5.862526421897792
 42
-0.063469041210727
 10
0.9517574640692104
 20
5.893095542145774
 42
-0.0634690412107267
 10
0.9556535442292748
 20
5.923664662393749
 42
-0.0765137470862059
 10
0.9657737817141729
 20
5.947189210906542
 42
-0.1071386913803463
 10
0.9826235996311361
 20
5.964480814125489
 42
-0.1472695824370325
 10
0.9996121658671733
 20
5.969595542145774
 42
-0.1472695824370333
  0
ARC
  5
1B6
330
2
100
AcDbEntity
  8
0
100
AcDbCircle
 10
0.0296688737294275
 20
4.746362818793589
 30
0.0
 40
0.25
100
AcDbArc
 50
278.8271506836117
 51
81.17284931638828
  0
LINE
  5
1B7
330
2
100
AcDbEntity
  8
0
100
AcDbLine
 10
0.9937609237889546
 20
7.2575
 30
0.0
 11
0.0004823679477539
 21
7.2575
 31
0.0
  0
ARC
  5
217
330
2
100
AcDbEntity
  8
0
100
AcDbCircle
 10
0.9466739250109555
 20
5.922246616741793
 30
0.0
 40
0.1545284259354844
100
AcDbArc
 50
210.8424709887117
 51
235.2517244545657
  0
ARC
  5
218
330
2
100
AcDbEntity
  8
0
100
AcDbCircle
 10
0.9466739250109484
 20
5.863944467549741
 30
0.0
 40
0.1545284259354811
100
AcDbArc
 50
124.7482755454322
 51
149.1575290112859
  0
ARC
  5
219
330
2
100
AcDbEntity
  8
0
100
AcDbCircle
 10
0.9996121658671804
 20
6.041256342382921
 30
0.0
 40
0.2864983002371524
100
AcDbArc
 50
253.9689634222568
 51
269.9999999999986
  0
ARC
  5
21A
330
2
100
AcDbEntity
  8
0
100
AcDbCircle
 10
0.9786701817806396
 20
5.968371994445837
 30
0.0
 40
0.2106649640867842
100
AcDbArc
 50
235.2517244545688
 51
253.9689634222602
  0
ARC
  5
21B
330
2
100
AcDbEntity
  8
0
100
AcDbCircle
 10
0.9786701817806538
 20
5.817819089845697
 30
0.0
 40
0.2106649640867918
100
AcDbArc
 50
106.0310365777433
 51
124.7482755454343
  0
ARC
  5
21C
330
2
100
AcDbEntity
  8
0
100
AcDbCircle
 10
0.9996121658671804
 20
5.744934741908621
 30
0.0
 40
0.2864983002371495
100
AcDbArc
 50
90.00000000000142
 51
106.0310365777434
  0
ARC
  5
21D
330
2
100
AcDbEntity
  8
0
100
AcDbCircle
 10
0.8978548561211674
 20
5.893095542145767
 30
0.0
 40
0.0976681881821226
100
AcDbArc
 50
180.0
 51
210.8424709887125
  0
ARC
  5
21E
330
2
100
AcDbEntity
  8
0
100
AcDbCircle
 10
0.8978548561211746
 20
5.893095542145771
 30
0.0
 40
0.09766818818213
100
AcDbArc
 50
149.1575290112895
 51
180.0000000000021
  0
ARC
  5
21F
330
2
100
AcDbEntity
  8
0
100
AcDbCircle
 10
0.9466739250109555
 20
3.922246616741793
 30
0.0
 40
0.1545284259354844
100
AcDbArc
 50
210.8424709887117
 51
235.2517244545657
  0
ARC
  5
220
330
2
100
AcDbEntity
  8
0
100
AcDbCircle
 10
0.9466739250109484
 20
3.863944467549741
 30
0.0
 40
0.1545284259354811
100
AcDbArc
 50
124.7482755454322
 51
149.1575290112859
  0
ARC
  5
221
330
2
100
AcDbEntity
  8
0
100
AcDbCircle
 10
0.9996121658671804
 20
4.041256342382921
 30
0.0
 40
0.2864983002371524
100
AcDbArc
 50
253.9689634222568
 51
269.9999999999986
  0
ARC
  5
222
330
2
100
AcDbEntity
  8
0
100
AcDbCircle
 10
0.9786701817806396
 20
3.968371994445837
 30
0.0
 40
0.2106649640867842
100
AcDbArc
 50
235.2517244545688
 51
253.9689634222602
  0
ARC
  5
223
330
2
100
AcDbEntity
  8
0
100
AcDbCircle
 10
0.9786701817806538
 20
3.817819089845697
 30
0.0
 40
0.2106649640867918
100
AcDbArc
 50
106.0310365777433
 51
124.7482755454343
  0
ARC
  5
224
330
2
100
AcDbEntity
  8
0
100
AcDbCircle
 10
0.9996121658671804
 20
3.744934741908621
 30
0.0
 40
0.2864983002371495
100
AcDbArc
 50
90.00000000000142
 51
106.0310365777434
  0
ARC
  5
225
330
2
100
AcDbEntity
  8
0
100
AcDbCircle
 10
0.8978548561211674
 20
3.893095542145767
 30
0.0
 40
0.0976681881821226
100
AcDbArc
 50
180.0
 51
210.8424709887125
  0
ARC
  5
226
330
2
100
AcDbEntity
  8
0
100
AcDbCircle
 10
0.8978548561211746
 20
3.893095542145771
 30
0.0
 40
0.09766818818213
100
AcDbArc
 50
149.1575290112895
 51
180.0000000000021
  0
ARC
  5
227
330
2
100
AcDbEntity
  8
0
100
AcDbCircle
 10
0.9466739250109555
 20
1.609746616741793
 30
0.0
 40
0.1545284259354844
100
AcDbArc
 50
210.8424709887117
 51
235.2517244545657
  0
ARC
  5
228
330
2
100
AcDbEntity
  8
0
100
AcDbCircle
 10
0.9466739250109484
 20
1.551444467549741
 30
0.0
 40
0.1545284259354811
100
AcDbArc
 50
124.7482755454322
 51
149.1575290112859
  0
ARC
  5
229
330
2
100
AcDbEntity
  8
0
100
AcDbCircle
 10
0.9996121658671804
 20
1.728756342382921
 30
0.0
 40
0.2864983002371524
100
AcDbArc
 50
253.9689634222568
 51
269.9999999999986
  0
ARC
  5
22A
330
2
100
AcDbEntity
  8
0
100
AcDbCircle
 10
0.9786701817806396
 20
1.655871994445837
 30
0.0
 40
0.2106649640867842
100
AcDbArc
 50
235.2517244545688
 51
253.9689634222602
  0
ARC
  5
22B
330
2
100
AcDbEntity
  8
0
100
AcDbCircle
 10
0.9786701817806538
 20
1.505319089845697
 30
0.0
 40
0.2106649640867918
100
AcDbArc
 50
106.0310365777433
 51
124.7482755454343
  0
ARC
  5
22C
330
2
100
AcDbEntity
  8
0
100
AcDbCircle
 10
0.9996121658671804
 20
1.432434741908621
 30
0.0
 40
0.2864983002371495
100
AcDbArc
 50
90.00000000000142
 51
106.0310365777434
  0
ARC
  5
22D
330
2
100
AcDbEntity
  8
0
100
AcDbCircle
 10
0.8978548561211674
 20
1.580595542145767
 30
0.0
 40
0.0976681881821226
100
AcDbArc
 50
180.0
 51
210.8424709887125
  0
ARC
  5
22E
330
2
100
AcDbEntity
  8
0
100
AcDbCircle
 10
0.8978548561211746
 20
1.580595542145771
 30
0.0
 40
0.09766818818213
100
AcDbArc
 50
149.1575290112895
 51
180.0000000000021
  0
ENDSEC
  0
SECTION
  2
OBJECTS
  0
DICTIONARY
  5
9
330
0
100
AcDbDictionary
281
     1
  3
ACAD_COLOR
350
1BE
  3
ACAD_GROUP
350
23
  3
ACAD_LAYOUT
350
D
  3
ACAD_MATERIAL
350
1BD
  3
ACAD_MLINESTYLE
350
24
  3
ACAD_PLOTSETTINGS
350
25
  3
ACAD_PLOTSTYLENAME
350
8
  3
ACAD_TABLESTYLE
350
1BF
  3
ACDBHEADERROUNDTRIPXREC
350
273
  3
AcDbVariableDictionary
350
DD
  0
DICTIONARY
  5
1BE
102
{ACAD_REACTORS
330
9
102
}
330
9
100
AcDbDictionary
281
     1
  0
DICTIONARY
  5
23
102
{ACAD_REACTORS
330
9
102
}
330
9
100
AcDbDictionary
281
     1
  0
DICTIONARY
  5
D
102
{ACAD_REACTORS
330
9
102
}
330
9
100
AcDbDictionary
281
     1
  3
Layout1
350
13
  3
Model
350
C
  0
DICTIONARY
  5
1BD
102
{ACAD_REACTORS
330
9
102
}
330
9
100
AcDbDictionary
281
     1
  0
DICTIONARY
  5
24
102
{ACAD_REACTORS
330
9
102
}
330
9
100
AcDbDictionary
281
     1
  3
STANDARD
350
27
  0
DICTIONARY
  5
25
102
{ACAD_REACTORS
330
9
102
}
330
9
100
AcDbDictionary
281
     1
  0
ACDBDICTIONARYWDFLT
  5
8
102
{ACAD_REACTORS
330
9
102
}
330
9
100
AcDbDictionary
281
     1
  3
Normal
350
7
100
AcDbDictionaryWithDefault
340
7
  0
DICTIONARY
  5
1BF
102
{ACAD_REACTORS
330
9
102
}
330
9
100
AcDbDictionary
281
     1
  3
Standard
350
1C0
  0
DICTIONARY
  5
273
102
{ACAD_REACTORS
330
9
102
}
330
9
100
AcDbDictionary
281
     1
  3
COLORDICT
350
274
  3
MATERIALDICT
350
275
  0
DICTIONARY
  5
DD
102
{ACAD_REACTORS
330
9
102
}
330
9
100
AcDbDictionary
281
     1
  3
CTABLESTYLE
350
260
  3
HIDETEXT
350
272
  0
LAYOUT
  5
13
102
{ACAD_REACTORS
330
D
102
}
102
{ACAD_XDICTIONARY
360
276
102
}
330
D
100
AcDbPlotSettings
  1

  2
C:\ACAD2000\plotters\HP LaserJet 2100 Series PS.pc3
  4

  6

 40
0.0
 41
0.0
 42
0.0
 43
0.0
 44
0.0
 45
0.0
 46
0.0
 47
0.0
 48
0.0
 49
0.0
140
0.0
141
0.0
142
1.0
143
1.0
 70
   688
 72
     0
 73
     0
 74
     5
  7

 75
    16
147
1.0
148
0.0
149
0.0
100
AcDbLayout
  1
Layout1
 70
     0
 71
     1
 10
0.0
 20
0.0
 11
12.0
 21
9.0
 12
0.0
 22
0.0
 32
0.0
 14
1.000000000000000E+20
 24
1.000000000000000E+20
 34
1.000000000000000E+20
 15
-1.000000000000000E+20
 25
-1.000000000000000E+20
 35
-1.000000000000000E+20
146
0.0
 13
0.0
 23
0.0
 33
0.0
 16
1.0
 26
0.0
 36
0.0
 17
0.0
 27
1.0
 37
0.0
 76
     0
330
E
  0
LAYOUT
  5
C
102
{ACAD_REACTORS
330
D
102
}
102
{ACAD_XDICTIONARY
360
278
102
}
330
D
100
AcDbPlotSettings
  1

  2
HP LaserJet 2100 Series PS
  4
Letter
  6

 40
3.174999952316284
 41
3.174999952316284
 42
3.175003051757813
 43
3.17498779296875
 44
215.9000091552734
 45
279.3999938964844
 46
0.0
 47
0.0
 48
0.0
 49
0.0
140
0.0
141
0.0
142
1.0
143
3.255781322003443
 70
 28336
 72
     0
 73
     0
 74
     2
  7

 75
     0
147
0.3071459355214467
148
0.0
149
0.0
100
AcDbLayout
  1
Model
 70
     1
 71
     0
 10
0.0
 20
0.0
 11
12.0
 21
9.0
 12
0.0
 22
0.0
 32
0.0
 14
0.0
 24
0.0
 34
0.0
 15
0.0
 25
0.0
 35
0.0
146
0.0
 13
0.0
 23
0.0
 33
0.0
 16
1.0
 26
0.0
 36
0.0
 17
0.0
 27
1.0
 37
0.0
 76
     0
330
2
  0
MLINESTYLE
  5
27
102
{ACAD_REACTORS
330
24
102
}
330
24
100
AcDbMlineStyle
  2
STANDARD
 70
     0
  3

 62
   256
 51
90.0
 52
90.0
 71
     2
 49
0.5
 62
   256
  6
BYLAYER
 49
-0.5
 62
   256
  6
BYLAYER
  0
ACDBPLACEHOLDER
  5
7
102
{ACAD_REACTORS
330
8
102
}
330
8
  0
ACAD_PROXY_OBJECT
  5
1C0
102
{ACAD_REACTORS
330
1BF
102
}
330
1BF
100
AcDbProxyObject
 90
      499
 91
      529
 95
   983063
 70
     0
 93
     1841
310
4214DD185B99185C9928B81E85EB51B8AE3F2E07A17AD46E2B8FC02B5E8DC0F42B1CFD028000000C1008070000C3001FDFF8000000C1003FBFF000000182007F7FE00000030400FEFFC00000060801FDFF8000000C1003FBFF00000018200000000000000681FA0B0000001820100E000186003FBFF000000182007F7FE000
310
00030400FEFFC00000060801FDFF8000000C1003FBFF000000182007F7FE000000304000AD7A3703D0AC73F4160000003040201C00030C007F7FE00000030400FEFFC00000060801FDFF8000000C1003FBFF000000182007F7FE00000030400FEFFC000000608000
340
16
340
16
340
16
 94
        0
  0
XRECORD
  5
274
102
{ACAD_REACTORS
330
273
102
}
330
273
100
AcDbXrecord
340
1BE
  0
XRECORD
  5
275
102
{ACAD_REACTORS
330
273
102
}
330
273
100
AcDbXrecord
340
1BD
  0
DICTIONARYVAR
  5
260
102
{ACAD_REACTORS
330
DD
102
}
330
DD
100
DictionaryVariables
280
     0
  1
STANDARD
  0
DICTIONARYVAR
  5
272
102
{ACAD_REACTORS
330
DD
102
}
330
DD
100
DictionaryVariables
280
     0
  1
0
  0
DICTIONARY
  5
276
330
13
100
AcDbDictionary
280
     1
281
     1
  3
ACAD_XREC_ROUNDTRIP
360
277
  0
DICTIONARY
  5
278
330
C
100
AcDbDictionary
280
     1
281
     1
  3
ACAD_XREC_ROUNDTRIP
360
279
  0
XRECORD
  5
277
102
{ACAD_REACTORS
330
276
102
}
330
276
100
AcDbXrecord
102
SHADEPLOT
 70
     0
102
SHADEPLOTRESLEVEL
 70
     2
102
SHADEPLOTCUSTOMDPI
 70
   300
  0
XRECORD
  5
279
102
{ACAD_REACTORS
330
278
102
}
330
278
100
AcDbXrecord
102
SHADEPLOT
 70
     0
102
SHADEPLOTRESLEVEL
 70
     2
102
SHADEPLOTCUSTOMDPI
 70
   300
  0
ENDSEC
  0
EOF
