  0
SECTION
  2
HEADER
  9
$ACADVER
  1
AC1015
  9
$ACADMAINTVER
 70
     6
  9
$DWGCODEPAGE
  3
ANSI_1252
  9
$INSBASE
 10
0.0
 20
0.0
 30
0.0
  9
$EXTMIN
 10
-9.130470822820193
 20
-0.0289949493661161
 30
0.0
  9
$EXTMAX
 10
9.130470822820193
 20
13.19197066071132
 30
0.0
  9
$LIMMIN
 10
0.0
 20
0.0
  9
$LIMMAX
 10
26.6664
 20
34.99965
  9
$ORTHOMODE
 70
     1
  9
$REGENMODE
 70
     1
  9
$FILLMODE
 70
     1
  9
$QTEXTMODE
 70
     0
  9
$MIRRTEXT
 70
     0
  9
$LTSCALE
 40
1.0
  9
$ATTMODE
 70
     1
  9
$TEXTSIZE
 40
0.299997
  9
$TRACEWID
 40
0.05
  9
$TEXTSTYLE
  7
STANDARD
  9
$CLAYER
  8
0
  9
$CELTYPE
  6
BYLAYER
  9
$CECOLOR
 62
   256
  9
$CELTSCALE
 40
1.0
  9
$DISPSILH
 70
     0
  9
$DIMSCALE
 40
3.3333
  9
$DIMASZ
 40
0.125
  9
$DIMEXO
 40
0.062
  9
$DIMDLI
 40
0.375
  9
$DIMRND
 40
0.0
  9
$DIMDLE
 40
0.0
  9
$DIMEXE
 40
0.08
  9
$DIMTP
 40
0.0
  9
$DIMTM
 40
0.0
  9
$DIMTXT
 40
0.09
  9
$DIMCEN
 40
-0.03125
  9
$DIMTSZ
 40
0.0
  9
$DIMTOL
 70
     0
  9
$DIMLIM
 70
     0
  9
$DIMTIH
 70
     1
  9
$DIMTOH
 70
     1
  9
$DIMSE1
 70
     0
  9
$DIMSE2
 70
     0
  9
$DIMTAD
 70
     0
  9
$DIMZIN
 70
     0
  9
$DIMBLK
  1

  9
$DIMASO
 70
     0
  9
$DIMSHO
 70
     0
  9
$DIMPOST
  1

  9
$DIMAPOST
  1

  9
$DIMALT
 70
     0
  9
$DIMALTD
 70
     2
  9
$DIMALTF
 40
25.4
  9
$DIMLFAC
 40
1.0
  9
$DIMTOFL
 70
     0
  9
$DIMTVP
 40
0.0
  9
$DIMTIX
 70
     0
  9
$DIMSOXD
 70
     0
  9
$DIMSAH
 70
     0
  9
$DIMBLK1
  1

  9
$DIMBLK2
  1

  9
$DIMSTYLE
  2
STANDARD
  9
$DIMCLRD
 70
     0
  9
$DIMCLRE
 70
     0
  9
$DIMCLRT
 70
     0
  9
$DIMTFAC
 40
1.0
  9
$DIMGAP
 40
0.08984375
  9
$DIMJUST
 70
     0
  9
$DIMSD1
 70
     0
  9
$DIMSD2
 70
     0
  9
$DIMTOLJ
 70
     1
  9
$DIMTZIN
 70
     0
  9
$DIMALTZ
 70
     0
  9
$DIMALTTZ
 70
     0
  9
$DIMUPT
 70
     0
  9
$DIMDEC
 70
     5
  9
$DIMTDEC
 70
     6
  9
$DIMALTU
 70
     5
  9
$DIMALTTD
 70
     2
  9
$DIMTXSTY
  7
STANDARD
  9
$DIMAUNIT
 70
     0
  9
$DIMADEC
 70
     0
  9
$DIMALTRND
 40
0.0
  9
$DIMAZIN
 70
     0
  9
$DIMDSEP
 70
    46
  9
$DIMATFIT
 70
     3
  9
$DIMFRAC
 70
     2
  9
$DIMLDRBLK
  1

  9
$DIMLUNIT
 70
     5
  9
$DIMLWD
 70
    -2
  9
$DIMLWE
 70
    -2
  9
$DIMTMOVE
 70
     2
  9
$LUNITS
 70
     5
  9
$LUPREC
 70
     6
  9
$SKETCHINC
 40
0.1
  9
$FILLETRAD
 40
0.0
  9
$AUNITS
 70
     0
  9
$AUPREC
 70
     0
  9
$MENU
  1
acad
  9
$ELEVATION
 40
0.0
  9
$PELEVATION
 40
0.0
  9
$THICKNESS
 40
0.0
  9
$LIMCHECK
 70
     0
  9
$CHAMFERA
 40
0.0
  9
$CHAMFERB
 40
0.0
  9
$CHAMFERC
 40
0.0
  9
$CHAMFERD
 40
0.0
  9
$SKPOLY
 70
     0
  9
$TDCREATE
 40
2449876.698923032
  9
$TDUCREATE
 40
2449877.032256366
  9
$TDUPDATE
 40
2454166.778615104
  9
$TDUUPDATE
 40
2454167.111948438
  9
$TDINDWG
 40
0.1557794097
  9
$TDUSRTIMER
 40
0.1557794097
  9
$USRTIMER
 70
     1
  9
$ANGBASE
 50
0.0
  9
$ANGDIR
 70
     0
  9
$PDMODE
 70
     0
  9
$PDSIZE
 40
0.0
  9
$PLINEWID
 40
0.0
  9
$SPLFRAME
 70
     0
  9
$SPLINETYPE
 70
     6
  9
$SPLINESEGS
 70
     8
  9
$HANDSEED
  5
27A
  9
$SURFTAB1
 70
     6
  9
$SURFTAB2
 70
     6
  9
$SURFTYPE
 70
     6
  9
$SURFU
 70
     6
  9
$SURFV
 70
     6
  9
$UCSBASE
  2

  9
$UCSNAME
  2

  9
$UCSORG
 10
0.0
 20
0.0
 30
0.0
  9
$UCSXDIR
 10
1.0
 20
0.0
 30
0.0
  9
$UCSYDIR
 10
0.0
 20
1.0
 30
0.0
  9
$UCSORTHOREF
  2

  9
$UCSORTHOVIEW
 70
     0
  9
$UCSORGTOP
 10
0.0
 20
0.0
 30
0.0
  9
$UCSORGBOTTOM
 10
0.0
 20
0.0
 30
0.0
  9
$UCSORGLEFT
 10
0.0
 20
0.0
 30
0.0
  9
$UCSORGRIGHT
 10
0.0
 20
0.0
 30
0.0
  9
$UCSORGFRONT
 10
0.0
 20
0.0
 30
0.0
  9
$UCSORGBACK
 10
0.0
 20
0.0
 30
0.0
  9
$PUCSBASE
  2

  9
$PUCSNAME
  2

  9
$PUCSORG
 10
0.0
 20
0.0
 30
0.0
  9
$PUCSXDIR
 10
1.0
 20
0.0
 30
0.0
  9
$PUCSYDIR
 10
0.0
 20
1.0
 30
0.0
  9
$PUCSORTHOREF
  2

  9
$PUCSORTHOVIEW
 70
     0
  9
$PUCSORGTOP
 10
0.0
 20
0.0
 30
0.0
  9
$PUCSORGBOTTOM
 10
0.0
 20
0.0
 30
0.0
  9
$PUCSORGLEFT
 10
0.0
 20
0.0
 30
0.0
  9
$PUCSORGRIGHT
 10
0.0
 20
0.0
 30
0.0
  9
$PUCSORGFRONT
 10
0.0
 20
0.0
 30
0.0
  9
$PUCSORGBACK
 10
0.0
 20
0.0
 30
0.0
  9
$USERI1
 70
     0
  9
$USERI2
 70
     0
  9
$USERI3
 70
     0
  9
$USERI4
 70
     0
  9
$USERI5
 70
     0
  9
$USERR1
 40
0.0
  9
$USERR2
 40
0.0
  9
$USERR3
 40
0.0
  9
$USERR4
 40
0.0
  9
$USERR5
 40
0.0
  9
$WORLDVIEW
 70
     1
  9
$SHADEDGE
 70
     3
  9
$SHADEDIF
 70
    70
  9
$TILEMODE
 70
     1
  9
$MAXACTVP
 70
    16
  9
$PINSBASE
 10
0.0
 20
0.0
 30
0.0
  9
$PLIMCHECK
 70
     0
  9
$PEXTMIN
 10
1.000000000000000E+20
 20
1.000000000000000E+20
 30
1.000000000000000E+20
  9
$PEXTMAX
 10
-1.000000000000000E+20
 20
-1.000000000000000E+20
 30
-1.000000000000000E+20
  9
$PLIMMIN
 10
0.0
 20
0.0
  9
$PLIMMAX
 10
12.0
 20
9.0
  9
$UNITMODE
 70
     0
  9
$VISRETAIN
 70
     0
  9
$PLINEGEN
 70
     1
  9
$PSLTSCALE
 70
     0
  9
$TREEDEPTH
 70
  3020
  9
$CMLSTYLE
  2
STANDARD
  9
$CMLJUST
 70
     0
  9
$CMLSCALE
 40
1.0
  9
$PROXYGRAPHICS
 70
     1
  9
$MEASUREMENT
 70
     0
  9
$CELWEIGHT
370
    -1
  9
$ENDCAPS
280
     0
  9
$JOINSTYLE
280
     0
  9
$LWDISPLAY
290
     0
  9
$INSUNITS
 70
     0
  9
$HYPERLINKBASE
  1

  9
$STYLESHEET
  1

  9
$XEDIT
290
     1
  9
$CEPSNTYPE
380
     0
  9
$PSTYLEMODE
290
     1
  9
$FINGERPRINTGUID
  2
{B458E5C0-DD25-47CE-97B3-8A594AF542AA}
  9
$VERSIONGUID
  2
{F33E5762-E949-4190-B10F-8686AC853587}
  9
$EXTNAMES
290
     1
  9
$PSVPSCALE
 40
0.0
  9
$OLESTARTUP
290
     0
  0
ENDSEC
  0
SECTION
  2
CLASSES
  0
CLASS
  1
DICTIONARYVAR
  2
AcDbDictionaryVar
  3
AutoCAD 2000
 90
        0
280
     0
281
     0
  0
CLASS
  1
LWPOLYLINE
  2
AcDbPolyline
  3
AutoCAD 2000
 90
        0
280
     0
281
     1
  0
CLASS
  1
ACDBDICTIONARYWDFLT
  2
AcDbDictionaryWithDefault
  3
AutoCAD 2000
 90
        0
280
     0
281
     0
  0
CLASS
  1
ACDBPLACEHOLDER
  2
AcDbPlaceHolder
  3
ObjectDBX Classes
 90
        0
280
     0
281
     0
  0
CLASS
  1
LAYOUT
  2
AcDbLayout
  3
ObjectDBX Classes
 90
        0
280
     0
281
     0
  0
CLASS
  1
LONG_TRANSACTION
  2
AcDbLongTransaction
  3
ObjectDBX Classes
 90
   -65536
280
     1
281
     0
  0
CLASS
  1
LWPOLYLINE
  2
AcDbPolyline
  3
AutoCAD 2000
 90
        0
280
     0
281
     1
  0
CLASS
  1
HATCH
  2
AcDbHatch
  3
AutoCAD 2000
 90
        0
280
     0
281
     1
  0
CLASS
  1
XRECORD
  2
AcDbXrecord
  3
AutoCAD 2000
 90
        0
280
     0
281
     0
  0
CLASS
  1
LONG_TRANSACTION
  2
AcDbLongTransaction
  3
ObjectDBX Classes
 90
   -65536
280
     1
281
     0
  0
CLASS
  1
LWPOLYLINE
  2
AcDbPolyline
  3
AutoCAD 2000
 90
        0
280
     0
281
     1
  0
CLASS
  1
HATCH
  2
AcDbHatch
  3
AutoCAD 2000
 90
        0
280
     0
281
     1
  0
CLASS
  1
XRECORD
  2
AcDbXrecord
  3
AutoCAD 2000
 90
        0
280
     0
281
     0
  0
CLASS
  1
LONG_TRANSACTION
  2
AcDbLongTransaction
  3
ObjectDBX Classes
 90
   -65536
280
     1
281
     0
  0
CLASS
  1
LWPOLYLINE
  2
AcDbPolyline
  3
AutoCAD 2000
 90
        0
280
     0
281
     1
  0
CLASS
  1
HATCH
  2
AcDbHatch
  3
AutoCAD 2000
 90
        0
280
     0
281
     1
  0
CLASS
  1
XRECORD
  2
AcDbXrecord
  3
AutoCAD 2000
 90
        0
280
     0
281
     0
  0
CLASS
  1
LONG_TRANSACTION
  2
AcDbLongTransaction
  3
ObjectDBX Classes
 90
   -65536
280
     1
281
     0
  0
CLASS
  1
LWPOLYLINE
  2
AcDbPolyline
  3
AutoCAD 2000
 90
        0
280
     0
281
     1
  0
CLASS
  1
HATCH
  2
AcDbHatch
  3
AutoCAD 2000
 90
        0
280
     0
281
     1
  0
CLASS
  1
XRECORD
  2
AcDbXrecord
  3
AutoCAD 2000
 90
        0
280
     0
281
     0
  0
CLASS
  1
LONG_TRANSACTION
  2
AcDbLongTransaction
  3
ObjectDBX Classes
 90
   -65536
280
     1
281
     0
  0
CLASS
  1
LWPOLYLINE
  2
AcDbPolyline
  3
AutoCAD 2000
 90
        0
280
     0
281
     1
  0
CLASS
  1
HATCH
  2
AcDbHatch
  3
AutoCAD 2000
 90
        0
280
     0
281
     1
  0
CLASS
  1
XRECORD
  2
AcDbXrecord
  3
AutoCAD 2000
 90
        0
280
     0
281
     0
  0
CLASS
  1
LONG_TRANSACTION
  2
AcDbLongTransaction
  3
ObjectDBX Classes
 90
   -65536
280
     1
281
     0
  0
CLASS
  1
LWPOLYLINE
  2
AcDbPolyline
  3
AutoCAD 2000
 90
        0
280
     0
281
     1
  0
CLASS
  1
HATCH
  2
AcDbHatch
  3
AutoCAD 2000
 90
        0
280
     0
281
     1
  0
CLASS
  1
XRECORD
  2
AcDbXrecord
  3
AutoCAD 2000
 90
        0
280
     0
281
     0
  0
CLASS
  1
TABLESTYLE
  2
AcDbTableStyle
  3
ObjectDBX Classes
 90
     2047
280
     1
281
     0
  0
ENDSEC
  0
SECTION
  2
TABLES
  0
TABLE
  2
VPORT
  5
1D
330
0
100
AcDbSymbolTable
 70
     3
  0
VPORT
  5
26C
330
1D
100
AcDbSymbolTableRecord
100
AcDbViewportTableRecord
  2
*Active
 70
     0
 10
0.0
 20
0.0
 11
1.0
 21
1.0
 12
7.018622957284883
 22
12.30133058385963
 13
0.0
 23
0.0
 14
0.063
 24
0.063
 15
0.25
 25
0.25
 16
0.0
 26
0.0
 36
1.0
 17
0.0
 27
0.0
 37
0.0
 40
31.34206791394151
 41
1.814583333333333
 42
50.0
 43
0.0
 44
0.0
 50
0.0
 51
0.0
 71
     0
 72
   100
 73
     1
 74
     0
 75
     0
 76
     0
 77
     0
 78
     0
281
     0
 65
     1
110
0.0
120
0.0
130
0.0
111
1.0
121
0.0
131
0.0
112
0.0
122
1.0
132
0.0
 79
     0
146
0.0
  0
ENDTAB
  0
TABLE
  2
LTYPE
  5
18
330
0
100
AcDbSymbolTable
 70
     2
  0
LTYPE
  5
19
330
18
100
AcDbSymbolTableRecord
100
AcDbLinetypeTableRecord
  2
BYBLOCK
 70
     0
  3

 72
    65
 73
     0
 40
0.0
  0
LTYPE
  5
1A
330
18
100
AcDbSymbolTableRecord
100
AcDbLinetypeTableRecord
  2
BYLAYER
 70
     0
  3

 72
    65
 73
     0
 40
0.0
  0
LTYPE
  5
A
330
18
100
AcDbSymbolTableRecord
100
AcDbLinetypeTableRecord
  2
CONTINUOUS
 70
     0
  3
Solid line
 72
    65
 73
     0
 40
0.0
  0
LTYPE
  5
251
330
18
100
AcDbSymbolTableRecord
100
AcDbLinetypeTableRecord
  2
HIDDEN
 70
     0
  3
Hidden __ __ __ __ __ __ __ __ __ __ __ __ __ _
 72
    65
 73
     2
 40
0.375
 49
0.25
 74
     0
 49
-0.125
 74
     0
  0
ENDTAB
  0
TABLE
  2
LAYER
  5
14
330
0
100
AcDbSymbolTable
 70
     1
  0
LAYER
  5
6
330
14
100
AcDbSymbolTableRecord
100
AcDbLayerTableRecord
  2
0
 70
     0
 62
     7
  6
CONTINUOUS
370
    -3
390
7
  0
ENDTAB
  0
TABLE
  2
STYLE
  5
15
330
0
100
AcDbSymbolTable
 70
     2
  0
STYLE
  5
16
330
15
100
AcDbSymbolTableRecord
100
AcDbTextStyleTableRecord
  2
STANDARD
 70
     0
 40
0.0
 41
1.0
 50
0.0
 71
     0
 42
0.299997
  3
TXT
  4

  0
STYLE
  5
250
330
15
100
AcDbSymbolTableRecord
100
AcDbTextStyleTableRecord
  2

 70
     1
 40
0.0
 41
1.0
 50
0.0
 71
     0
 42
0.299997
  3
ltypeshp.shx
  4

  0
ENDTAB
  0
TABLE
  2
VIEW
  5
1B
330
0
100
AcDbSymbolTable
 70
     0
  0
ENDTAB
  0
TABLE
  2
UCS
  5
1C
330
0
100
AcDbSymbolTable
 70
     0
  0
ENDTAB
  0
TABLE
  2
APPID
  5
1F
330
0
100
AcDbSymbolTable
 70
     1
  0
APPID
  5
20
330
1F
100
AcDbSymbolTableRecord
100
AcDbRegAppTableRecord
  2
ACAD
 70
     0
  0
ENDTAB
  0
TABLE
  2
DIMSTYLE
  5
21
330
0
100
AcDbSymbolTable
 70
     1
100
AcDbDimStyleTable
  0
DIMSTYLE
105
28
330
21
100
AcDbSymbolTableRecord
100
AcDbDimStyleTableRecord
  2
STANDARD
 70
     0
  3

  4

340
16
  0
ENDTAB
  0
TABLE
  2
BLOCK_RECORD
  5
1
330
0
100
AcDbSymbolTable
 70
     0
  0
BLOCK_RECORD
  5
2
330
1
100
AcDbSymbolTableRecord
100
AcDbBlockTableRecord
  2
*MODEL_SPACE
340
C
  0
BLOCK_RECORD
  5
E
330
1
100
AcDbSymbolTableRecord
100
AcDbBlockTableRecord
  2
*PAPER_SPACE
340
13
  0
ENDTAB
  0
ENDSEC
  0
SECTION
  2
BLOCKS
  0
BLOCK
  5
5
330
2
100
AcDbEntity
  8
0
100
AcDbBlockBegin
  2
*MODEL_SPACE
 70
     0
 10
0.0
 20
0.0
 30
0.0
  3
*MODEL_SPACE
  1

  4

  0
ENDBLK
  5
B
330
2
100
AcDbEntity
  8
0
100
AcDbBlockEnd
  0
BLOCK
  5
11
330
E
100
AcDbEntity
 67
     1
  8
0
100
AcDbBlockBegin
  2
*PAPER_SPACE
 70
     0
 10
0.0
 20
0.0
 30
0.0
  3
*PAPER_SPACE
  1

  4

  0
ENDBLK
  5
12
330
E
100
AcDbEntity
 67
     1
  8
0
100
AcDbBlockEnd
  0
ENDSEC
  0
SECTION
  2
ENTITIES
  0
LINE
  5
14E
330
2
100
AcDbEntity
  8
0
100
AcDbLine
 10
-1.058982001929479
 20
7.2575
 30
0.0
 11
-0.0657034460882784
 21
7.2575
 31
0.0
  0
LINE
  5
14F
330
2
100
AcDbEntity
  8
0
100
AcDbLine
 10
-0.31483324400768
 20
0.0014741434234846
 30
0.0
 11
-2.31483324400768
 21
0.0014741434234864
 31
0.0
  0
LINE
  5
150
330
2
100
AcDbEntity
  8
0
  6
HIDDEN
100
AcDbLine
 10
-0.31483324400768
 20
0.0714741434234849
 30
0.0
 11
-2.31483324400768
 21
0.0714741434234867
 31
0.0
  0
LINE
  5
151
330
2
100
AcDbEntity
  8
0
100
AcDbLine
 10
-1.058982001929479
 20
4.433352529636046
 30
0.0
 11
-1.058982001929479
 21
5.123265332121953
 31
0.0
  0
ARC
  5
152
330
2
100
AcDbEntity
  8
0
100
AcDbCircle
 10
-1.246482001929479
 20
2.433352529636046
 30
0.0
 40
0.1875
100
AcDbArc
 50
324.4623222080256
 51
0.0
  0
LINE
  5
153
330
2
100
AcDbEntity
  8
0
100
AcDbLine
 10
-2.279908269858936
 20
0.7149685570207041
 30
0.0
 11
-1.093906976078216
 21
2.324370368313716
 31
0.0
  0
LINE
  5
154
330
2
100
AcDbEntity
  8
0
100
AcDbLine
 10
-2.31483324400768
 20
0.0014741434234882
 30
0.0
 11
-2.314833244007673
 21
0.6059863956983733
 31
0.0
  0
ARC
  5
155
330
2
100
AcDbEntity
  8
0
100
AcDbCircle
 10
-2.127333244007673
 20
0.6059863956983733
 30
0.0
 40
0.1875
100
AcDbArc
 50
144.4623222080256
 51
179.9999999999999
  0
LINE
  5
157
330
2
100
AcDbEntity
  8
0
100
AcDbLine
 10
-1.360690419961287
 20
4.079412541273143
 30
0.0
 11
-1.360690419961287
 21
3.479412541273142
 31
0.0
  0
ARC
  5
158
330
2
100
AcDbEntity
  8
0
100
AcDbCircle
 10
-1.160690419961284
 20
3.470599710936654
 30
0.0
 40
0.2
100
AcDbArc
 50
180.0
 51
257.3643749069813
  0
LINE
  5
159
330
2
100
AcDbEntity
  8
0
100
AcDbLine
 10
-1.058982001929479
 20
2.433352529636046
 30
0.0
 11
-1.058982001929479
 21
3.123265332121953
 31
0.0
  0
ARC
  5
15A
330
2
100
AcDbEntity
  8
0
100
AcDbCircle
 10
-1.254315494642476
 20
3.089100166373179
 30
0.0
 40
0.2
100
AcDbArc
 50
4.066459635116879
 51
77.36437490698107
  0
ARC
  5
15B
330
2
100
AcDbEntity
  8
0
100
AcDbCircle
 10
-1.165951689840519
 20
4.079412541273143
 30
0.0
 40
0.2
100
AcDbArc
 50
102.6356250930187
 51
180.0
  0
ARC
  5
15C
330
2
100
AcDbEntity
  8
0
100
AcDbCircle
 10
-1.253451689840517
 20
4.469724916173099
 30
0.0
 40
0.2
100
AcDbArc
 50
282.6356250930193
 51
0.0
  0
LINE
  5
15E
330
2
100
AcDbEntity
  8
0
100
AcDbLine
 10
-1.058982001929479
 20
6.433352529636046
 30
0.0
 11
-1.058982001929479
 21
7.2575
 31
0.0
  0
ARC
  5
15F
330
2
100
AcDbEntity
  8
0
100
AcDbCircle
 10
-1.253451689840517
 20
6.469724916173099
 30
0.0
 40
0.2
100
AcDbArc
 50
282.6356250930193
 51
0.0
  0
ARC
  5
160
330
2
100
AcDbEntity
  8
0
100
AcDbCircle
 10
-1.165951689840519
 20
6.079412541273143
 30
0.0
 40
0.2
100
AcDbArc
 50
102.6356250930187
 51
180.0
  0
ARC
  5
161
330
2
100
AcDbEntity
  8
0
100
AcDbCircle
 10
-1.160690419961284
 20
5.470599710936654
 30
0.0
 40
0.2
100
AcDbArc
 50
180.0
 51
257.3643749069813
  0
LINE
  5
162
330
2
100
AcDbEntity
  8
0
100
AcDbLine
 10
-1.360690419961287
 20
6.079412541273143
 30
0.0
 11
-1.360690419961287
 21
5.479412541273142
 31
0.0
  0
ARC
  5
163
330
2
100
AcDbEntity
  8
0
100
AcDbCircle
 10
-1.254315494642476
 20
5.089100166373179
 30
0.0
 40
0.2
100
AcDbArc
 50
4.066459635116879
 51
77.36437490698107
  0
LINE
  5
165
330
2
100
AcDbEntity
  8
0
100
AcDbLine
 10
-0.0657034460882713
 20
2.683118473996665
 30
0.0
 11
-0.0657034460882784
 21
7.2575
 31
0.0
  0
LINE
  5
166
330
2
100
AcDbEntity
  8
0
100
AcDbLine
 10
-0.1357034460882716
 20
2.683118473996665
 30
0.0
 11
-0.1357034460882787
 21
7.2575
 31
0.0
  0
LINE
  5
167
330
2
100
AcDbEntity
  8
0
100
AcDbLine
 10
-0.0657034460882713
 20
2.683118473996665
 30
0.0
 11
-0.0657034460882713
 21
1.013790221234977
 31
0.0
  0
LINE
  5
168
330
2
100
AcDbEntity
  8
0
100
AcDbLine
 10
-0.1357034460882716
 20
2.683118473996665
 30
0.0
 11
-0.1357034460882716
 21
0.9188152602923765
 31
0.0
  0
LINE
  5
169
330
2
100
AcDbEntity
  8
0
100
AcDbLine
 10
-0.279908269858943
 20
0.7231602959301782
 30
0.0
 11
-0.0657034460882713
 21
1.013790221234979
 31
0.0
  0
LINE
  5
16A
330
2
100
AcDbEntity
  8
0
100
AcDbLine
 10
-0.31483324400768
 20
0.0014741434234846
 30
0.0
 11
-0.31483324400768
 21
0.6141781346078474
 31
0.0
  0
ARC
  5
16B
330
2
100
AcDbEntity
  8
0
100
AcDbCircle
 10
-0.12733324400768
 20
0.6141781346078474
 30
0.0
 40
0.1875
100
AcDbArc
 50
144.4623222080255
 51
180.0
  0
ARC
  5
16C
330
2
100
AcDbEntity
  8
0
100
AcDbCircle
 10
-0.12733324400768
 20
0.6141781346078474
 30
0.0
 40
0.1875
100
AcDbArc
 50
144.4623222080255
 51
180.0000000000001
  0
ARC
  5
16D
330
2
100
AcDbEntity
  8
0
100
AcDbCircle
 10
-0.094889951869952
 20
4.746362818793589
 30
0.0
 40
0.25
100
AcDbArc
 50
98.82715068361172
 51
261.1728493163883
  0
LINE
  5
180
330
2
100
AcDbEntity
  8
0
100
AcDbLine
 10
-1.064833244007698
 20
0.9376548774076525
 30
0.0
 11
-1.064833244007698
 21
1.203262877407656
 31
0.0
  0
LWPOLYLINE
  5
181
330
2
100
AcDbEntity
  8
0
100
AcDbPolyline
 90
        9
 70
     0
 43
0.0
 10
-1.064833244007698
 20
0.9658068774076511
 42
0.1432467981947568
 10
-1.04061757918646
 20
0.9728898504040515
 42
0.1071754848060475
 10
-1.016918859854698
 20
0.996458738542918
 42
0.0783035184710328
 10
-1.002570058937231
 20
1.028735142719684
 42
0.0656020556757086
 10
-0.9970720721057695
 20
1.070458877407658
 42
0.0656020556757101
 10
-1.002570058937231
 20
1.112182612095625
 42
0.0783035184710357
 10
-1.016918859854698
 20
1.144459016272391
 42
0.1071754848060445
 10
-1.04061757918646
 20
1.168027904411256
 42
0.1432467981947535
 10
-1.064833244007698
 20
1.175110877407656
 42
0.1432467981947515
  0
LWPOLYLINE
  5
183
330
2
100
AcDbEntity
  8
0
100
AcDbPolyline
 90
        9
 70
     0
 43
0.0
 10
-1.064833244007698
 20
0.9939588774076515
 42
0.147269582437036
 10
-1.047844677771661
 20
0.9990736054279346
 42
0.1071386913803464
 10
-1.030994859854697
 20
1.016365208646883
 42
0.0765137470862007
 10
-1.020874622369799
 20
1.039889757159676
 42
0.063469041210727
 10
-1.016978542209735
 20
1.070458877407658
 42
0.0634690412107267
 10
-1.020874622369799
 20
1.101027997655631
 42
0.0765137470862059
 10
-1.030994859854697
 20
1.124552546168426
 42
0.1071386913803463
 10
-1.047844677771661
 20
1.141844149387373
 42
0.1472695824370325
 10
-1.064833244007698
 20
1.146958877407656
 42
0.1472695824370333
  0
LINE
  5
184
330
2
100
AcDbEntity
  8
0
100
AcDbLine
 10
-1.064833244007698
 20
3.876170143423483
 30
0.0
 11
-1.064833244007698
 21
4.141778143423487
 31
0.0
  0
LWPOLYLINE
  5
185
330
2
100
AcDbEntity
  8
0
100
AcDbPolyline
 90
        9
 70
     0
 43
0.0
 10
-1.064833244007698
 20
3.904322143423485
 42
0.1432467981947568
 10
-1.04061757918646
 20
3.911405116419886
 42
0.1071754848060475
 10
-1.016918859854698
 20
3.93497400455875
 42
0.0783035184710328
 10
-1.002570058937231
 20
3.967250408735517
 42
0.0656020556757086
 10
-0.9970720721057695
 20
4.00897414342349
 42
0.0656020556757101
 10
-1.002570058937231
 20
4.050697878111457
 42
0.0783035184710357
 10
-1.016918859854698
 20
4.082974282288223
 42
0.1071754848060445
 10
-1.04061757918646
 20
4.106543170427088
 42
0.1432467981947535
 10
-1.064833244007698
 20
4.113626143423488
 42
0.1432467981947515
  0
LWPOLYLINE
  5
187
330
2
100
AcDbEntity
  8
0
100
AcDbPolyline
 90
        9
 70
     0
 43
0.0
 10
-1.064833244007698
 20
3.932474143423484
 42
0.147269582437036
 10
-1.047844677771661
 20
3.937588871443769
 42
0.1071386913803464
 10
-1.030994859854697
 20
3.954880474662716
 42
0.0765137470862007
 10
-1.020874622369799
 20
3.978405023175508
 42
0.063469041210727
 10
-1.016978542209735
 20
4.00897414342349
 42
0.0634690412107267
 10
-1.020874622369799
 20
4.039543263671465
 42
0.0765137470862059
 10
-1.030994859854697
 20
4.063067812184258
 42
0.1071386913803463
 10
-1.047844677771661
 20
4.080359415403205
 42
0.1472695824370325
 10
-1.064833244007698
 20
4.08547414342349
 42
0.1472695824370333
  0
LINE
  5
188
330
2
100
AcDbEntity
  8
0
100
AcDbLine
 10
-1.064833244007698
 20
5.876170143423483
 30
0.0
 11
-1.064833244007698
 21
6.141778143423487
 31
0.0
  0
LWPOLYLINE
  5
189
330
2
100
AcDbEntity
  8
0
100
AcDbPolyline
 90
        9
 70
     0
 43
0.0
 10
-1.064833244007698
 20
5.904322143423485
 42
0.1432467981947568
 10
-1.04061757918646
 20
5.911405116419886
 42
0.1071754848060475
 10
-1.016918859854698
 20
5.93497400455875
 42
0.0783035184710328
 10
-1.002570058937231
 20
5.967250408735517
 42
0.0656020556757086
 10
-0.9970720721057695
 20
6.00897414342349
 42
0.0656020556757101
 10
-1.002570058937231
 20
6.050697878111457
 42
0.0783035184710357
 10
-1.016918859854698
 20
6.082974282288223
 42
0.1071754848060445
 10
-1.04061757918646
 20
6.106543170427088
 42
0.1432467981947535
 10
-1.064833244007698
 20
6.113626143423488
 42
0.1432467981947515
  0
LWPOLYLINE
  5
18B
330
2
100
AcDbEntity
  8
0
100
AcDbPolyline
 90
        9
 70
     0
 43
0.0
 10
-1.064833244007698
 20
5.932474143423484
 42
0.147269582437036
 10
-1.047844677771661
 20
5.937588871443769
 42
0.1071386913803464
 10
-1.030994859854697
 20
5.954880474662716
 42
0.0765137470862007
 10
-1.020874622369799
 20
5.978405023175508
 42
0.063469041210727
 10
-1.016978542209735
 20
6.00897414342349
 42
0.0634690412107267
 10
-1.020874622369799
 20
6.039543263671465
 42
0.0765137470862059
 10
-1.030994859854697
 20
6.063067812184258
 42
0.1071386913803463
 10
-1.047844677771661
 20
6.080359415403205
 42
0.1472695824370325
 10
-1.064833244007698
 20
6.08547414342349
 42
0.1472695824370333
  0
ARC
  5
22F
330
2
100
AcDbEntity
  8
0
100
AcDbCircle
 10
-1.01189500315148
 20
6.038125218019509
 30
0.0
 40
0.1545284259354844
100
AcDbArc
 50
304.7482755454344
 51
329.1575290112884
  0
ARC
  5
230
330
2
100
AcDbEntity
  8
0
100
AcDbCircle
 10
-1.011895003151473
 20
5.979823068827457
 30
0.0
 40
0.1545284259354811
100
AcDbArc
 50
30.84247098871409
 51
55.25172445456781
  0
ARC
  5
231
330
2
100
AcDbEntity
  8
0
100
AcDbCircle
 10
-1.064833244007705
 20
6.157134943660637
 30
0.0
 40
0.2864983002371524
100
AcDbArc
 50
270.0000000000014
 51
286.0310365777432
  0
ARC
  5
232
330
2
100
AcDbEntity
  8
0
100
AcDbCircle
 10
-1.043891259921164
 20
6.084250595723553
 30
0.0
 40
0.2106649640867842
100
AcDbArc
 50
286.0310365777398
 51
304.7482755454312
  0
ARC
  5
233
330
2
100
AcDbEntity
  8
0
100
AcDbCircle
 10
-1.043891259921178
 20
5.933697691123413
 30
0.0
 40
0.2106649640867918
100
AcDbArc
 50
55.25172445456567
 51
73.96896342225675
  0
ARC
  5
234
330
2
100
AcDbEntity
  8
0
100
AcDbCircle
 10
-1.064833244007705
 20
5.860813343186337
 30
0.0
 40
0.2864983002371495
100
AcDbArc
 50
73.96896342225659
 51
89.99999999999859
  0
ARC
  5
235
330
2
100
AcDbEntity
  8
0
100
AcDbCircle
 10
-0.9630759342616919
 20
6.008974143423483
 30
0.0
 40
0.0976681881821226
100
AcDbArc
 50
329.1575290112875
 51
0.000000000000007
  0
ARC
  5
236
330
2
100
AcDbEntity
  8
0
100
AcDbCircle
 10
-0.963075934261699
 20
6.008974143423487
 30
0.0
 40
0.09766818818213
100
AcDbArc
 50
359.9999999999979
 51
30.84247098871045
  0
ARC
  5
237
330
2
100
AcDbEntity
  8
0
100
AcDbCircle
 10
-1.01189500315148
 20
4.038125218019509
 30
0.0
 40
0.1545284259354844
100
AcDbArc
 50
304.7482755454344
 51
329.1575290112884
  0
ARC
  5
238
330
2
100
AcDbEntity
  8
0
100
AcDbCircle
 10
-1.011895003151473
 20
3.979823068827457
 30
0.0
 40
0.1545284259354811
100
AcDbArc
 50
30.84247098871409
 51
55.25172445456781
  0
ARC
  5
239
330
2
100
AcDbEntity
  8
0
100
AcDbCircle
 10
-1.064833244007705
 20
4.157134943660637
 30
0.0
 40
0.2864983002371524
100
AcDbArc
 50
270.0000000000014
 51
286.0310365777432
  0
ARC
  5
23A
330
2
100
AcDbEntity
  8
0
100
AcDbCircle
 10
-1.043891259921164
 20
4.084250595723553
 30
0.0
 40
0.2106649640867842
100
AcDbArc
 50
286.0310365777398
 51
304.7482755454312
  0
ARC
  5
23B
330
2
100
AcDbEntity
  8
0
100
AcDbCircle
 10
-1.043891259921178
 20
3.933697691123413
 30
0.0
 40
0.2106649640867918
100
AcDbArc
 50
55.25172445456567
 51
73.96896342225675
  0
ARC
  5
23C
330
2
100
AcDbEntity
  8
0
100
AcDbCircle
 10
-1.064833244007705
 20
3.860813343186337
 30
0.0
 40
0.2864983002371495
100
AcDbArc
 50
73.96896342225659
 51
89.99999999999859
  0
ARC
  5
23D
330
2
100
AcDbEntity
  8
0
100
AcDbCircle
 10
-0.9630759342616919
 20
4.008974143423483
 30
0.0
 40
0.0976681881821226
100
AcDbArc
 50
329.1575290112875
 51
0.000000000000007
  0
ARC
  5
23E
330
2
100
AcDbEntity
  8
0
100
AcDbCircle
 10
-0.963075934261699
 20
4.008974143423487
 30
0.0
 40
0.09766818818213
100
AcDbArc
 50
359.9999999999979
 51
30.84247098871045
  0
ARC
  5
23F
330
2
100
AcDbEntity
  8
0
100
AcDbCircle
 10
-1.01189500315148
 20
1.099609952003679
 30
0.0
 40
0.1545284259354844
100
AcDbArc
 50
304.7482755454344
 51
329.1575290112884
  0
ARC
  5
240
330
2
100
AcDbEntity
  8
0
100
AcDbCircle
 10
-1.011895003151473
 20
1.041307802811627
 30
0.0
 40
0.1545284259354811
100
AcDbArc
 50
30.84247098871409
 51
55.25172445456781
  0
ARC
  5
241
330
2
100
AcDbEntity
  8
0
100
AcDbCircle
 10
-1.064833244007705
 20
1.218619677644806
 30
0.0
 40
0.2864983002371524
100
AcDbArc
 50
270.0000000000014
 51
286.0310365777432
  0
ARC
  5
242
330
2
100
AcDbEntity
  8
0
100
AcDbCircle
 10
-1.043891259921164
 20
1.145735329707723
 30
0.0
 40
0.2106649640867842
100
AcDbArc
 50
286.0310365777398
 51
304.7482755454312
  0
ARC
  5
243
330
2
100
AcDbEntity
  8
0
100
AcDbCircle
 10
-1.043891259921178
 20
0.9951824251075827
 30
0.0
 40
0.2106649640867918
100
AcDbArc
 50
55.25172445456567
 51
73.96896342225675
  0
ARC
  5
244
330
2
100
AcDbEntity
  8
0
100
AcDbCircle
 10
-1.064833244007705
 20
0.9222980771705061
 30
0.0
 40
0.2864983002371495
100
AcDbArc
 50
73.96896342225659
 51
89.99999999999859
  0
ARC
  5
245
330
2
100
AcDbEntity
  8
0
100
AcDbCircle
 10
-0.9630759342616919
 20
1.070458877407653
 30
0.0
 40
0.0976681881821226
100
AcDbArc
 50
329.1575290112875
 51
0.000000000000007
  0
ARC
  5
246
330
2
100
AcDbEntity
  8
0
100
AcDbCircle
 10
-0.963075934261699
 20
1.070458877407656
 30
0.0
 40
0.09766818818213
100
AcDbArc
 50
359.9999999999979
 51
30.84247098871045
  0
ENDSEC
  0
SECTION
  2
OBJECTS
  0
DICTIONARY
  5
9
330
0
100
AcDbDictionary
281
     1
  3
ACAD_COLOR
350
1BE
  3
ACAD_GROUP
350
23
  3
ACAD_LAYOUT
350
D
  3
ACAD_MATERIAL
350
1BD
  3
ACAD_MLINESTYLE
350
24
  3
ACAD_PLOTSETTINGS
350
25
  3
ACAD_PLOTSTYLENAME
350
8
  3
ACAD_TABLESTYLE
350
1BF
  3
ACDBHEADERROUNDTRIPXREC
350
273
  3
AcDbVariableDictionary
350
DD
  0
DICTIONARY
  5
1BE
102
{ACAD_REACTORS
330
9
102
}
330
9
100
AcDbDictionary
281
     1
  0
DICTIONARY
  5
23
102
{ACAD_REACTORS
330
9
102
}
330
9
100
AcDbDictionary
281
     1
  0
DICTIONARY
  5
D
102
{ACAD_REACTORS
330
9
102
}
330
9
100
AcDbDictionary
281
     1
  3
Layout1
350
13
  3
Model
350
C
  0
DICTIONARY
  5
1BD
102
{ACAD_REACTORS
330
9
102
}
330
9
100
AcDbDictionary
281
     1
  0
DICTIONARY
  5
24
102
{ACAD_REACTORS
330
9
102
}
330
9
100
AcDbDictionary
281
     1
  3
STANDARD
350
27
  0
DICTIONARY
  5
25
102
{ACAD_REACTORS
330
9
102
}
330
9
100
AcDbDictionary
281
     1
  0
ACDBDICTIONARYWDFLT
  5
8
102
{ACAD_REACTORS
330
9
102
}
330
9
100
AcDbDictionary
281
     1
  3
Normal
350
7
100
AcDbDictionaryWithDefault
340
7
  0
DICTIONARY
  5
1BF
102
{ACAD_REACTORS
330
9
102
}
330
9
100
AcDbDictionary
281
     1
  3
Standard
350
1C0
  0
DICTIONARY
  5
273
102
{ACAD_REACTORS
330
9
102
}
330
9
100
AcDbDictionary
281
     1
  3
COLORDICT
350
274
  3
MATERIALDICT
350
275
  0
DICTIONARY
  5
DD
102
{ACAD_REACTORS
330
9
102
}
330
9
100
AcDbDictionary
281
     1
  3
CTABLESTYLE
350
260
  3
HIDETEXT
350
272
  0
LAYOUT
  5
13
102
{ACAD_REACTORS
330
D
102
}
102
{ACAD_XDICTIONARY
360
276
102
}
330
D
100
AcDbPlotSettings
  1

  2
C:\ACAD2000\plotters\HP LaserJet 2100 Series PS.pc3
  4

  6

 40
0.0
 41
0.0
 42
0.0
 43
0.0
 44
0.0
 45
0.0
 46
0.0
 47
0.0
 48
0.0
 49
0.0
140
0.0
141
0.0
142
1.0
143
1.0
 70
   688
 72
     0
 73
     0
 74
     5
  7

 75
    16
147
1.0
148
0.0
149
0.0
100
AcDbLayout
  1
Layout1
 70
     0
 71
     1
 10
0.0
 20
0.0
 11
12.0
 21
9.0
 12
0.0
 22
0.0
 32
0.0
 14
1.000000000000000E+20
 24
1.000000000000000E+20
 34
1.000000000000000E+20
 15
-1.000000000000000E+20
 25
-1.000000000000000E+20
 35
-1.000000000000000E+20
146
0.0
 13
0.0
 23
0.0
 33
0.0
 16
1.0
 26
0.0
 36
0.0
 17
0.0
 27
1.0
 37
0.0
 76
     0
330
E
  0
LAYOUT
  5
C
102
{ACAD_REACTORS
330
D
102
}
102
{ACAD_XDICTIONARY
360
278
102
}
330
D
100
AcDbPlotSettings
  1

  2
HP LaserJet 2100 Series PS
  4
Letter
  6

 40
3.174999952316284
 41
3.174999952316284
 42
3.175003051757813
 43
3.17498779296875
 44
215.9000091552734
 45
279.3999938964844
 46
0.0
 47
0.0
 48
0.0
 49
0.0
140
0.0
141
0.0
142
1.0
143
3.255781322003443
 70
 28336
 72
     0
 73
     0
 74
     2
  7

 75
     0
147
0.3071459355214467
148
0.0
149
0.0
100
AcDbLayout
  1
Model
 70
     1
 71
     0
 10
0.0
 20
0.0
 11
12.0
 21
9.0
 12
0.0
 22
0.0
 32
0.0
 14
0.0
 24
0.0
 34
0.0
 15
0.0
 25
0.0
 35
0.0
146
0.0
 13
0.0
 23
0.0
 33
0.0
 16
1.0
 26
0.0
 36
0.0
 17
0.0
 27
1.0
 37
0.0
 76
     0
330
2
  0
MLINESTYLE
  5
27
102
{ACAD_REACTORS
330
24
102
}
330
24
100
AcDbMlineStyle
  2
STANDARD
 70
     0
  3

 62
   256
 51
90.0
 52
90.0
 71
     2
 49
0.5
 62
   256
  6
BYLAYER
 49
-0.5
 62
   256
  6
BYLAYER
  0
ACDBPLACEHOLDER
  5
7
102
{ACAD_REACTORS
330
8
102
}
330
8
  0
ACAD_PROXY_OBJECT
  5
1C0
102
{ACAD_REACTORS
330
1BF
102
}
330
1BF
100
AcDbProxyObject
 90
      499
 91
      529
 95
   983063
 70
     0
 93
     1841
310
4214DD185B99185C9928B81E85EB51B8AE3F2E07A17AD46E2B8FC02B5E8DC0F42B1CFD028000000C1008070000C3001FDFF8000000C1003FBFF000000182007F7FE00000030400FEFFC00000060801FDFF8000000C1003FBFF00000018200000000000000681FA0B0000001820100E000186003FBFF000000182007F7FE000
310
00030400FEFFC00000060801FDFF8000000C1003FBFF000000182007F7FE000000304000AD7A3703D0AC73F4160000003040201C00030C007F7FE00000030400FEFFC00000060801FDFF8000000C1003FBFF000000182007F7FE00000030400FEFFC000000608000
340
16
340
16
340
16
 94
        0
  0
XRECORD
  5
274
102
{ACAD_REACTORS
330
273
102
}
330
273
100
AcDbXrecord
340
1BE
  0
XRECORD
  5
275
102
{ACAD_REACTORS
330
273
102
}
330
273
100
AcDbXrecord
340
1BD
  0
DICTIONARYVAR
  5
260
102
{ACAD_REACTORS
330
DD
102
}
330
DD
100
DictionaryVariables
280
     0
  1
STANDARD
  0
DICTIONARYVAR
  5
272
102
{ACAD_REACTORS
330
DD
102
}
330
DD
100
DictionaryVariables
280
     0
  1
0
  0
DICTIONARY
  5
276
330
13
100
AcDbDictionary
280
     1
281
     1
  3
ACAD_XREC_ROUNDTRIP
360
277
  0
DICTIONARY
  5
278
330
C
100
AcDbDictionary
280
     1
281
     1
  3
ACAD_XREC_ROUNDTRIP
360
279
  0
XRECORD
  5
277
102
{ACAD_REACTORS
330
276
102
}
330
276
100
AcDbXrecord
102
SHADEPLOT
 70
     0
102
SHADEPLOTRESLEVEL
 70
     2
102
SHADEPLOTCUSTOMDPI
 70
   300
  0
XRECORD
  5
279
102
{ACAD_REACTORS
330
278
102
}
330
278
100
AcDbXrecord
102
SHADEPLOT
 70
     0
102
SHADEPLOTRESLEVEL
 70
     2
102
SHADEPLOTCUSTOMDPI
 70
   300
  0
ENDSEC
  0
EOF
