  0
SECTION
  2
HEADER
  9
$ACADVER
  1
AC1015
  9
$ACADMAINTVER
 70
     6
  9
$DWGCODEPAGE
  3
ANSI_1252
  9
$INSBASE
 10
0.0
 20
0.0
 30
0.0
  9
$EXTMIN
 10
-10.97383704413529
 20
-1.018208063367723
 30
-0.0000000000112498
  9
$EXTMAX
 10
9.182596093054457
 20
13.14267885331947
 30
0.0000000000002956
  9
$LIMMIN
 10
0.0
 20
0.0
  9
$LIMMAX
 10
42.0
 20
32.0
  9
$ORTHOMODE
 70
     1
  9
$REGENMODE
 70
     1
  9
$FILLMODE
 70
     1
  9
$QTEXTMODE
 70
     0
  9
$MIRRTEXT
 70
     1
  9
$LTSCALE
 40
0.5
  9
$ATTMODE
 70
     1
  9
$TEXTSIZE
 40
0.36
  9
$TRACEWID
 40
0.05
  9
$TEXTSTYLE
  7
STANDARD
  9
$CLAYER
  8
0
  9
$CELTYPE
  6
HIDDEN
  9
$CECOLOR
 62
   256
  9
$CELTSCALE
 40
1.0
  9
$DISPSILH
 70
     0
  9
$DIMSCALE
 40
4.0
  9
$DIMASZ
 40
0.125
  9
$DIMEXO
 40
0.062
  9
$DIMDLI
 40
0.375
  9
$DIMRND
 40
0.0
  9
$DIMDLE
 40
0.0
  9
$DIMEXE
 40
0.08
  9
$DIMTP
 40
0.0
  9
$DIMTM
 40
0.0
  9
$DIMTXT
 40
0.09
  9
$DIMCEN
 40
-0.06
  9
$DIMTSZ
 40
0.0
  9
$DIMTOL
 70
     0
  9
$DIMLIM
 70
     0
  9
$DIMTIH
 70
     1
  9
$DIMTOH
 70
     1
  9
$DIMSE1
 70
     0
  9
$DIMSE2
 70
     0
  9
$DIMTAD
 70
     0
  9
$DIMZIN
 70
     0
  9
$DIMBLK
  1

  9
$DIMASO
 70
     0
  9
$DIMSHO
 70
     0
  9
$DIMPOST
  1

  9
$DIMAPOST
  1

  9
$DIMALT
 70
     0
  9
$DIMALTD
 70
     2
  9
$DIMALTF
 40
25.4
  9
$DIMLFAC
 40
1.0
  9
$DIMTOFL
 70
     0
  9
$DIMTVP
 40
0.0
  9
$DIMTIX
 70
     0
  9
$DIMSOXD
 70
     0
  9
$DIMSAH
 70
     0
  9
$DIMBLK1
  1

  9
$DIMBLK2
  1

  9
$DIMSTYLE
  2
STANDARD
  9
$DIMCLRD
 70
     0
  9
$DIMCLRE
 70
     0
  9
$DIMCLRT
 70
     0
  9
$DIMTFAC
 40
1.0
  9
$DIMGAP
 40
0.09
  9
$DIMJUST
 70
     0
  9
$DIMSD1
 70
     0
  9
$DIMSD2
 70
     0
  9
$DIMTOLJ
 70
     1
  9
$DIMTZIN
 70
     0
  9
$DIMALTZ
 70
     0
  9
$DIMALTTZ
 70
     0
  9
$DIMUPT
 70
     0
  9
$DIMDEC
 70
     5
  9
$DIMTDEC
 70
     4
  9
$DIMALTU
 70
     2
  9
$DIMALTTD
 70
     2
  9
$DIMTXSTY
  7
STANDARD
  9
$DIMAUNIT
 70
     0
  9
$DIMADEC
 70
     0
  9
$DIMALTRND
 40
0.0
  9
$DIMAZIN
 70
     0
  9
$DIMDSEP
 70
    46
  9
$DIMATFIT
 70
     3
  9
$DIMFRAC
 70
     2
  9
$DIMLDRBLK
  1

  9
$DIMLUNIT
 70
     5
  9
$DIMLWD
 70
    -2
  9
$DIMLWE
 70
    -2
  9
$DIMTMOVE
 70
     2
  9
$LUNITS
 70
     2
  9
$LUPREC
 70
     4
  9
$SKETCHINC
 40
0.1
  9
$FILLETRAD
 40
0.0
  9
$AUNITS
 70
     0
  9
$AUPREC
 70
     0
  9
$MENU
  1
acad
  9
$ELEVATION
 40
0.0
  9
$PELEVATION
 40
0.0
  9
$THICKNESS
 40
0.0
  9
$LIMCHECK
 70
     0
  9
$CHAMFERA
 40
0.0
  9
$CHAMFERB
 40
0.0
  9
$CHAMFERC
 40
0.0
  9
$CHAMFERD
 40
0.0
  9
$SKPOLY
 70
     0
  9
$TDCREATE
 40
2448880.712842593
  9
$TDUCREATE
 40
2448881.046175926
  9
$TDUPDATE
 40
2454166.77538375
  9
$TDUUPDATE
 40
2454167.108717084
  9
$TDINDWG
 40
0.2463587037
  9
$TDUSRTIMER
 40
0.2463587037
  9
$USRTIMER
 70
     1
  9
$ANGBASE
 50
0.0
  9
$ANGDIR
 70
     0
  9
$PDMODE
 70
     0
  9
$PDSIZE
 40
0.0
  9
$PLINEWID
 40
0.0
  9
$SPLFRAME
 70
     0
  9
$SPLINETYPE
 70
     6
  9
$SPLINESEGS
 70
     8
  9
$HANDSEED
  5
32F
  9
$SURFTAB1
 70
     6
  9
$SURFTAB2
 70
     6
  9
$SURFTYPE
 70
     6
  9
$SURFU
 70
     6
  9
$SURFV
 70
     6
  9
$UCSBASE
  2

  9
$UCSNAME
  2

  9
$UCSORG
 10
0.0
 20
0.0
 30
0.0
  9
$UCSXDIR
 10
1.0
 20
0.0
 30
0.0
  9
$UCSYDIR
 10
0.0
 20
1.0
 30
0.0
  9
$UCSORTHOREF
  2

  9
$UCSORTHOVIEW
 70
     0
  9
$UCSORGTOP
 10
0.0
 20
0.0
 30
0.0
  9
$UCSORGBOTTOM
 10
0.0
 20
0.0
 30
0.0
  9
$UCSORGLEFT
 10
0.0
 20
0.0
 30
0.0
  9
$UCSORGRIGHT
 10
0.0
 20
0.0
 30
0.0
  9
$UCSORGFRONT
 10
0.0
 20
0.0
 30
0.0
  9
$UCSORGBACK
 10
0.0
 20
0.0
 30
0.0
  9
$PUCSBASE
  2

  9
$PUCSNAME
  2

  9
$PUCSORG
 10
0.0
 20
0.0
 30
0.0
  9
$PUCSXDIR
 10
1.0
 20
0.0
 30
0.0
  9
$PUCSYDIR
 10
0.0
 20
1.0
 30
0.0
  9
$PUCSORTHOREF
  2

  9
$PUCSORTHOVIEW
 70
     0
  9
$PUCSORGTOP
 10
0.0
 20
0.0
 30
0.0
  9
$PUCSORGBOTTOM
 10
0.0
 20
0.0
 30
0.0
  9
$PUCSORGLEFT
 10
0.0
 20
0.0
 30
0.0
  9
$PUCSORGRIGHT
 10
0.0
 20
0.0
 30
0.0
  9
$PUCSORGFRONT
 10
0.0
 20
0.0
 30
0.0
  9
$PUCSORGBACK
 10
0.0
 20
0.0
 30
0.0
  9
$USERI1
 70
     0
  9
$USERI2
 70
     0
  9
$USERI3
 70
     0
  9
$USERI4
 70
     0
  9
$USERI5
 70
     0
  9
$USERR1
 40
0.0
  9
$USERR2
 40
0.0
  9
$USERR3
 40
0.0
  9
$USERR4
 40
0.0
  9
$USERR5
 40
0.0
  9
$WORLDVIEW
 70
     1
  9
$SHADEDGE
 70
     3
  9
$SHADEDIF
 70
    70
  9
$TILEMODE
 70
     1
  9
$MAXACTVP
 70
    16
  9
$PINSBASE
 10
0.0
 20
0.0
 30
0.0
  9
$PLIMCHECK
 70
     0
  9
$PEXTMIN
 10
1.000000000000000E+20
 20
1.000000000000000E+20
 30
1.000000000000000E+20
  9
$PEXTMAX
 10
-1.000000000000000E+20
 20
-1.000000000000000E+20
 30
-1.000000000000000E+20
  9
$PLIMMIN
 10
0.0
 20
0.0
  9
$PLIMMAX
 10
12.0
 20
9.0
  9
$UNITMODE
 70
     0
  9
$VISRETAIN
 70
     0
  9
$PLINEGEN
 70
     0
  9
$PSLTSCALE
 70
     0
  9
$TREEDEPTH
 70
  3020
  9
$CMLSTYLE
  2
STANDARD
  9
$CMLJUST
 70
     0
  9
$CMLSCALE
 40
1.0
  9
$PROXYGRAPHICS
 70
     1
  9
$MEASUREMENT
 70
     0
  9
$CELWEIGHT
370
    -1
  9
$ENDCAPS
280
     0
  9
$JOINSTYLE
280
     0
  9
$LWDISPLAY
290
     0
  9
$INSUNITS
 70
     0
  9
$HYPERLINKBASE
  1

  9
$STYLESHEET
  1

  9
$XEDIT
290
     1
  9
$CEPSNTYPE
380
     0
  9
$PSTYLEMODE
290
     1
  9
$FINGERPRINTGUID
  2
{D2F66ADB-A264-4ADF-B7D5-0BD741C9DFA9}
  9
$VERSIONGUID
  2
{1C11B181-DD4F-47D0-B398-281A529541FD}
  9
$EXTNAMES
290
     1
  9
$PSVPSCALE
 40
0.0
  9
$OLESTARTUP
290
     0
  0
ENDSEC
  0
SECTION
  2
CLASSES
  0
CLASS
  1
DICTIONARYVAR
  2
AcDbDictionaryVar
  3
AutoCAD 2000
 90
        0
280
     0
281
     0
  0
CLASS
  1
LWPOLYLINE
  2
AcDbPolyline
  3
AutoCAD 2000
 90
        0
280
     0
281
     1
  0
CLASS
  1
ACDBDICTIONARYWDFLT
  2
AcDbDictionaryWithDefault
  3
AutoCAD 2000
 90
        0
280
     0
281
     0
  0
CLASS
  1
ACDBPLACEHOLDER
  2
AcDbPlaceHolder
  3
ObjectDBX Classes
 90
        0
280
     0
281
     0
  0
CLASS
  1
LAYOUT
  2
AcDbLayout
  3
ObjectDBX Classes
 90
        0
280
     0
281
     0
  0
CLASS
  1
LONG_TRANSACTION
  2
AcDbLongTransaction
  3
ObjectDBX Classes
 90
   -65536
280
     1
281
     0
  0
CLASS
  1
LWPOLYLINE
  2
AcDbPolyline
  3
AutoCAD 2000
 90
        0
280
     0
281
     1
  0
CLASS
  1
HATCH
  2
AcDbHatch
  3
AutoCAD 2000
 90
        0
280
     0
281
     1
  0
CLASS
  1
XRECORD
  2
AcDbXrecord
  3
AutoCAD 2000
 90
        0
280
     0
281
     0
  0
CLASS
  1
LONG_TRANSACTION
  2
AcDbLongTransaction
  3
ObjectDBX Classes
 90
   -65536
280
     1
281
     0
  0
CLASS
  1
LWPOLYLINE
  2
AcDbPolyline
  3
AutoCAD 2000
 90
        0
280
     0
281
     1
  0
CLASS
  1
HATCH
  2
AcDbHatch
  3
AutoCAD 2000
 90
        0
280
     0
281
     1
  0
CLASS
  1
XRECORD
  2
AcDbXrecord
  3
AutoCAD 2000
 90
        0
280
     0
281
     0
  0
CLASS
  1
LONG_TRANSACTION
  2
AcDbLongTransaction
  3
ObjectDBX Classes
 90
   -65536
280
     1
281
     0
  0
CLASS
  1
LWPOLYLINE
  2
AcDbPolyline
  3
AutoCAD 2000
 90
        0
280
     0
281
     1
  0
CLASS
  1
HATCH
  2
AcDbHatch
  3
AutoCAD 2000
 90
        0
280
     0
281
     1
  0
CLASS
  1
XRECORD
  2
AcDbXrecord
  3
AutoCAD 2000
 90
        0
280
     0
281
     0
  0
CLASS
  1
LONG_TRANSACTION
  2
AcDbLongTransaction
  3
ObjectDBX Classes
 90
   -65536
280
     1
281
     0
  0
CLASS
  1
LWPOLYLINE
  2
AcDbPolyline
  3
AutoCAD 2000
 90
        0
280
     0
281
     1
  0
CLASS
  1
HATCH
  2
AcDbHatch
  3
AutoCAD 2000
 90
        0
280
     0
281
     1
  0
CLASS
  1
XRECORD
  2
AcDbXrecord
  3
AutoCAD 2000
 90
        0
280
     0
281
     0
  0
CLASS
  1
LONG_TRANSACTION
  2
AcDbLongTransaction
  3
ObjectDBX Classes
 90
   -65536
280
     1
281
     0
  0
CLASS
  1
LWPOLYLINE
  2
AcDbPolyline
  3
AutoCAD 2000
 90
        0
280
     0
281
     1
  0
CLASS
  1
HATCH
  2
AcDbHatch
  3
AutoCAD 2000
 90
        0
280
     0
281
     1
  0
CLASS
  1
XRECORD
  2
AcDbXrecord
  3
AutoCAD 2000
 90
        0
280
     0
281
     0
  0
CLASS
  1
LONG_TRANSACTION
  2
AcDbLongTransaction
  3
ObjectDBX Classes
 90
   -65536
280
     1
281
     0
  0
CLASS
  1
LWPOLYLINE
  2
AcDbPolyline
  3
AutoCAD 2000
 90
        0
280
     0
281
     1
  0
CLASS
  1
HATCH
  2
AcDbHatch
  3
AutoCAD 2000
 90
        0
280
     0
281
     1
  0
CLASS
  1
XRECORD
  2
AcDbXrecord
  3
AutoCAD 2000
 90
        0
280
     0
281
     0
  0
CLASS
  1
LONG_TRANSACTION
  2
AcDbLongTransaction
  3
ObjectDBX Classes
 90
   -65536
280
     1
281
     0
  0
CLASS
  1
LWPOLYLINE
  2
AcDbPolyline
  3
AutoCAD 2000
 90
        0
280
     0
281
     1
  0
CLASS
  1
HATCH
  2
AcDbHatch
  3
AutoCAD 2000
 90
        0
280
     0
281
     1
  0
CLASS
  1
XRECORD
  2
AcDbXrecord
  3
AutoCAD 2000
 90
        0
280
     0
281
     0
  0
CLASS
  1
LONG_TRANSACTION
  2
AcDbLongTransaction
  3
ObjectDBX Classes
 90
   -65536
280
     1
281
     0
  0
CLASS
  1
LWPOLYLINE
  2
AcDbPolyline
  3
AutoCAD 2000
 90
        0
280
     0
281
     1
  0
CLASS
  1
HATCH
  2
AcDbHatch
  3
AutoCAD 2000
 90
        0
280
     0
281
     1
  0
CLASS
  1
XRECORD
  2
AcDbXrecord
  3
AutoCAD 2000
 90
        0
280
     0
281
     0
  0
CLASS
  1
LONG_TRANSACTION
  2
AcDbLongTransaction
  3
ObjectDBX Classes
 90
   -65536
280
     1
281
     0
  0
CLASS
  1
LWPOLYLINE
  2
AcDbPolyline
  3
AutoCAD 2000
 90
        0
280
     0
281
     1
  0
CLASS
  1
HATCH
  2
AcDbHatch
  3
AutoCAD 2000
 90
        0
280
     0
281
     1
  0
CLASS
  1
XRECORD
  2
AcDbXrecord
  3
AutoCAD 2000
 90
        0
280
     0
281
     0
  0
CLASS
  1
LONG_TRANSACTION
  2
AcDbLongTransaction
  3
ObjectDBX Classes
 90
   -65536
280
     1
281
     0
  0
CLASS
  1
LWPOLYLINE
  2
AcDbPolyline
  3
AutoCAD 2000
 90
        0
280
     0
281
     1
  0
CLASS
  1
HATCH
  2
AcDbHatch
  3
AutoCAD 2000
 90
        0
280
     0
281
     1
  0
CLASS
  1
XRECORD
  2
AcDbXrecord
  3
AutoCAD 2000
 90
        0
280
     0
281
     0
  0
CLASS
  1
LONG_TRANSACTION
  2
AcDbLongTransaction
  3
ObjectDBX Classes
 90
   -65536
280
     1
281
     0
  0
CLASS
  1
LWPOLYLINE
  2
AcDbPolyline
  3
AutoCAD 2000
 90
        0
280
     0
281
     1
  0
CLASS
  1
HATCH
  2
AcDbHatch
  3
AutoCAD 2000
 90
        0
280
     0
281
     1
  0
CLASS
  1
XRECORD
  2
AcDbXrecord
  3
AutoCAD 2000
 90
        0
280
     0
281
     0
  0
CLASS
  1
LONG_TRANSACTION
  2
AcDbLongTransaction
  3
ObjectDBX Classes
 90
   -65536
280
     1
281
     0
  0
CLASS
  1
LWPOLYLINE
  2
AcDbPolyline
  3
AutoCAD 2000
 90
        0
280
     0
281
     1
  0
CLASS
  1
HATCH
  2
AcDbHatch
  3
AutoCAD 2000
 90
        0
280
     0
281
     1
  0
CLASS
  1
XRECORD
  2
AcDbXrecord
  3
AutoCAD 2000
 90
        0
280
     0
281
     0
  0
CLASS
  1
LONG_TRANSACTION
  2
AcDbLongTransaction
  3
ObjectDBX Classes
 90
   -65536
280
     1
281
     0
  0
CLASS
  1
LWPOLYLINE
  2
AcDbPolyline
  3
AutoCAD 2000
 90
        0
280
     0
281
     1
  0
CLASS
  1
HATCH
  2
AcDbHatch
  3
AutoCAD 2000
 90
        0
280
     0
281
     1
  0
CLASS
  1
XRECORD
  2
AcDbXrecord
  3
AutoCAD 2000
 90
        0
280
     0
281
     0
  0
CLASS
  1
TABLESTYLE
  2
AcDbTableStyle
  3
ObjectDBX Classes
 90
     2047
280
     1
281
     0
  0
ENDSEC
  0
SECTION
  2
TABLES
  0
TABLE
  2
VPORT
  5
1D
330
0
100
AcDbSymbolTable
 70
     6
  0
VPORT
  5
31F
330
1D
100
AcDbSymbolTableRecord
100
AcDbViewportTableRecord
  2
*Active
 70
     0
 10
0.0
 20
0.0
 11
1.0
 21
1.0
 12
1.746218941426129
 22
6.866981062392036
 13
0.0
 23
0.0
 14
0.063
 24
0.063
 15
0.25
 25
0.25
 16
0.0
 26
0.0
 36
1.0
 17
0.0
 27
0.0
 37
0.0
 40
17.61968973941093
 41
1.814583333333333
 42
50.0
 43
0.0
 44
0.0
 50
0.0
 51
0.0
 71
     0
 72
   100
 73
     1
 74
     1
 75
     0
 76
     0
 77
     0
 78
     0
281
     0
 65
     1
110
0.0
120
0.0
130
0.0
111
1.0
121
0.0
131
0.0
112
0.0
122
1.0
132
0.0
 79
     0
146
0.0
  0
ENDTAB
  0
TABLE
  2
LTYPE
  5
18
330
0
100
AcDbSymbolTable
 70
     2
  0
LTYPE
  5
19
330
18
100
AcDbSymbolTableRecord
100
AcDbLinetypeTableRecord
  2
BYBLOCK
 70
     0
  3

 72
    65
 73
     0
 40
0.0
  0
LTYPE
  5
1A
330
18
100
AcDbSymbolTableRecord
100
AcDbLinetypeTableRecord
  2
BYLAYER
 70
     0
  3

 72
    65
 73
     0
 40
0.0
  0
LTYPE
  5
A
330
18
100
AcDbSymbolTableRecord
100
AcDbLinetypeTableRecord
  2
CONTINUOUS
 70
     0
  3
Solid line
 72
    65
 73
     0
 40
0.0
  0
LTYPE
  5
2FC
330
18
100
AcDbSymbolTableRecord
100
AcDbLinetypeTableRecord
  2
HIDDEN
 70
     0
  3
Hidden __ __ __ __ __ __ __ __ __ __ __ __ __ _
 72
    65
 73
     2
 40
0.375
 49
0.25
 74
     0
 49
-0.125
 74
     0
  0
ENDTAB
  0
TABLE
  2
LAYER
  5
14
330
0
100
AcDbSymbolTable
 70
     1
  0
LAYER
  5
6
330
14
100
AcDbSymbolTableRecord
100
AcDbLayerTableRecord
  2
0
 70
     0
 62
     7
  6
CONTINUOUS
370
    -3
390
7
  0
ENDTAB
  0
TABLE
  2
STYLE
  5
15
330
0
100
AcDbSymbolTable
 70
     2
  0
STYLE
  5
16
330
15
100
AcDbSymbolTableRecord
100
AcDbTextStyleTableRecord
  2
STANDARD
 70
     0
 40
0.0
 41
1.0
 50
0.0
 71
     0
 42
0.36
  3
TXT
  4

  0
STYLE
  5
2FB
330
15
100
AcDbSymbolTableRecord
100
AcDbTextStyleTableRecord
  2

 70
     1
 40
0.0
 41
1.0
 50
0.0
 71
     0
 42
0.36
  3
ltypeshp.shx
  4

  0
ENDTAB
  0
TABLE
  2
VIEW
  5
1B
330
0
100
AcDbSymbolTable
 70
     0
  0
ENDTAB
  0
TABLE
  2
UCS
  5
1C
330
0
100
AcDbSymbolTable
 70
     0
  0
ENDTAB
  0
TABLE
  2
APPID
  5
1F
330
0
100
AcDbSymbolTable
 70
     1
  0
APPID
  5
20
330
1F
100
AcDbSymbolTableRecord
100
AcDbRegAppTableRecord
  2
ACAD
 70
     0
  0
ENDTAB
  0
TABLE
  2
DIMSTYLE
  5
21
330
0
100
AcDbSymbolTable
 70
     1
100
AcDbDimStyleTable
  0
DIMSTYLE
105
28
330
21
100
AcDbSymbolTableRecord
100
AcDbDimStyleTableRecord
  2
STANDARD
 70
     0
  3

  4

340
16
  0
ENDTAB
  0
TABLE
  2
BLOCK_RECORD
  5
1
330
0
100
AcDbSymbolTable
 70
     1
  0
BLOCK_RECORD
  5
2
330
1
100
AcDbSymbolTableRecord
100
AcDbBlockTableRecord
  2
*MODEL_SPACE
340
C
  0
BLOCK_RECORD
  5
E
330
1
100
AcDbSymbolTableRecord
100
AcDbBlockTableRecord
  2
*PAPER_SPACE
340
13
  0
ENDTAB
  0
ENDSEC
  0
SECTION
  2
BLOCKS
  0
BLOCK
  5
5
330
2
100
AcDbEntity
  8
0
100
AcDbBlockBegin
  2
*MODEL_SPACE
 70
     0
 10
0.0
 20
0.0
 30
0.0
  3
*MODEL_SPACE
  1

  4

  0
ENDBLK
  5
B
330
2
100
AcDbEntity
  8
0
100
AcDbBlockEnd
  0
BLOCK
  5
11
330
E
100
AcDbEntity
 67
     1
  8
0
100
AcDbBlockBegin
  2
*PAPER_SPACE
 70
     0
 10
0.0
 20
0.0
 30
0.0
  3
*PAPER_SPACE
  1

  4

  0
ENDBLK
  5
12
330
E
100
AcDbEntity
 67
     1
  8
0
100
AcDbBlockEnd
  0
ENDSEC
  0
SECTION
  2
ENTITIES
  0
LINE
  5
130
330
2
100
AcDbEntity
  8
0
100
AcDbLine
 10
2.875000000000002
 20
7.159773959581717
 30
0.0
 11
0.8125000000000018
 21
7.159773959581717
 31
0.0
  0
ARC
  5
131
330
2
100
AcDbEntity
  8
0
100
AcDbCircle
 10
0.875
 20
1.962622089931841
 30
0.0
 40
0.1875000000000025
100
AcDbArc
 50
270.0
 51
90.0
  0
LINE
  5
132
330
2
100
AcDbEntity
  8
0
100
AcDbLine
 10
2.257094513699565
 20
1.52119969694682
 30
0.0
 11
0.8750000000000018
 21
0.1867636147541347
 31
0.0
  0
LINE
  5
133
330
2
100
AcDbEntity
  8
0
100
AcDbLine
 10
0.8125000000000036
 20
7.15977395958172
 30
0.0
 11
0.8125000000000018
 21
0.09375
 31
0.0
  0
LINE
  5
134
330
2
100
AcDbEntity
  8
0
100
AcDbLine
 10
-0.8125
 20
0.0937500000000036
 30
0.0
 11
-0.8125
 21
7.15977395958172
 31
0.0
  0
LINE
  5
135
330
2
100
AcDbEntity
  8
0
100
AcDbLine
 10
0.8750000000000018
 20
7.159773959581717
 30
0.0
 11
0.875
 21
0.09375
 31
0.0
  0
LINE
  5
136
330
2
100
AcDbEntity
  8
0
100
AcDbLine
 10
-0.875
 20
0.0937499999999964
 30
0.0
 11
-0.875
 21
7.159773959581724
 31
0.0
  0
ARC
  5
137
330
2
100
AcDbEntity
  8
0
100
AcDbCircle
 10
-2.71875
 20
6.47227395958172
 30
0.0
 40
0.15625
100
AcDbArc
 50
180.0
 51
269.9999999999999
  0
LINE
  5
138
330
2
100
AcDbEntity
  8
0
100
AcDbLine
 10
-2.257094513699569
 20
1.521199696946823
 30
0.0
 11
-0.875
 21
0.1867636147541347
 31
0.0
  0
CIRCLE
  5
139
330
2
100
AcDbEntity
  8
0
100
AcDbCircle
 10
-1.375
 20
1.09727395958172
 30
0.0
 40
0.085937500000002
  0
LINE
  5
13A
330
2
100
AcDbEntity
  8
0
100
AcDbLine
 10
0.75
 20
0.0
 30
0.0
 11
-0.75
 21
-0.0000000000000036
 31
0.0
  0
LINE
  5
13B
330
2
100
AcDbEntity
  8
0
100
AcDbLine
 10
0.7500000000000018
 20
0.0625
 30
0.0
 11
-0.75
 21
0.0625000000000036
 31
0.0
  0
ARC
  5
13C
330
2
100
AcDbEntity
  8
0
100
AcDbCircle
 10
-0.75
 20
0.1249999999999965
 30
0.0
 40
0.125
100
AcDbArc
 50
180.0
 51
269.9999999999999
  0
ARC
  5
13D
330
2
100
AcDbEntity
  8
0
100
AcDbCircle
 10
-0.75
 20
0.1250000000000036
 30
0.0
 40
0.0625
100
AcDbArc
 50
180.0
 51
269.9999999999998
  0
ARC
  5
13E
330
2
100
AcDbEntity
  8
0
100
AcDbCircle
 10
0.75
 20
0.125
 30
0.0
 40
0.125
100
AcDbArc
 50
270.0000000000001
 51
0.0
  0
ARC
  5
13F
330
2
100
AcDbEntity
  8
0
100
AcDbCircle
 10
0.7500000000000018
 20
0.125
 30
0.0
 40
0.0625
100
AcDbArc
 50
269.9999999999998
 51
0.0
  0
LINE
  5
144
330
2
100
AcDbEntity
  8
0
100
AcDbLine
 10
0.8750000000000178
 20
0.644123055471546
 30
0.0
 11
0.8750000000000178
 21
0.9207980554715505
 31
0.0
  0
CIRCLE
  5
147
330
2
100
AcDbEntity
  8
0
100
AcDbCircle
 10
-2.1875
 20
3.869761259382823
 30
0.0
 40
0.085937500000002
  0
LINE
  5
148
330
2
100
AcDbEntity
  8
0
100
AcDbLine
 10
-2.5625
 20
2.240601157564235
 30
0.0
 11
-2.5625
 21
4.28477395958172
 31
0.0
  0
CIRCLE
  5
149
330
2
100
AcDbEntity
  8
0
100
AcDbCircle
 10
-1.375
 20
2.61289895958172
 30
0.0
 40
0.085937500000002
  0
ARC
  5
14A
330
2
100
AcDbEntity
  8
0
100
AcDbCircle
 10
-1.5625
 20
2.240601157564235
 30
0.0
 40
1.0
100
AcDbArc
 50
180.0
 51
226.0050860052541
  0
CIRCLE
  5
14B
330
2
100
AcDbEntity
  8
0
100
AcDbCircle
 10
-2.1875
 20
2.364677699757667
 30
0.0
 40
0.085937500000002
  0
CIRCLE
  5
14C
330
2
100
AcDbEntity
  8
0
100
AcDbCircle
 10
-1.375
 20
3.61289895958172
 30
0.0
 40
0.085937500000002
  0
LINE
  5
14D
330
2
100
AcDbEntity
  8
0
100
AcDbLine
 10
0.8750000000000178
 20
2.392841382025047
 30
0.0
 11
0.8750000000000178
 21
2.669516382025051
 31
0.0
  0
ARC
  5
14E
330
2
100
AcDbEntity
  8
0
100
AcDbCircle
 10
-0.875
 20
1.962622089931841
 30
0.0
 40
0.1875000000000025
100
AcDbArc
 50
90.0
 51
270.0
  0
LINE
  5
155
330
2
100
AcDbEntity
  8
0
100
AcDbLine
 10
0.8750000000000178
 20
3.510097586910099
 30
0.0
 11
0.8750000000000178
 21
3.786772586910104
 31
0.0
  0
LINE
  5
156
330
2
100
AcDbEntity
  8
0
100
AcDbLine
 10
-2.875
 20
4.59727395958172
 30
0.0
 11
-2.875
 21
5.34727395958172
 31
0.0
  0
ARC
  5
157
330
2
100
AcDbEntity
  8
0
100
AcDbCircle
 10
-2.71875
 20
4.59727395958172
 30
0.0
 40
0.15625
100
AcDbArc
 50
180.0
 51
269.9999999999999
  0
ARC
  5
158
330
2
100
AcDbEntity
  8
0
100
AcDbCircle
 10
-2.71875
 20
4.28477395958172
 30
0.0
 40
0.15625
100
AcDbArc
 50
0.0
 51
90.0
  0
LINE
  5
159
330
2
100
AcDbEntity
  8
0
100
AcDbLine
 10
-2.71875
 20
4.44102395958172
 30
0.0
 11
-2.71875
 21
4.44102395958172
 31
0.0
  0
CIRCLE
  5
15A
330
2
100
AcDbEntity
  8
0
100
AcDbCircle
 10
-2.470606184502513
 20
5.02601125938282
 30
0.0
 40
0.085937500000002
  0
CIRCLE
  5
15B
330
2
100
AcDbEntity
  8
0
100
AcDbCircle
 10
-1.375
 20
4.61289895958172
 30
0.0
 40
0.085937500000002
  0
LINE
  5
15C
330
2
100
AcDbEntity
  8
0
100
AcDbLine
 10
-2.5625
 20
5.65977395958172
 30
0.0
 11
-2.5625
 21
6.15977395958172
 31
0.0
  0
ARC
  5
15D
330
2
100
AcDbEntity
  8
0
100
AcDbCircle
 10
-2.71875
 20
5.34727395958172
 30
0.0
 40
0.15625
100
AcDbArc
 50
90.0
 51
180.0
  0
ARC
  5
15E
330
2
100
AcDbEntity
  8
0
100
AcDbCircle
 10
-2.71875
 20
5.65977395958172
 30
0.0
 40
0.15625
100
AcDbArc
 50
270.0
 51
359.9999999999999
  0
LINE
  5
15F
330
2
100
AcDbEntity
  8
0
100
AcDbLine
 10
-2.71875
 20
5.50352395958172
 30
0.0
 11
-2.71875
 21
5.50352395958172
 31
0.0
  0
ARC
  5
160
330
2
100
AcDbEntity
  8
0
100
AcDbCircle
 10
-2.71875
 20
6.15977395958172
 30
0.0
 40
0.15625
100
AcDbArc
 50
0.0
 51
90.0
  0
CIRCLE
  5
161
330
2
100
AcDbEntity
  8
0
100
AcDbCircle
 10
-2.1875
 20
5.860948559183921
 30
0.0
 40
0.085937500000002
  0
CIRCLE
  5
162
330
2
100
AcDbEntity
  8
0
100
AcDbCircle
 10
-1.375
 20
5.61289895958172
 30
0.0
 40
0.085937500000002
  0
LINE
  5
165
330
2
100
AcDbEntity
  8
0
100
AcDbLine
 10
0.8750000000000178
 20
5.762673759382757
 30
0.0
 11
0.8750000000000178
 21
6.039348759382762
 31
0.0
  0
LINE
  5
168
330
2
100
AcDbEntity
  8
0
100
AcDbLine
 10
-2.874999999999998
 20
7.159773959581717
 30
0.0
 11
-0.8124999999999965
 21
7.15977395958172
 31
0.0
  0
LINE
  5
169
330
2
100
AcDbEntity
  8
0
100
AcDbLine
 10
-2.875
 20
6.47227395958172
 30
0.0
 11
-2.875000000000002
 21
7.159773959581724
 31
0.0
  0
CIRCLE
  5
16A
330
2
100
AcDbEntity
  8
0
100
AcDbCircle
 10
-2.5
 20
6.860948559183921
 30
0.0
 40
0.085937500000002
  0
CIRCLE
  5
16B
330
2
100
AcDbEntity
  8
0
100
AcDbCircle
 10
-1.375
 20
6.73789895958172
 30
0.0
 40
0.085937500000002
  0
ARC
  5
16C
330
2
100
AcDbEntity
  8
0
100
AcDbCircle
 10
2.718750000000002
 20
6.472273959581717
 30
0.0
 40
0.15625
100
AcDbArc
 50
270.0000000000001
 51
0.0
  0
CIRCLE
  5
16D
330
2
100
AcDbEntity
  8
0
100
AcDbCircle
 10
1.375000000000002
 20
1.11289895958172
 30
0.0
 40
0.085937500000002
  0
CIRCLE
  5
16E
330
2
100
AcDbEntity
  8
0
100
AcDbCircle
 10
2.187500000000002
 20
3.869761259382823
 30
0.0
 40
0.085937500000002
  0
LINE
  5
16F
330
2
100
AcDbEntity
  8
0
100
AcDbLine
 10
2.562500000000002
 20
2.240601157564228
 30
0.0
 11
2.562500000000002
 21
4.284773959581717
 31
0.0
  0
CIRCLE
  5
170
330
2
100
AcDbEntity
  8
0
100
AcDbCircle
 10
1.375000000000002
 20
2.61289895958172
 30
0.0
 40
0.085937500000002
  0
CIRCLE
  5
171
330
2
100
AcDbEntity
  8
0
100
AcDbCircle
 10
2.187500000000002
 20
2.369761259382823
 30
0.0
 40
0.085937500000002
  0
ARC
  5
172
330
2
100
AcDbEntity
  8
0
100
AcDbCircle
 10
1.562500000000002
 20
2.240601157564228
 30
0.0
 40
1.0
100
AcDbArc
 50
313.9949139947457
 51
0.0
  0
CIRCLE
  5
173
330
2
100
AcDbEntity
  8
0
100
AcDbCircle
 10
1.375000000000002
 20
3.61289895958172
 30
0.0
 40
0.085937500000002
  0
LINE
  5
174
330
2
100
AcDbEntity
  8
0
100
AcDbLine
 10
2.875000000000002
 20
4.597273959581717
 30
0.0
 11
2.875000000000002
 21
5.347273959581717
 31
0.0
  0
CIRCLE
  5
175
330
2
100
AcDbEntity
  8
0
100
AcDbCircle
 10
1.375000000000002
 20
4.612898959581717
 30
0.0
 40
0.085937500000002
  0
ARC
  5
176
330
2
100
AcDbEntity
  8
0
100
AcDbCircle
 10
2.718750000000002
 20
4.597273959581717
 30
0.0
 40
0.15625
100
AcDbArc
 50
270.0000000000001
 51
0.0
  0
ARC
  5
177
330
2
100
AcDbEntity
  8
0
100
AcDbCircle
 10
2.718750000000002
 20
4.284773959581717
 30
0.0
 40
0.15625
100
AcDbArc
 50
89.99999999999999
 51
180.0
  0
LINE
  5
178
330
2
100
AcDbEntity
  8
0
100
AcDbLine
 10
2.718750000000002
 20
4.441023959581717
 30
0.0
 11
2.718750000000002
 21
4.441023959581717
 31
0.0
  0
CIRCLE
  5
179
330
2
100
AcDbEntity
  8
0
100
AcDbCircle
 10
2.547436653578247
 20
5.02601125938282
 30
0.0
 40
0.085937500000002
  0
CIRCLE
  5
17A
330
2
100
AcDbEntity
  8
0
100
AcDbCircle
 10
2.187500000000002
 20
5.86976125938282
 30
0.0
 40
0.085937500000002
  0
CIRCLE
  5
17B
330
2
100
AcDbEntity
  8
0
100
AcDbCircle
 10
1.375000000000002
 20
5.612898959581717
 30
0.0
 40
0.085937500000002
  0
LINE
  5
17C
330
2
100
AcDbEntity
  8
0
100
AcDbLine
 10
2.562500000000002
 20
5.659773959581717
 30
0.0
 11
2.562500000000002
 21
6.159773959581717
 31
0.0
  0
ARC
  5
17D
330
2
100
AcDbEntity
  8
0
100
AcDbCircle
 10
2.718750000000002
 20
5.659773959581717
 30
0.0
 40
0.15625
100
AcDbArc
 50
180.0000000000001
 51
270.0
  0
LINE
  5
17E
330
2
100
AcDbEntity
  8
0
100
AcDbLine
 10
2.718750000000002
 20
5.503523959581717
 30
0.0
 11
2.718750000000002
 21
5.503523959581717
 31
0.0
  0
ARC
  5
17F
330
2
100
AcDbEntity
  8
0
100
AcDbCircle
 10
2.718750000000002
 20
5.347273959581717
 30
0.0
 40
0.15625
100
AcDbArc
 50
0.0
 51
89.99999999999999
  0
ARC
  5
180
330
2
100
AcDbEntity
  8
0
100
AcDbCircle
 10
2.718750000000002
 20
6.159773959581717
 30
0.0
 40
0.15625
100
AcDbArc
 50
89.99999999999999
 51
180.0
  0
LINE
  5
181
330
2
100
AcDbEntity
  8
0
100
AcDbLine
 10
2.718750000000002
 20
6.316023959581717
 30
0.0
 11
2.718750000000002
 21
6.316023959581717
 31
0.0
  0
CIRCLE
  5
182
330
2
100
AcDbEntity
  8
0
100
AcDbCircle
 10
1.375000000000002
 20
6.737898959581717
 30
0.0
 40
0.085937500000002
  0
LINE
  5
183
330
2
100
AcDbEntity
  8
0
100
AcDbLine
 10
2.875000000000002
 20
6.472273959581717
 30
0.0
 11
2.875000000000002
 21
7.159773959581717
 31
0.0
  0
CIRCLE
  5
184
330
2
100
AcDbEntity
  8
0
100
AcDbCircle
 10
2.500000000000002
 20
6.86976125938282
 30
0.0
 40
0.085937500000002
  0
ARC
  5
185
330
2
100
AcDbEntity
  8
0
100
AcDbCircle
 10
-0.87672694893892
 20
3.91789911323572
 30
0.0
 40
0.0320532506230862
100
AcDbArc
 50
236.4891770443209
 51
269.9999999999936
  0
ARC
  5
186
330
2
100
AcDbEntity
  8
0
100
AcDbCircle
 10
-0.8616519303751336
 20
3.940665636850351
 30
0.0
 40
0.0593583926698527
100
AcDbArc
 50
212.0281066666074
 51
236.4891770443289
  0
ARC
  5
187
330
2
100
AcDbEntity
  8
0
100
AcDbCircle
 10
-0.837648504851451
 20
3.955681019472152
 30
0.0
 40
0.0876713959042334
100
AcDbArc
 50
194.5265478168139
 51
212.0281066666247
  0
ARC
  5
188
330
2
100
AcDbEntity
  8
0
100
AcDbCircle
 10
-0.7996250096753155
 20
3.965533362612611
 30
0.0
 40
0.1269505869698208
100
AcDbArc
 50
179.9999999999872
 51
194.5265478167842
  0
ARC
  5
189
330
2
100
AcDbEntity
  8
0
100
AcDbCircle
 10
-0.7996250096753439
 20
3.965533362612661
 30
0.0
 40
0.1269505869697927
100
AcDbArc
 50
165.4734521832125
 51
180.0000000000096
  0
ARC
  5
18A
330
2
100
AcDbEntity
  8
0
100
AcDbCircle
 10
-0.8376485048514564
 20
3.975385705753123
 30
0.0
 40
0.087671395904227
100
AcDbArc
 50
147.9718933333755
 51
165.4734521831875
  0
ARC
  5
18B
330
2
100
AcDbEntity
  8
0
100
AcDbCircle
 10
-0.8616519303751336
 20
3.99040108837492
 30
0.0
 40
0.0593583926698527
100
AcDbArc
 50
123.5108229556711
 51
147.9718933333926
  0
ARC
  5
18C
330
2
100
AcDbEntity
  8
0
100
AcDbCircle
 10
-0.87672694893892
 20
4.013167611989548
 30
0.0
 40
0.0320532506230895
100
AcDbArc
 50
90.00000000000637
 51
123.5108229556756
  0
ARC
  5
18D
330
2
100
AcDbEntity
  8
0
100
AcDbCircle
 10
-0.87672694893892
 20
3.90332963567937
 30
0.0
 40
0.0468087730667364
100
AcDbArc
 50
237.392078984802
 51
269.9999999999956
  0
ARC
  5
18E
330
2
100
AcDbEntity
  8
0
100
AcDbCircle
 10
-0.857684444647143
 20
3.933096502423453
 30
0.0
 40
0.0821454866301438
100
AcDbArc
 50
212.9226719024506
 51
237.3920789848061
  0
ARC
  5
18F
330
2
100
AcDbEntity
  8
0
100
AcDbCircle
 10
-0.827426533334096
 20
3.952688211419723
 30
0.0
 40
0.1181923486076126
100
AcDbArc
 50
195.0133710020016
 51
212.9226719024541
  0
ARC
  5
190
330
2
100
AcDbEntity
  8
0
100
AcDbCircle
 10
-0.7795324870007594
 20
3.965533362612632
 30
0.0
 40
0.1677790160026746
100
AcDbArc
 50
179.9999999999976
 51
195.0133710019948
  0
ARC
  5
191
330
2
100
AcDbEntity
  8
0
100
AcDbCircle
 10
-0.7795324870007896
 20
3.965533362612646
 30
0.0
 40
0.167779016002644
100
AcDbArc
 50
164.9866289980049
 51
180.0000000000024
  0
ARC
  5
192
330
2
100
AcDbEntity
  8
0
100
AcDbCircle
 10
-0.8274265333340996
 20
3.978378513805552
 30
0.0
 40
0.1181923486076083
100
AcDbArc
 50
147.0773280975464
 51
164.9866289979997
  0
ARC
  5
193
330
2
100
AcDbEntity
  8
0
100
AcDbCircle
 10
-0.8576844446471412
 20
3.997970222801818
 30
0.0
 40
0.0821454866301446
100
AcDbArc
 50
122.607921015195
 51
147.0773280975501
  0
ARC
  5
194
330
2
100
AcDbEntity
  8
0
100
AcDbCircle
 10
-0.87672694893892
 20
4.027737089545902
 30
0.0
 40
0.0468087730667357
100
AcDbArc
 50
90.00000000000435
 51
122.607921015198
  0
ARC
  5
195
330
2
100
AcDbEntity
  8
0
100
AcDbCircle
 10
-0.8743571293527559
 20
2.789279790502164
 30
0.0
 40
0.0320532506230862
100
AcDbArc
 50
236.4891770443209
 51
269.9999999999936
  0
ARC
  5
196
330
2
100
AcDbEntity
  8
0
100
AcDbCircle
 10
-0.8592821107889694
 20
2.812046314116795
 30
0.0
 40
0.0593583926698527
100
AcDbArc
 50
212.0281066666074
 51
236.4891770443289
  0
ARC
  5
197
330
2
100
AcDbEntity
  8
0
100
AcDbCircle
 10
-0.8352786852652869
 20
2.827061696738596
 30
0.0
 40
0.0876713959042334
100
AcDbArc
 50
194.5265478168139
 51
212.0281066666247
  0
ARC
  5
198
330
2
100
AcDbEntity
  8
0
100
AcDbCircle
 10
-0.7972551900891514
 20
2.836914039879055
 30
0.0
 40
0.1269505869698208
100
AcDbArc
 50
179.9999999999872
 51
194.5265478167842
  0
ARC
  5
199
330
2
100
AcDbEntity
  8
0
100
AcDbCircle
 10
-0.7972551900891798
 20
2.836914039879105
 30
0.0
 40
0.1269505869697927
100
AcDbArc
 50
165.4734521832125
 51
180.0000000000096
  0
ARC
  5
19A
330
2
100
AcDbEntity
  8
0
100
AcDbCircle
 10
-0.8352786852652923
 20
2.846766383019567
 30
0.0
 40
0.087671395904227
100
AcDbArc
 50
147.9718933333755
 51
165.4734521831875
  0
ARC
  5
19B
330
2
100
AcDbEntity
  8
0
100
AcDbCircle
 10
-0.8592821107889694
 20
2.861781765641364
 30
0.0
 40
0.0593583926698527
100
AcDbArc
 50
123.5108229556711
 51
147.9718933333926
  0
ARC
  5
19C
330
2
100
AcDbEntity
  8
0
100
AcDbCircle
 10
-0.8743571293527559
 20
2.884548289255992
 30
0.0
 40
0.0320532506230895
100
AcDbArc
 50
90.00000000000637
 51
123.5108229556756
  0
ARC
  5
19D
330
2
100
AcDbEntity
  8
0
100
AcDbCircle
 10
-0.8743571293527559
 20
2.774710312945814
 30
0.0
 40
0.0468087730667364
100
AcDbArc
 50
237.392078984802
 51
269.9999999999956
  0
ARC
  5
19E
330
2
100
AcDbEntity
  8
0
100
AcDbCircle
 10
-0.8553146250609789
 20
2.804477179689897
 30
0.0
 40
0.0821454866301438
100
AcDbArc
 50
212.9226719024506
 51
237.3920789848061
  0
ARC
  5
19F
330
2
100
AcDbEntity
  8
0
100
AcDbCircle
 10
-0.8250567137479319
 20
2.824068888686167
 30
0.0
 40
0.1181923486076126
100
AcDbArc
 50
195.0133710020016
 51
212.9226719024541
  0
ARC
  5
1A0
330
2
100
AcDbEntity
  8
0
100
AcDbCircle
 10
-0.7771626674145953
 20
2.836914039879076
 30
0.0
 40
0.1677790160026746
100
AcDbArc
 50
179.9999999999976
 51
195.0133710019948
  0
ARC
  5
1A1
330
2
100
AcDbEntity
  8
0
100
AcDbCircle
 10
-0.7771626674146255
 20
2.83691403987909
 30
0.0
 40
0.167779016002644
100
AcDbArc
 50
164.9866289980049
 51
180.0000000000024
  0
ARC
  5
1A2
330
2
100
AcDbEntity
  8
0
100
AcDbCircle
 10
-0.8250567137479354
 20
2.849759191071996
 30
0.0
 40
0.1181923486076083
100
AcDbArc
 50
147.0773280975464
 51
164.9866289979997
  0
ARC
  5
1A3
330
2
100
AcDbEntity
  8
0
100
AcDbCircle
 10
-0.8553146250609771
 20
2.869350900068262
 30
0.0
 40
0.0821454866301446
100
AcDbArc
 50
122.607921015195
 51
147.0773280975501
  0
ARC
  5
1A4
330
2
100
AcDbEntity
  8
0
100
AcDbCircle
 10
-0.8743571293527559
 20
2.899117766812346
 30
0.0
 40
0.0468087730667357
100
AcDbArc
 50
90.00000000000435
 51
122.607921015198
  0
ARC
  5
1A5
330
2
100
AcDbEntity
  8
0
100
AcDbCircle
 10
0.8750000000000142
 20
2.468975155091783
 30
0.0
 40
0.0468087730667364
100
AcDbArc
 50
270.0000000000044
 51
302.607921015198
  0
ARC
  5
1A6
330
2
100
AcDbEntity
  8
0
100
AcDbCircle
 10
0.8559574957082372
 20
2.498742021835867
 30
0.0
 40
0.0821454866301438
100
AcDbArc
 50
302.6079210151939
 51
327.0773280975494
  0
ARC
  5
1A7
330
2
100
AcDbEntity
  8
0
100
AcDbCircle
 10
0.8256995843951902
 20
2.518333730832136
 30
0.0
 40
0.1181923486076126
100
AcDbArc
 50
327.0773280975459
 51
344.9866289979984
  0
ARC
  5
1A8
330
2
100
AcDbEntity
  8
0
100
AcDbCircle
 10
0.7778055380618536
 20
2.531178882025046
 30
0.0
 40
0.1677790160026746
100
AcDbArc
 50
344.9866289980052
 51
0.0000000000024265
  0
ARC
  5
1A9
330
2
100
AcDbEntity
  8
0
100
AcDbCircle
 10
0.7778055380618838
 20
2.53117888202506
 30
0.0
 40
0.167779016002644
100
AcDbArc
 50
359.9999999999976
 51
15.0133710019951
  0
ARC
  5
1AA
330
2
100
AcDbEntity
  8
0
100
AcDbCircle
 10
0.8256995843951938
 20
2.544024033217966
 30
0.0
 40
0.1181923486076083
100
AcDbArc
 50
15.01337100200033
 51
32.9226719024536
  0
ARC
  5
1AB
330
2
100
AcDbEntity
  8
0
100
AcDbCircle
 10
0.8559574957082354
 20
2.563615742214232
 30
0.0
 40
0.0821454866301446
100
AcDbArc
 50
32.92267190244989
 51
57.39207898480503
  0
ARC
  5
1AC
330
2
100
AcDbEntity
  8
0
100
AcDbCircle
 10
0.8750000000000142
 20
2.593382608958315
 30
0.0
 40
0.0468087730667357
100
AcDbArc
 50
57.39207898480197
 51
89.99999999999565
  0
ARC
  5
1AD
330
2
100
AcDbEntity
  8
0
100
AcDbCircle
 10
0.8750000000000142
 20
2.483544632648133
 30
0.0
 40
0.0320532506230862
100
AcDbArc
 50
270.0000000000064
 51
303.5108229556791
  0
ARC
  5
1AE
330
2
100
AcDbEntity
  8
0
100
AcDbCircle
 10
0.8599249814362278
 20
2.506311156262765
 30
0.0
 40
0.0593583926698527
100
AcDbArc
 50
303.5108229556711
 51
327.9718933333926
  0
ARC
  5
1AF
330
2
100
AcDbEntity
  8
0
100
AcDbCircle
 10
0.8359215559125452
 20
2.521326538884566
 30
0.0
 40
0.0876713959042334
100
AcDbArc
 50
327.9718933333754
 51
345.4734521831862
  0
ARC
  5
1B0
330
2
100
AcDbEntity
  8
0
100
AcDbCircle
 10
0.7978980607364097
 20
2.531178882025024
 30
0.0
 40
0.1269505869698208
100
AcDbArc
 50
345.4734521832157
 51
0.0000000000128274
  0
ARC
  5
1B1
330
2
100
AcDbEntity
  8
0
100
AcDbCircle
 10
0.7978980607364381
 20
2.531178882025074
 30
0.0
 40
0.1269505869697927
100
AcDbArc
 50
359.9999999999904
 51
14.52654781678748
  0
ARC
  5
1B2
330
2
100
AcDbEntity
  8
0
100
AcDbCircle
 10
0.8359215559125506
 20
2.541031225165536
 30
0.0
 40
0.087671395904227
100
AcDbArc
 50
14.52654781681249
 51
32.0281066666245
  0
ARC
  5
1B3
330
2
100
AcDbEntity
  8
0
100
AcDbCircle
 10
0.8599249814362278
 20
2.556046607787334
 30
0.0
 40
0.0593583926698527
100
AcDbArc
 50
32.02810666660741
 51
56.48917704432887
  0
ARC
  5
1B4
330
2
100
AcDbEntity
  8
0
100
AcDbCircle
 10
0.8750000000000142
 20
2.578813131401962
 30
0.0
 40
0.0320532506230895
100
AcDbArc
 50
56.48917704432444
 51
89.99999999999365
  0
ARC
  5
1B5
330
2
100
AcDbEntity
  8
0
100
AcDbCircle
 10
0.8750000000000142
 20
3.586231359976836
 30
0.0
 40
0.0468087730667364
100
AcDbArc
 50
270.0000000000044
 51
302.607921015198
  0
ARC
  5
1B6
330
2
100
AcDbEntity
  8
0
100
AcDbCircle
 10
0.8559574957082372
 20
3.615998226720919
 30
0.0
 40
0.0821454866301438
100
AcDbArc
 50
302.6079210151939
 51
327.0773280975494
  0
ARC
  5
1B7
330
2
100
AcDbEntity
  8
0
100
AcDbCircle
 10
0.8256995843951902
 20
3.635589935717189
 30
0.0
 40
0.1181923486076126
100
AcDbArc
 50
327.0773280975459
 51
344.9866289979984
  0
ARC
  5
1B8
330
2
100
AcDbEntity
  8
0
100
AcDbCircle
 10
0.7778055380618536
 20
3.648435086910098
 30
0.0
 40
0.1677790160026746
100
AcDbArc
 50
344.9866289980052
 51
0.0000000000024265
  0
ARC
  5
1B9
330
2
100
AcDbEntity
  8
0
100
AcDbCircle
 10
0.7778055380618838
 20
3.648435086910112
 30
0.0
 40
0.167779016002644
100
AcDbArc
 50
359.9999999999976
 51
15.0133710019951
  0
ARC
  5
1BA
330
2
100
AcDbEntity
  8
0
100
AcDbCircle
 10
0.8256995843951938
 20
3.661280238103018
 30
0.0
 40
0.1181923486076083
100
AcDbArc
 50
15.01337100200033
 51
32.9226719024536
  0
ARC
  5
1BB
330
2
100
AcDbEntity
  8
0
100
AcDbCircle
 10
0.8559574957082354
 20
3.680871947099284
 30
0.0
 40
0.0821454866301446
100
AcDbArc
 50
32.92267190244989
 51
57.39207898480503
  0
ARC
  5
1BC
330
2
100
AcDbEntity
  8
0
100
AcDbCircle
 10
0.8750000000000142
 20
3.710638813843367
 30
0.0
 40
0.0468087730667357
100
AcDbArc
 50
57.39207898480197
 51
89.99999999999565
  0
ARC
  5
1BD
330
2
100
AcDbEntity
  8
0
100
AcDbCircle
 10
0.8750000000000142
 20
3.600800837533186
 30
0.0
 40
0.0320532506230862
100
AcDbArc
 50
270.0000000000064
 51
303.5108229556791
  0
ARC
  5
1BE
330
2
100
AcDbEntity
  8
0
100
AcDbCircle
 10
0.8599249814362278
 20
3.623567361147817
 30
0.0
 40
0.0593583926698527
100
AcDbArc
 50
303.5108229556711
 51
327.9718933333926
  0
ARC
  5
1BF
330
2
100
AcDbEntity
  8
0
100
AcDbCircle
 10
0.8359215559125452
 20
3.638582743769618
 30
0.0
 40
0.0876713959042334
100
AcDbArc
 50
327.9718933333754
 51
345.4734521831862
  0
ARC
  5
1C0
330
2
100
AcDbEntity
  8
0
100
AcDbCircle
 10
0.7978980607364097
 20
3.648435086910077
 30
0.0
 40
0.1269505869698208
100
AcDbArc
 50
345.4734521832157
 51
0.0000000000128274
  0
ARC
  5
1C1
330
2
100
AcDbEntity
  8
0
100
AcDbCircle
 10
0.7978980607364381
 20
3.648435086910126
 30
0.0
 40
0.1269505869697927
100
AcDbArc
 50
359.9999999999904
 51
14.52654781678748
  0
ARC
  5
1C2
330
2
100
AcDbEntity
  8
0
100
AcDbCircle
 10
0.8359215559125506
 20
3.658287430050589
 30
0.0
 40
0.087671395904227
100
AcDbArc
 50
14.52654781681249
 51
32.0281066666245
  0
ARC
  5
1C3
330
2
100
AcDbEntity
  8
0
100
AcDbCircle
 10
0.8599249814362278
 20
3.673302812672386
 30
0.0
 40
0.0593583926698527
100
AcDbArc
 50
32.02810666660741
 51
56.48917704432887
  0
ARC
  5
1C4
330
2
100
AcDbEntity
  8
0
100
AcDbCircle
 10
0.8750000000000142
 20
3.696069336287014
 30
0.0
 40
0.0320532506230895
100
AcDbArc
 50
56.48917704432444
 51
89.99999999999365
  0
ARC
  5
1C5
330
2
100
AcDbEntity
  8
0
100
AcDbCircle
 10
-0.8734812733510573
 20
6.101236013211562
 30
0.0
 40
0.0320532506230862
100
AcDbArc
 50
236.4891770443209
 51
269.9999999999936
  0
ARC
  5
1C6
330
2
100
AcDbEntity
  8
0
100
AcDbCircle
 10
-0.8584062547872708
 20
6.124002536826193
 30
0.0
 40
0.0593583926698527
100
AcDbArc
 50
212.0281066666074
 51
236.4891770443289
  0
ARC
  5
1C7
330
2
100
AcDbEntity
  8
0
100
AcDbCircle
 10
-0.8344028292635883
 20
6.139017919447994
 30
0.0
 40
0.0876713959042334
100
AcDbArc
 50
194.5265478168139
 51
212.0281066666247
  0
ARC
  5
1C8
330
2
100
AcDbEntity
  8
0
100
AcDbCircle
 10
-0.7963793340874528
 20
6.148870262588453
 30
0.0
 40
0.1269505869698208
100
AcDbArc
 50
179.9999999999872
 51
194.5265478167842
  0
ARC
  5
1C9
330
2
100
AcDbEntity
  8
0
100
AcDbCircle
 10
-0.7963793340874812
 20
6.148870262588503
 30
0.0
 40
0.1269505869697927
100
AcDbArc
 50
165.4734521832125
 51
180.0000000000096
  0
ARC
  5
1CA
330
2
100
AcDbEntity
  8
0
100
AcDbCircle
 10
-0.8344028292635937
 20
6.158722605728965
 30
0.0
 40
0.087671395904227
100
AcDbArc
 50
147.9718933333755
 51
165.4734521831875
  0
ARC
  5
1CB
330
2
100
AcDbEntity
  8
0
100
AcDbCircle
 10
-0.8584062547872708
 20
6.173737988350762
 30
0.0
 40
0.0593583926698527
100
AcDbArc
 50
123.5108229556711
 51
147.9718933333926
  0
ARC
  5
1CC
330
2
100
AcDbEntity
  8
0
100
AcDbCircle
 10
-0.8734812733510573
 20
6.19650451196539
 30
0.0
 40
0.0320532506230895
100
AcDbArc
 50
90.00000000000637
 51
123.5108229556756
  0
ARC
  5
1CD
330
2
100
AcDbEntity
  8
0
100
AcDbCircle
 10
-0.8734812733510573
 20
6.086666535655212
 30
0.0
 40
0.0468087730667364
100
AcDbArc
 50
237.392078984802
 51
269.9999999999956
  0
ARC
  5
1CE
330
2
100
AcDbEntity
  8
0
100
AcDbCircle
 10
-0.8544387690592803
 20
6.116433402399295
 30
0.0
 40
0.0821454866301438
100
AcDbArc
 50
212.9226719024506
 51
237.3920789848061
  0
ARC
  5
1CF
330
2
100
AcDbEntity
  8
0
100
AcDbCircle
 10
-0.8241808577462333
 20
6.136025111395565
 30
0.0
 40
0.1181923486076126
100
AcDbArc
 50
195.0133710020016
 51
212.9226719024541
  0
ARC
  5
1D0
330
2
100
AcDbEntity
  8
0
100
AcDbCircle
 10
-0.7762868114128967
 20
6.148870262588474
 30
0.0
 40
0.1677790160026746
100
AcDbArc
 50
179.9999999999976
 51
195.0133710019948
  0
ARC
  5
1D1
330
2
100
AcDbEntity
  8
0
100
AcDbCircle
 10
-0.7762868114129269
 20
6.148870262588488
 30
0.0
 40
0.167779016002644
100
AcDbArc
 50
164.9866289980049
 51
180.0000000000024
  0
ARC
  5
1D2
330
2
100
AcDbEntity
  8
0
100
AcDbCircle
 10
-0.8241808577462368
 20
6.161715413781394
 30
0.0
 40
0.1181923486076083
100
AcDbArc
 50
147.0773280975464
 51
164.9866289979997
  0
ARC
  5
1D3
330
2
100
AcDbEntity
  8
0
100
AcDbCircle
 10
-0.8544387690592785
 20
6.18130712277766
 30
0.0
 40
0.0821454866301446
100
AcDbArc
 50
122.607921015195
 51
147.0773280975501
  0
ARC
  5
1D4
330
2
100
AcDbEntity
  8
0
100
AcDbCircle
 10
-0.8734812733510573
 20
6.211073989521744
 30
0.0
 40
0.0468087730667357
100
AcDbArc
 50
90.00000000000435
 51
122.607921015198
  0
ARC
  5
1D5
330
2
100
AcDbEntity
  8
0
100
AcDbCircle
 10
0.8750000000000142
 20
5.838807532449494
 30
0.0
 40
0.0468087730667364
100
AcDbArc
 50
270.0000000000044
 51
302.607921015198
  0
ARC
  5
1D6
330
2
100
AcDbEntity
  8
0
100
AcDbCircle
 10
0.8559574957082372
 20
5.868574399193577
 30
0.0
 40
0.0821454866301438
100
AcDbArc
 50
302.6079210151939
 51
327.0773280975494
  0
ARC
  5
1D7
330
2
100
AcDbEntity
  8
0
100
AcDbCircle
 10
0.8256995843951902
 20
5.888166108189846
 30
0.0
 40
0.1181923486076126
100
AcDbArc
 50
327.0773280975459
 51
344.9866289979984
  0
ARC
  5
1D8
330
2
100
AcDbEntity
  8
0
100
AcDbCircle
 10
0.7778055380618536
 20
5.901011259382756
 30
0.0
 40
0.1677790160026746
100
AcDbArc
 50
344.9866289980052
 51
0.0000000000024265
  0
ARC
  5
1D9
330
2
100
AcDbEntity
  8
0
100
AcDbCircle
 10
0.7778055380618838
 20
5.90101125938277
 30
0.0
 40
0.167779016002644
100
AcDbArc
 50
359.9999999999976
 51
15.0133710019951
  0
ARC
  5
1DA
330
2
100
AcDbEntity
  8
0
100
AcDbCircle
 10
0.8256995843951938
 20
5.913856410575676
 30
0.0
 40
0.1181923486076083
100
AcDbArc
 50
15.01337100200033
 51
32.9226719024536
  0
ARC
  5
1DB
330
2
100
AcDbEntity
  8
0
100
AcDbCircle
 10
0.8559574957082354
 20
5.933448119571942
 30
0.0
 40
0.0821454866301446
100
AcDbArc
 50
32.92267190244989
 51
57.39207898480503
  0
ARC
  5
1DC
330
2
100
AcDbEntity
  8
0
100
AcDbCircle
 10
0.8750000000000142
 20
5.963214986316025
 30
0.0
 40
0.0468087730667357
100
AcDbArc
 50
57.39207898480197
 51
89.99999999999565
  0
ARC
  5
1DD
330
2
100
AcDbEntity
  8
0
100
AcDbCircle
 10
0.8750000000000142
 20
5.853377010005843
 30
0.0
 40
0.0320532506230862
100
AcDbArc
 50
270.0000000000064
 51
303.5108229556791
  0
ARC
  5
1DE
330
2
100
AcDbEntity
  8
0
100
AcDbCircle
 10
0.8599249814362278
 20
5.876143533620475
 30
0.0
 40
0.0593583926698527
100
AcDbArc
 50
303.5108229556711
 51
327.9718933333926
  0
ARC
  5
1DF
330
2
100
AcDbEntity
  8
0
100
AcDbCircle
 10
0.8359215559125452
 20
5.891158916242276
 30
0.0
 40
0.0876713959042334
100
AcDbArc
 50
327.9718933333754
 51
345.4734521831862
  0
ARC
  5
1E0
330
2
100
AcDbEntity
  8
0
100
AcDbCircle
 10
0.7978980607364097
 20
5.901011259382734
 30
0.0
 40
0.1269505869698208
100
AcDbArc
 50
345.4734521832157
 51
0.0000000000128274
  0
ARC
  5
1E1
330
2
100
AcDbEntity
  8
0
100
AcDbCircle
 10
0.7978980607364381
 20
5.901011259382784
 30
0.0
 40
0.1269505869697927
100
AcDbArc
 50
359.9999999999904
 51
14.52654781678748
  0
ARC
  5
1E2
330
2
100
AcDbEntity
  8
0
100
AcDbCircle
 10
0.8359215559125506
 20
5.910863602523246
 30
0.0
 40
0.087671395904227
100
AcDbArc
 50
14.52654781681249
 51
32.0281066666245
  0
ARC
  5
1E3
330
2
100
AcDbEntity
  8
0
100
AcDbCircle
 10
0.8599249814362278
 20
5.925878985145044
 30
0.0
 40
0.0593583926698527
100
AcDbArc
 50
32.02810666660741
 51
56.48917704432887
  0
ARC
  5
1E4
330
2
100
AcDbEntity
  8
0
100
AcDbCircle
 10
0.8750000000000142
 20
5.948645508759672
 30
0.0
 40
0.0320532506230895
100
AcDbArc
 50
56.48917704432444
 51
89.99999999999365
  0
ARC
  5
1FD
330
2
100
AcDbEntity
  8
0
100
AcDbCircle
 10
-0.8746570893347432
 20
0.9148189917537621
 30
0.0
 40
0.0320532506230862
100
AcDbArc
 50
236.4891770443209
 51
269.9999999999936
  0
ARC
  5
1FE
330
2
100
AcDbEntity
  8
0
100
AcDbCircle
 10
-0.8595820707709567
 20
0.9375855153683936
 30
0.0
 40
0.0593583926698527
100
AcDbArc
 50
212.0281066666074
 51
236.4891770443289
  0
ARC
  5
1FF
330
2
100
AcDbEntity
  8
0
100
AcDbCircle
 10
-0.8355786452472742
 20
0.9526008979901945
 30
0.0
 40
0.0876713959042334
100
AcDbArc
 50
194.5265478168139
 51
212.0281066666247
  0
ARC
  5
200
330
2
100
AcDbEntity
  8
0
100
AcDbCircle
 10
-0.7975551500711386
 20
0.9624532411306532
 30
0.0
 40
0.1269505869698208
100
AcDbArc
 50
179.9999999999872
 51
194.5265478167842
  0
ARC
  5
201
330
2
100
AcDbEntity
  8
0
100
AcDbCircle
 10
-0.7975551500711671
 20
0.962453241130703
 30
0.0
 40
0.1269505869697927
100
AcDbArc
 50
165.4734521832125
 51
180.0000000000096
  0
ARC
  5
202
330
2
100
AcDbEntity
  8
0
100
AcDbCircle
 10
-0.8355786452472795
 20
0.9723055842711652
 30
0.0
 40
0.087671395904227
100
AcDbArc
 50
147.9718933333755
 51
165.4734521831875
  0
ARC
  5
203
330
2
100
AcDbEntity
  8
0
100
AcDbCircle
 10
-0.8595820707709567
 20
0.9873209668929626
 30
0.0
 40
0.0593583926698527
100
AcDbArc
 50
123.5108229556711
 51
147.9718933333926
  0
ARC
  5
204
330
2
100
AcDbEntity
  8
0
100
AcDbCircle
 10
-0.8746570893347432
 20
1.010087490507591
 30
0.0
 40
0.0320532506230895
100
AcDbArc
 50
90.00000000000637
 51
123.5108229556756
  0
ARC
  5
205
330
2
100
AcDbEntity
  8
0
100
AcDbCircle
 10
-0.8746570893347432
 20
0.9002495141974123
 30
0.0
 40
0.0468087730667364
100
AcDbArc
 50
237.392078984802
 51
269.9999999999956
  0
ARC
  5
206
330
2
100
AcDbEntity
  8
0
100
AcDbCircle
 10
-0.8556145850429662
 20
0.9300163809414954
 30
0.0
 40
0.0821454866301438
100
AcDbArc
 50
212.9226719024506
 51
237.3920789848061
  0
ARC
  5
207
330
2
100
AcDbEntity
  8
0
100
AcDbCircle
 10
-0.8253566737299192
 20
0.9496080899377652
 30
0.0
 40
0.1181923486076126
100
AcDbArc
 50
195.0133710020016
 51
212.9226719024541
  0
ARC
  5
208
330
2
100
AcDbEntity
  8
0
100
AcDbCircle
 10
-0.7774626273965826
 20
0.9624532411306745
 30
0.0
 40
0.1677790160026746
100
AcDbArc
 50
179.9999999999976
 51
195.0133710019948
  0
ARC
  5
209
330
2
100
AcDbEntity
  8
0
100
AcDbCircle
 10
-0.7774626273966128
 20
0.9624532411306888
 30
0.0
 40
0.167779016002644
100
AcDbArc
 50
164.9866289980049
 51
180.0000000000024
  0
ARC
  5
20A
330
2
100
AcDbEntity
  8
0
100
AcDbCircle
 10
-0.8253566737299227
 20
0.9752983923235945
 30
0.0
 40
0.1181923486076083
100
AcDbArc
 50
147.0773280975464
 51
164.9866289979997
  0
ARC
  5
20B
330
2
100
AcDbEntity
  8
0
100
AcDbCircle
 10
-0.8556145850429644
 20
0.9948901013198608
 30
0.0
 40
0.0821454866301446
100
AcDbArc
 50
122.607921015195
 51
147.0773280975501
  0
ARC
  5
20C
330
2
100
AcDbEntity
  8
0
100
AcDbCircle
 10
-0.8746570893347432
 20
1.024656968063944
 30
0.0
 40
0.0468087730667357
100
AcDbArc
 50
90.00000000000435
 51
122.607921015198
  0
ARC
  5
20D
330
2
100
AcDbEntity
  8
0
100
AcDbCircle
 10
0.8750000000000142
 20
0.7202568285382824
 30
0.0
 40
0.0468087730667364
100
AcDbArc
 50
270.0000000000044
 51
302.607921015198
  0
ARC
  5
20E
330
2
100
AcDbEntity
  8
0
100
AcDbCircle
 10
0.8559574957082372
 20
0.7500236952823656
 30
0.0
 40
0.0821454866301438
100
AcDbArc
 50
302.6079210151939
 51
327.0773280975494
  0
ARC
  5
20F
330
2
100
AcDbEntity
  8
0
100
AcDbCircle
 10
0.8256995843951902
 20
0.7696154042786354
 30
0.0
 40
0.1181923486076126
100
AcDbArc
 50
327.0773280975459
 51
344.9866289979984
  0
ARC
  5
210
330
2
100
AcDbEntity
  8
0
100
AcDbCircle
 10
0.7778055380618536
 20
0.7824605554715447
 30
0.0
 40
0.1677790160026746
100
AcDbArc
 50
344.9866289980052
 51
0.0000000000024265
  0
ARC
  5
211
330
2
100
AcDbEntity
  8
0
100
AcDbCircle
 10
0.7778055380618838
 20
0.7824605554715589
 30
0.0
 40
0.167779016002644
100
AcDbArc
 50
359.9999999999976
 51
15.0133710019951
  0
ARC
  5
212
330
2
100
AcDbEntity
  8
0
100
AcDbCircle
 10
0.8256995843951938
 20
0.7953057066644647
 30
0.0
 40
0.1181923486076083
100
AcDbArc
 50
15.01337100200033
 51
32.9226719024536
  0
ARC
  5
213
330
2
100
AcDbEntity
  8
0
100
AcDbCircle
 10
0.8559574957082354
 20
0.8148974156607309
 30
0.0
 40
0.0821454866301446
100
AcDbArc
 50
32.92267190244989
 51
57.39207898480503
  0
ARC
  5
214
330
2
100
AcDbEntity
  8
0
100
AcDbCircle
 10
0.8750000000000142
 20
0.8446642824048141
 30
0.0
 40
0.0468087730667357
100
AcDbArc
 50
57.39207898480197
 51
89.99999999999565
  0
ARC
  5
215
330
2
100
AcDbEntity
  8
0
100
AcDbCircle
 10
0.8750000000000142
 20
0.7348263060946323
 30
0.0
 40
0.0320532506230862
100
AcDbArc
 50
270.0000000000064
 51
303.5108229556791
  0
ARC
  5
216
330
2
100
AcDbEntity
  8
0
100
AcDbCircle
 10
0.8599249814362278
 20
0.7575928297092638
 30
0.0
 40
0.0593583926698527
100
AcDbArc
 50
303.5108229556711
 51
327.9718933333926
  0
ARC
  5
217
330
2
100
AcDbEntity
  8
0
100
AcDbCircle
 10
0.8359215559125452
 20
0.7726082123310647
 30
0.0
 40
0.0876713959042334
100
AcDbArc
 50
327.9718933333754
 51
345.4734521831862
  0
ARC
  5
218
330
2
100
AcDbEntity
  8
0
100
AcDbCircle
 10
0.7978980607364097
 20
0.7824605554715234
 30
0.0
 40
0.1269505869698208
100
AcDbArc
 50
345.4734521832157
 51
0.0000000000128274
  0
ARC
  5
219
330
2
100
AcDbEntity
  8
0
100
AcDbCircle
 10
0.7978980607364381
 20
0.7824605554715731
 30
0.0
 40
0.1269505869697927
100
AcDbArc
 50
359.9999999999904
 51
14.52654781678748
  0
ARC
  5
21A
330
2
100
AcDbEntity
  8
0
100
AcDbCircle
 10
0.8359215559125506
 20
0.7923128986120354
 30
0.0
 40
0.087671395904227
100
AcDbArc
 50
14.52654781681249
 51
32.0281066666245
  0
ARC
  5
21B
330
2
100
AcDbEntity
  8
0
100
AcDbCircle
 10
0.8599249814362278
 20
0.8073282812338327
 30
0.0
 40
0.0593583926698527
100
AcDbArc
 50
32.02810666660741
 51
56.48917704432887
  0
ARC
  5
21C
330
2
100
AcDbEntity
  8
0
100
AcDbCircle
 10
0.8750000000000142
 20
0.8300948048484607
 30
0.0
 40
0.0320532506230895
100
AcDbArc
 50
56.48917704432444
 51
89.99999999999365
  0
ENDSEC
  0
SECTION
  2
OBJECTS
  0
DICTIONARY
  5
9
330
0
100
AcDbDictionary
281
     1
  3
ACAD_COLOR
350
25A
  3
ACAD_GROUP
350
23
  3
ACAD_LAYOUT
350
D
  3
ACAD_MATERIAL
350
259
  3
ACAD_MLINESTYLE
350
24
  3
ACAD_PLOTSETTINGS
350
25
  3
ACAD_PLOTSTYLENAME
350
8
  3
ACAD_TABLESTYLE
350
25B
  3
ACDBHEADERROUNDTRIPXREC
350
328
  3
AcDbVariableDictionary
350
EC
  0
DICTIONARY
  5
25A
102
{ACAD_REACTORS
330
9
102
}
330
9
100
AcDbDictionary
281
     1
  0
DICTIONARY
  5
23
102
{ACAD_REACTORS
330
9
102
}
330
9
100
AcDbDictionary
281
     1
  0
DICTIONARY
  5
D
102
{ACAD_REACTORS
330
9
102
}
330
9
100
AcDbDictionary
281
     1
  3
Layout1
350
13
  3
Model
350
C
  0
DICTIONARY
  5
259
102
{ACAD_REACTORS
330
9
102
}
330
9
100
AcDbDictionary
281
     1
  0
DICTIONARY
  5
24
102
{ACAD_REACTORS
330
9
102
}
330
9
100
AcDbDictionary
281
     1
  3
STANDARD
350
27
  0
DICTIONARY
  5
25
102
{ACAD_REACTORS
330
9
102
}
330
9
100
AcDbDictionary
281
     1
  0
ACDBDICTIONARYWDFLT
  5
8
102
{ACAD_REACTORS
330
9
102
}
330
9
100
AcDbDictionary
281
     1
  3
Normal
350
7
100
AcDbDictionaryWithDefault
340
7
  0
DICTIONARY
  5
25B
102
{ACAD_REACTORS
330
9
102
}
330
9
100
AcDbDictionary
281
     1
  3
Standard
350
25C
  0
DICTIONARY
  5
328
102
{ACAD_REACTORS
330
9
102
}
330
9
100
AcDbDictionary
281
     1
  3
COLORDICT
350
329
  3
MATERIALDICT
350
32A
  0
DICTIONARY
  5
EC
102
{ACAD_REACTORS
330
9
102
}
330
9
100
AcDbDictionary
281
     1
  3
CTABLESTYLE
350
325
  3
HIDETEXT
350
327
  0
LAYOUT
  5
13
102
{ACAD_REACTORS
330
D
102
}
102
{ACAD_XDICTIONARY
360
32B
102
}
330
D
100
AcDbPlotSettings
  1

  2
C:\ACAD2000\plotters\HP LaserJet 2100 Series PS.pc3
  4

  6

 40
0.0
 41
0.0
 42
0.0
 43
0.0
 44
0.0
 45
0.0
 46
0.0
 47
0.0
 48
0.0
 49
0.0
140
0.0
141
0.0
142
1.0
143
1.0
 70
   688
 72
     0
 73
     0
 74
     5
  7

 75
    16
147
1.0
148
0.0
149
0.0
100
AcDbLayout
  1
Layout1
 70
     0
 71
     1
 10
0.0
 20
0.0
 11
12.0
 21
9.0
 12
0.0
 22
0.0
 32
0.0
 14
1.000000000000000E+20
 24
1.000000000000000E+20
 34
1.000000000000000E+20
 15
-1.000000000000000E+20
 25
-1.000000000000000E+20
 35
-1.000000000000000E+20
146
0.0
 13
0.0
 23
0.0
 33
0.0
 16
1.0
 26
0.0
 36
0.0
 17
0.0
 27
1.0
 37
0.0
 76
     0
330
E
  0
LAYOUT
  5
C
102
{ACAD_REACTORS
330
D
102
}
102
{ACAD_XDICTIONARY
360
32D
102
}
330
D
100
AcDbPlotSettings
  1

  2
HP LaserJet 2100 Series PS
  4
Letter
  6

 40
3.174999952316284
 41
3.174999952316284
 42
3.175003051757813
 43
3.17498779296875
 44
215.9000091552734
 45
279.3999938964844
 46
0.0
 47
0.0
 48
0.0
 49
0.0
140
0.0
141
0.0
142
1.0
143
5.090908941468881
 70
 28336
 72
     0
 73
     1
 74
     2
  7

 75
     0
147
0.1964285771946001
148
0.0
149
0.0
100
AcDbLayout
  1
Model
 70
     1
 71
     0
 10
0.0
 20
0.0
 11
12.0
 21
9.0
 12
0.0
 22
0.0
 32
0.0
 14
0.0
 24
0.0
 34
0.0
 15
0.0
 25
0.0
 35
0.0
146
0.0
 13
0.0
 23
0.0
 33
0.0
 16
1.0
 26
0.0
 36
0.0
 17
0.0
 27
1.0
 37
0.0
 76
     0
330
2
  0
MLINESTYLE
  5
27
102
{ACAD_REACTORS
330
24
102
}
330
24
100
AcDbMlineStyle
  2
STANDARD
 70
     0
  3

 62
   256
 51
90.0
 52
90.0
 71
     2
 49
0.5
 62
   256
  6
BYLAYER
 49
-0.5
 62
   256
  6
BYLAYER
  0
ACDBPLACEHOLDER
  5
7
102
{ACAD_REACTORS
330
8
102
}
330
8
  0
ACAD_PROXY_OBJECT
  5
25C
102
{ACAD_REACTORS
330
25B
102
}
330
25B
100
AcDbProxyObject
 90
      499
 91
      557
 95
   983063
 70
     0
 93
     1841
310
4214DD185B99185C9928B81E85EB51B8AE3F2E07A17AD46E2B8FC02B5E8DC0F42B1CFD028000000C1008070000C3001FDFF8000000C1003FBFF000000182007F7FE00000030400FEFFC00000060801FDFF8000000C1003FBFF00000018200000000000000681FA0B0000001820100E000186003FBFF000000182007F7FE000
310
00030400FEFFC00000060801FDFF8000000C1003FBFF000000182007F7FE000000304000AD7A3703D0AC73F4160000003040201C00030C007F7FE00000030400FEFFC00000060801FDFF8000000C1003FBFF000000182007F7FE00000030400FEFFC000000608000
340
16
340
16
340
16
 94
        0
  0
XRECORD
  5
329
102
{ACAD_REACTORS
330
328
102
}
330
328
100
AcDbXrecord
340
25A
  0
XRECORD
  5
32A
102
{ACAD_REACTORS
330
328
102
}
330
328
100
AcDbXrecord
340
259
  0
DICTIONARYVAR
  5
325
102
{ACAD_REACTORS
330
EC
102
}
330
EC
100
DictionaryVariables
280
     0
  1
STANDARD
  0
DICTIONARYVAR
  5
327
102
{ACAD_REACTORS
330
EC
102
}
330
EC
100
DictionaryVariables
280
     0
  1
0
  0
DICTIONARY
  5
32B
330
13
100
AcDbDictionary
280
     1
281
     1
  3
ACAD_XREC_ROUNDTRIP
360
32C
  0
DICTIONARY
  5
32D
330
C
100
AcDbDictionary
280
     1
281
     1
  3
ACAD_XREC_ROUNDTRIP
360
32E
  0
XRECORD
  5
32C
102
{ACAD_REACTORS
330
32B
102
}
330
32B
100
AcDbXrecord
102
SHADEPLOT
 70
     0
102
SHADEPLOTRESLEVEL
 70
     2
102
SHADEPLOTCUSTOMDPI
 70
   300
  0
XRECORD
  5
32E
102
{ACAD_REACTORS
330
32D
102
}
330
32D
100
AcDbXrecord
102
SHADEPLOT
 70
     0
102
SHADEPLOTRESLEVEL
 70
     2
102
SHADEPLOTCUSTOMDPI
 70
   300
  0
ENDSEC
  0
EOF
