  0
SECTION
  2
HEADER
  9
$ACADVER
  1
AC1015
  9
$ACADMAINTVER
 70
     6
  9
$DWGCODEPAGE
  3
ANSI_1252
  9
$INSBASE
 10
0.0
 20
0.0
 30
0.0
  9
$EXTMIN
 10
-10.97383704413529
 20
-1.018208063367723
 30
-0.0000000000112498
  9
$EXTMAX
 10
9.182596093054457
 20
13.14267885331947
 30
0.0000000000002956
  9
$LIMMIN
 10
0.0
 20
0.0
  9
$LIMMAX
 10
42.0
 20
32.0
  9
$ORTHOMODE
 70
     1
  9
$REGENMODE
 70
     1
  9
$FILLMODE
 70
     1
  9
$QTEXTMODE
 70
     0
  9
$MIRRTEXT
 70
     1
  9
$LTSCALE
 40
0.5
  9
$ATTMODE
 70
     1
  9
$TEXTSIZE
 40
0.36
  9
$TRACEWID
 40
0.05
  9
$TEXTSTYLE
  7
STANDARD
  9
$CLAYER
  8
0
  9
$CELTYPE
  6
HIDDEN
  9
$CECOLOR
 62
   256
  9
$CELTSCALE
 40
1.0
  9
$DISPSILH
 70
     0
  9
$DIMSCALE
 40
4.0
  9
$DIMASZ
 40
0.125
  9
$DIMEXO
 40
0.062
  9
$DIMDLI
 40
0.375
  9
$DIMRND
 40
0.0
  9
$DIMDLE
 40
0.0
  9
$DIMEXE
 40
0.08
  9
$DIMTP
 40
0.0
  9
$DIMTM
 40
0.0
  9
$DIMTXT
 40
0.09
  9
$DIMCEN
 40
-0.06
  9
$DIMTSZ
 40
0.0
  9
$DIMTOL
 70
     0
  9
$DIMLIM
 70
     0
  9
$DIMTIH
 70
     1
  9
$DIMTOH
 70
     1
  9
$DIMSE1
 70
     0
  9
$DIMSE2
 70
     0
  9
$DIMTAD
 70
     0
  9
$DIMZIN
 70
     0
  9
$DIMBLK
  1

  9
$DIMASO
 70
     0
  9
$DIMSHO
 70
     0
  9
$DIMPOST
  1

  9
$DIMAPOST
  1

  9
$DIMALT
 70
     0
  9
$DIMALTD
 70
     2
  9
$DIMALTF
 40
25.4
  9
$DIMLFAC
 40
1.0
  9
$DIMTOFL
 70
     0
  9
$DIMTVP
 40
0.0
  9
$DIMTIX
 70
     0
  9
$DIMSOXD
 70
     0
  9
$DIMSAH
 70
     0
  9
$DIMBLK1
  1

  9
$DIMBLK2
  1

  9
$DIMSTYLE
  2
STANDARD
  9
$DIMCLRD
 70
     0
  9
$DIMCLRE
 70
     0
  9
$DIMCLRT
 70
     0
  9
$DIMTFAC
 40
1.0
  9
$DIMGAP
 40
0.09
  9
$DIMJUST
 70
     0
  9
$DIMSD1
 70
     0
  9
$DIMSD2
 70
     0
  9
$DIMTOLJ
 70
     1
  9
$DIMTZIN
 70
     0
  9
$DIMALTZ
 70
     0
  9
$DIMALTTZ
 70
     0
  9
$DIMUPT
 70
     0
  9
$DIMDEC
 70
     5
  9
$DIMTDEC
 70
     4
  9
$DIMALTU
 70
     2
  9
$DIMALTTD
 70
     2
  9
$DIMTXSTY
  7
STANDARD
  9
$DIMAUNIT
 70
     0
  9
$DIMADEC
 70
     0
  9
$DIMALTRND
 40
0.0
  9
$DIMAZIN
 70
     0
  9
$DIMDSEP
 70
    46
  9
$DIMATFIT
 70
     3
  9
$DIMFRAC
 70
     2
  9
$DIMLDRBLK
  1

  9
$DIMLUNIT
 70
     5
  9
$DIMLWD
 70
    -2
  9
$DIMLWE
 70
    -2
  9
$DIMTMOVE
 70
     2
  9
$LUNITS
 70
     2
  9
$LUPREC
 70
     4
  9
$SKETCHINC
 40
0.1
  9
$FILLETRAD
 40
0.0
  9
$AUNITS
 70
     0
  9
$AUPREC
 70
     0
  9
$MENU
  1
acad
  9
$ELEVATION
 40
0.0
  9
$PELEVATION
 40
0.0
  9
$THICKNESS
 40
0.0
  9
$LIMCHECK
 70
     0
  9
$CHAMFERA
 40
0.0
  9
$CHAMFERB
 40
0.0
  9
$CHAMFERC
 40
0.0
  9
$CHAMFERD
 40
0.0
  9
$SKPOLY
 70
     0
  9
$TDCREATE
 40
2448880.712842593
  9
$TDUCREATE
 40
2448881.046175926
  9
$TDUPDATE
 40
2454166.775201273
  9
$TDUUPDATE
 40
2454167.108534607
  9
$TDINDWG
 40
0.2461762269
  9
$TDUSRTIMER
 40
0.2461762269
  9
$USRTIMER
 70
     1
  9
$ANGBASE
 50
0.0
  9
$ANGDIR
 70
     0
  9
$PDMODE
 70
     0
  9
$PDSIZE
 40
0.0
  9
$PLINEWID
 40
0.0
  9
$SPLFRAME
 70
     0
  9
$SPLINETYPE
 70
     6
  9
$SPLINESEGS
 70
     8
  9
$HANDSEED
  5
31F
  9
$SURFTAB1
 70
     6
  9
$SURFTAB2
 70
     6
  9
$SURFTYPE
 70
     6
  9
$SURFU
 70
     6
  9
$SURFV
 70
     6
  9
$UCSBASE
  2

  9
$UCSNAME
  2

  9
$UCSORG
 10
0.0
 20
0.0
 30
0.0
  9
$UCSXDIR
 10
1.0
 20
0.0
 30
0.0
  9
$UCSYDIR
 10
0.0
 20
1.0
 30
0.0
  9
$UCSORTHOREF
  2

  9
$UCSORTHOVIEW
 70
     0
  9
$UCSORGTOP
 10
0.0
 20
0.0
 30
0.0
  9
$UCSORGBOTTOM
 10
0.0
 20
0.0
 30
0.0
  9
$UCSORGLEFT
 10
0.0
 20
0.0
 30
0.0
  9
$UCSORGRIGHT
 10
0.0
 20
0.0
 30
0.0
  9
$UCSORGFRONT
 10
0.0
 20
0.0
 30
0.0
  9
$UCSORGBACK
 10
0.0
 20
0.0
 30
0.0
  9
$PUCSBASE
  2

  9
$PUCSNAME
  2

  9
$PUCSORG
 10
0.0
 20
0.0
 30
0.0
  9
$PUCSXDIR
 10
1.0
 20
0.0
 30
0.0
  9
$PUCSYDIR
 10
0.0
 20
1.0
 30
0.0
  9
$PUCSORTHOREF
  2

  9
$PUCSORTHOVIEW
 70
     0
  9
$PUCSORGTOP
 10
0.0
 20
0.0
 30
0.0
  9
$PUCSORGBOTTOM
 10
0.0
 20
0.0
 30
0.0
  9
$PUCSORGLEFT
 10
0.0
 20
0.0
 30
0.0
  9
$PUCSORGRIGHT
 10
0.0
 20
0.0
 30
0.0
  9
$PUCSORGFRONT
 10
0.0
 20
0.0
 30
0.0
  9
$PUCSORGBACK
 10
0.0
 20
0.0
 30
0.0
  9
$USERI1
 70
     0
  9
$USERI2
 70
     0
  9
$USERI3
 70
     0
  9
$USERI4
 70
     0
  9
$USERI5
 70
     0
  9
$USERR1
 40
0.0
  9
$USERR2
 40
0.0
  9
$USERR3
 40
0.0
  9
$USERR4
 40
0.0
  9
$USERR5
 40
0.0
  9
$WORLDVIEW
 70
     1
  9
$SHADEDGE
 70
     3
  9
$SHADEDIF
 70
    70
  9
$TILEMODE
 70
     1
  9
$MAXACTVP
 70
    16
  9
$PINSBASE
 10
0.0
 20
0.0
 30
0.0
  9
$PLIMCHECK
 70
     0
  9
$PEXTMIN
 10
1.000000000000000E+20
 20
1.000000000000000E+20
 30
1.000000000000000E+20
  9
$PEXTMAX
 10
-1.000000000000000E+20
 20
-1.000000000000000E+20
 30
-1.000000000000000E+20
  9
$PLIMMIN
 10
0.0
 20
0.0
  9
$PLIMMAX
 10
12.0
 20
9.0
  9
$UNITMODE
 70
     0
  9
$VISRETAIN
 70
     0
  9
$PLINEGEN
 70
     0
  9
$PSLTSCALE
 70
     0
  9
$TREEDEPTH
 70
  3020
  9
$CMLSTYLE
  2
STANDARD
  9
$CMLJUST
 70
     0
  9
$CMLSCALE
 40
1.0
  9
$PROXYGRAPHICS
 70
     1
  9
$MEASUREMENT
 70
     0
  9
$CELWEIGHT
370
    -1
  9
$ENDCAPS
280
     0
  9
$JOINSTYLE
280
     0
  9
$LWDISPLAY
290
     0
  9
$INSUNITS
 70
     0
  9
$HYPERLINKBASE
  1

  9
$STYLESHEET
  1

  9
$XEDIT
290
     1
  9
$CEPSNTYPE
380
     0
  9
$PSTYLEMODE
290
     1
  9
$FINGERPRINTGUID
  2
{D2F66ADB-A264-4ADF-B7D5-0BD741C9DFA9}
  9
$VERSIONGUID
  2
{01713291-2519-455C-9940-92359FBB5EFF}
  9
$EXTNAMES
290
     1
  9
$PSVPSCALE
 40
0.0
  9
$OLESTARTUP
290
     0
  0
ENDSEC
  0
SECTION
  2
CLASSES
  0
CLASS
  1
DICTIONARYVAR
  2
AcDbDictionaryVar
  3
AutoCAD 2000
 90
        0
280
     0
281
     0
  0
CLASS
  1
LWPOLYLINE
  2
AcDbPolyline
  3
AutoCAD 2000
 90
        0
280
     0
281
     1
  0
CLASS
  1
ACDBDICTIONARYWDFLT
  2
AcDbDictionaryWithDefault
  3
AutoCAD 2000
 90
        0
280
     0
281
     0
  0
CLASS
  1
ACDBPLACEHOLDER
  2
AcDbPlaceHolder
  3
ObjectDBX Classes
 90
        0
280
     0
281
     0
  0
CLASS
  1
LAYOUT
  2
AcDbLayout
  3
ObjectDBX Classes
 90
        0
280
     0
281
     0
  0
CLASS
  1
LONG_TRANSACTION
  2
AcDbLongTransaction
  3
ObjectDBX Classes
 90
   -65536
280
     1
281
     0
  0
CLASS
  1
LWPOLYLINE
  2
AcDbPolyline
  3
AutoCAD 2000
 90
        0
280
     0
281
     1
  0
CLASS
  1
HATCH
  2
AcDbHatch
  3
AutoCAD 2000
 90
        0
280
     0
281
     1
  0
CLASS
  1
XRECORD
  2
AcDbXrecord
  3
AutoCAD 2000
 90
        0
280
     0
281
     0
  0
CLASS
  1
LONG_TRANSACTION
  2
AcDbLongTransaction
  3
ObjectDBX Classes
 90
   -65536
280
     1
281
     0
  0
CLASS
  1
LWPOLYLINE
  2
AcDbPolyline
  3
AutoCAD 2000
 90
        0
280
     0
281
     1
  0
CLASS
  1
HATCH
  2
AcDbHatch
  3
AutoCAD 2000
 90
        0
280
     0
281
     1
  0
CLASS
  1
XRECORD
  2
AcDbXrecord
  3
AutoCAD 2000
 90
        0
280
     0
281
     0
  0
CLASS
  1
LONG_TRANSACTION
  2
AcDbLongTransaction
  3
ObjectDBX Classes
 90
   -65536
280
     1
281
     0
  0
CLASS
  1
LWPOLYLINE
  2
AcDbPolyline
  3
AutoCAD 2000
 90
        0
280
     0
281
     1
  0
CLASS
  1
HATCH
  2
AcDbHatch
  3
AutoCAD 2000
 90
        0
280
     0
281
     1
  0
CLASS
  1
XRECORD
  2
AcDbXrecord
  3
AutoCAD 2000
 90
        0
280
     0
281
     0
  0
CLASS
  1
LONG_TRANSACTION
  2
AcDbLongTransaction
  3
ObjectDBX Classes
 90
   -65536
280
     1
281
     0
  0
CLASS
  1
LWPOLYLINE
  2
AcDbPolyline
  3
AutoCAD 2000
 90
        0
280
     0
281
     1
  0
CLASS
  1
HATCH
  2
AcDbHatch
  3
AutoCAD 2000
 90
        0
280
     0
281
     1
  0
CLASS
  1
XRECORD
  2
AcDbXrecord
  3
AutoCAD 2000
 90
        0
280
     0
281
     0
  0
CLASS
  1
LONG_TRANSACTION
  2
AcDbLongTransaction
  3
ObjectDBX Classes
 90
   -65536
280
     1
281
     0
  0
CLASS
  1
LWPOLYLINE
  2
AcDbPolyline
  3
AutoCAD 2000
 90
        0
280
     0
281
     1
  0
CLASS
  1
HATCH
  2
AcDbHatch
  3
AutoCAD 2000
 90
        0
280
     0
281
     1
  0
CLASS
  1
XRECORD
  2
AcDbXrecord
  3
AutoCAD 2000
 90
        0
280
     0
281
     0
  0
CLASS
  1
LONG_TRANSACTION
  2
AcDbLongTransaction
  3
ObjectDBX Classes
 90
   -65536
280
     1
281
     0
  0
CLASS
  1
LWPOLYLINE
  2
AcDbPolyline
  3
AutoCAD 2000
 90
        0
280
     0
281
     1
  0
CLASS
  1
HATCH
  2
AcDbHatch
  3
AutoCAD 2000
 90
        0
280
     0
281
     1
  0
CLASS
  1
XRECORD
  2
AcDbXrecord
  3
AutoCAD 2000
 90
        0
280
     0
281
     0
  0
CLASS
  1
LONG_TRANSACTION
  2
AcDbLongTransaction
  3
ObjectDBX Classes
 90
   -65536
280
     1
281
     0
  0
CLASS
  1
LWPOLYLINE
  2
AcDbPolyline
  3
AutoCAD 2000
 90
        0
280
     0
281
     1
  0
CLASS
  1
HATCH
  2
AcDbHatch
  3
AutoCAD 2000
 90
        0
280
     0
281
     1
  0
CLASS
  1
XRECORD
  2
AcDbXrecord
  3
AutoCAD 2000
 90
        0
280
     0
281
     0
  0
CLASS
  1
LONG_TRANSACTION
  2
AcDbLongTransaction
  3
ObjectDBX Classes
 90
   -65536
280
     1
281
     0
  0
CLASS
  1
LWPOLYLINE
  2
AcDbPolyline
  3
AutoCAD 2000
 90
        0
280
     0
281
     1
  0
CLASS
  1
HATCH
  2
AcDbHatch
  3
AutoCAD 2000
 90
        0
280
     0
281
     1
  0
CLASS
  1
XRECORD
  2
AcDbXrecord
  3
AutoCAD 2000
 90
        0
280
     0
281
     0
  0
CLASS
  1
LONG_TRANSACTION
  2
AcDbLongTransaction
  3
ObjectDBX Classes
 90
   -65536
280
     1
281
     0
  0
CLASS
  1
LWPOLYLINE
  2
AcDbPolyline
  3
AutoCAD 2000
 90
        0
280
     0
281
     1
  0
CLASS
  1
HATCH
  2
AcDbHatch
  3
AutoCAD 2000
 90
        0
280
     0
281
     1
  0
CLASS
  1
XRECORD
  2
AcDbXrecord
  3
AutoCAD 2000
 90
        0
280
     0
281
     0
  0
CLASS
  1
LONG_TRANSACTION
  2
AcDbLongTransaction
  3
ObjectDBX Classes
 90
   -65536
280
     1
281
     0
  0
CLASS
  1
LWPOLYLINE
  2
AcDbPolyline
  3
AutoCAD 2000
 90
        0
280
     0
281
     1
  0
CLASS
  1
HATCH
  2
AcDbHatch
  3
AutoCAD 2000
 90
        0
280
     0
281
     1
  0
CLASS
  1
XRECORD
  2
AcDbXrecord
  3
AutoCAD 2000
 90
        0
280
     0
281
     0
  0
CLASS
  1
LONG_TRANSACTION
  2
AcDbLongTransaction
  3
ObjectDBX Classes
 90
   -65536
280
     1
281
     0
  0
CLASS
  1
LWPOLYLINE
  2
AcDbPolyline
  3
AutoCAD 2000
 90
        0
280
     0
281
     1
  0
CLASS
  1
HATCH
  2
AcDbHatch
  3
AutoCAD 2000
 90
        0
280
     0
281
     1
  0
CLASS
  1
XRECORD
  2
AcDbXrecord
  3
AutoCAD 2000
 90
        0
280
     0
281
     0
  0
CLASS
  1
LONG_TRANSACTION
  2
AcDbLongTransaction
  3
ObjectDBX Classes
 90
   -65536
280
     1
281
     0
  0
CLASS
  1
LWPOLYLINE
  2
AcDbPolyline
  3
AutoCAD 2000
 90
        0
280
     0
281
     1
  0
CLASS
  1
HATCH
  2
AcDbHatch
  3
AutoCAD 2000
 90
        0
280
     0
281
     1
  0
CLASS
  1
XRECORD
  2
AcDbXrecord
  3
AutoCAD 2000
 90
        0
280
     0
281
     0
  0
CLASS
  1
LONG_TRANSACTION
  2
AcDbLongTransaction
  3
ObjectDBX Classes
 90
   -65536
280
     1
281
     0
  0
CLASS
  1
LWPOLYLINE
  2
AcDbPolyline
  3
AutoCAD 2000
 90
        0
280
     0
281
     1
  0
CLASS
  1
HATCH
  2
AcDbHatch
  3
AutoCAD 2000
 90
        0
280
     0
281
     1
  0
CLASS
  1
XRECORD
  2
AcDbXrecord
  3
AutoCAD 2000
 90
        0
280
     0
281
     0
  0
CLASS
  1
TABLESTYLE
  2
AcDbTableStyle
  3
ObjectDBX Classes
 90
     2047
280
     1
281
     0
  0
ENDSEC
  0
SECTION
  2
TABLES
  0
TABLE
  2
VPORT
  5
1D
330
0
100
AcDbSymbolTable
 70
     4
  0
VPORT
  5
30F
330
1D
100
AcDbSymbolTableRecord
100
AcDbViewportTableRecord
  2
*Active
 70
     0
 10
0.0
 20
0.0
 11
1.0
 21
1.0
 12
1.746218941426129
 22
6.866981062392036
 13
0.0
 23
0.0
 14
0.063
 24
0.063
 15
0.25
 25
0.25
 16
0.0
 26
0.0
 36
1.0
 17
0.0
 27
0.0
 37
0.0
 40
17.61968973941093
 41
1.814583333333333
 42
50.0
 43
0.0
 44
0.0
 50
0.0
 51
0.0
 71
     0
 72
   100
 73
     1
 74
     1
 75
     0
 76
     0
 77
     0
 78
     0
281
     0
 65
     1
110
0.0
120
0.0
130
0.0
111
1.0
121
0.0
131
0.0
112
0.0
122
1.0
132
0.0
 79
     0
146
0.0
  0
ENDTAB
  0
TABLE
  2
LTYPE
  5
18
330
0
100
AcDbSymbolTable
 70
     2
  0
LTYPE
  5
19
330
18
100
AcDbSymbolTableRecord
100
AcDbLinetypeTableRecord
  2
BYBLOCK
 70
     0
  3

 72
    65
 73
     0
 40
0.0
  0
LTYPE
  5
1A
330
18
100
AcDbSymbolTableRecord
100
AcDbLinetypeTableRecord
  2
BYLAYER
 70
     0
  3

 72
    65
 73
     0
 40
0.0
  0
LTYPE
  5
A
330
18
100
AcDbSymbolTableRecord
100
AcDbLinetypeTableRecord
  2
CONTINUOUS
 70
     0
  3
Solid line
 72
    65
 73
     0
 40
0.0
  0
LTYPE
  5
2FC
330
18
100
AcDbSymbolTableRecord
100
AcDbLinetypeTableRecord
  2
HIDDEN
 70
     0
  3
Hidden __ __ __ __ __ __ __ __ __ __ __ __ __ _
 72
    65
 73
     2
 40
0.375
 49
0.25
 74
     0
 49
-0.125
 74
     0
  0
ENDTAB
  0
TABLE
  2
LAYER
  5
14
330
0
100
AcDbSymbolTable
 70
     1
  0
LAYER
  5
6
330
14
100
AcDbSymbolTableRecord
100
AcDbLayerTableRecord
  2
0
 70
     0
 62
     7
  6
CONTINUOUS
370
    -3
390
7
  0
ENDTAB
  0
TABLE
  2
STYLE
  5
15
330
0
100
AcDbSymbolTable
 70
     2
  0
STYLE
  5
16
330
15
100
AcDbSymbolTableRecord
100
AcDbTextStyleTableRecord
  2
STANDARD
 70
     0
 40
0.0
 41
1.0
 50
0.0
 71
     0
 42
0.36
  3
TXT
  4

  0
STYLE
  5
2FB
330
15
100
AcDbSymbolTableRecord
100
AcDbTextStyleTableRecord
  2

 70
     1
 40
0.0
 41
1.0
 50
0.0
 71
     0
 42
0.36
  3
ltypeshp.shx
  4

  0
ENDTAB
  0
TABLE
  2
VIEW
  5
1B
330
0
100
AcDbSymbolTable
 70
     0
  0
ENDTAB
  0
TABLE
  2
UCS
  5
1C
330
0
100
AcDbSymbolTable
 70
     0
  0
ENDTAB
  0
TABLE
  2
APPID
  5
1F
330
0
100
AcDbSymbolTable
 70
     1
  0
APPID
  5
20
330
1F
100
AcDbSymbolTableRecord
100
AcDbRegAppTableRecord
  2
ACAD
 70
     0
  0
ENDTAB
  0
TABLE
  2
DIMSTYLE
  5
21
330
0
100
AcDbSymbolTable
 70
     1
100
AcDbDimStyleTable
  0
DIMSTYLE
105
28
330
21
100
AcDbSymbolTableRecord
100
AcDbDimStyleTableRecord
  2
STANDARD
 70
     0
  3

  4

340
16
  0
ENDTAB
  0
TABLE
  2
BLOCK_RECORD
  5
1
330
0
100
AcDbSymbolTable
 70
     1
  0
BLOCK_RECORD
  5
2
330
1
100
AcDbSymbolTableRecord
100
AcDbBlockTableRecord
  2
*MODEL_SPACE
340
C
  0
BLOCK_RECORD
  5
E
330
1
100
AcDbSymbolTableRecord
100
AcDbBlockTableRecord
  2
*PAPER_SPACE
340
13
  0
ENDTAB
  0
ENDSEC
  0
SECTION
  2
BLOCKS
  0
BLOCK
  5
5
330
2
100
AcDbEntity
  8
0
100
AcDbBlockBegin
  2
*MODEL_SPACE
 70
     0
 10
0.0
 20
0.0
 30
0.0
  3
*MODEL_SPACE
  1

  4

  0
ENDBLK
  5
B
330
2
100
AcDbEntity
  8
0
100
AcDbBlockEnd
  0
BLOCK
  5
11
330
E
100
AcDbEntity
 67
     1
  8
0
100
AcDbBlockBegin
  2
*PAPER_SPACE
 70
     0
 10
0.0
 20
0.0
 30
0.0
  3
*PAPER_SPACE
  1

  4

  0
ENDBLK
  5
12
330
E
100
AcDbEntity
 67
     1
  8
0
100
AcDbBlockEnd
  0
ENDSEC
  0
SECTION
  2
ENTITIES
  0
ARC
  5
F8
330
2
100
AcDbEntity
  8
0
100
AcDbCircle
 10
7.643979980080756
 20
6.437499999999998
 30
0.0
 40
0.15625
100
AcDbArc
 50
270.0000000000001
 51
0.0
  0
LINE
  5
F9
330
2
100
AcDbEntity
  8
0
100
AcDbLine
 10
8.862729980080751
 20
7.093750000000005
 30
0.0
 11
8.862729980080758
 21
0.1497303148918601
 31
0.0
  0
LINE
  5
FA
330
2
100
AcDbEntity
  8
0
100
AcDbLine
 10
8.800229980080751
 20
7.093750000000005
 30
0.0
 11
8.800229980080758
 21
0.1497303148918601
 31
0.0
  0
LINE
  5
FB
330
2
100
AcDbEntity
  8
0
100
AcDbLine
 10
7.182324493780323
 20
1.517650737365093
 30
0.0
 11
5.827932723230974
 21
0.2099621313174449
 31
0.0
  0
LINE
  5
FC
330
2
100
AcDbEntity
  8
0
100
AcDbLine
 10
5.722510666268976
 20
-0.0000000000000018
 30
0.0
 11
8.722510666268947
 21
-0.0000000000000018
 31
0.0
  0
ARC
  5
FD
330
2
100
AcDbEntity
  8
0
100
AcDbCircle
 10
6.175229980080752
 20
-0.1497385989912576
 30
0.0
 40
0.5
100
AcDbArc
 50
133.9949139947459
 51
154.882423762177
  0
LINE
  5
FE
330
2
100
AcDbEntity
  8
0
100
AcDbLine
 10
5.722510666268976
 20
0.0624999999999982
 30
0.0
 11
5.722510666268976
 21
-0.0000000000000018
 31
0.0
  0
ARC
  5
100
330
2
100
AcDbEntity
  8
0
100
AcDbCircle
 10
9.175229980080751
 20
-0.1497385989912576
 30
0.0
 40
0.5
100
AcDbArc
 50
138.5903778907218
 51
154.8824237621768
  0
LINE
  5
101
330
2
100
AcDbEntity
  8
0
100
AcDbLine
 10
8.722510666268947
 20
0.0624999999999982
 30
0.0
 11
8.722510666268947
 21
-0.0000000000000018
 31
0.0
  0
LINE
  5
102
330
2
100
AcDbEntity
  8
0
100
AcDbLine
 10
8.862729980080758
 20
0.1809803148918601
 30
0.0
 11
8.800229980080758
 21
0.1809803148918601
 31
0.0
  0
LINE
  5
103
330
2
100
AcDbEntity
  8
0
100
AcDbLine
 10
7.487729980080752
 20
2.237052197982505
 30
0.0
 11
7.487729980080756
 21
4.249999999999998
 31
0.0
  0
ARC
  5
104
330
2
100
AcDbEntity
  8
0
100
AcDbCircle
 10
6.487729980080752
 20
2.237052197982505
 30
0.0
 40
1.0
100
AcDbArc
 50
313.9949139947459
 51
0.0
  0
ARC
  5
107
330
2
100
AcDbEntity
  8
0
100
AcDbCircle
 10
8.818917723605182
 20
1.957565554454144
 30
0.0
 40
0.1875000000000025
100
AcDbArc
 50
90.0
 51
270.0
  0
LINE
  5
108
330
2
100
AcDbEntity
  8
0
100
AcDbLine
 10
7.800229980080756
 20
4.562499999999998
 30
0.0
 11
7.800229980080756
 21
5.312499999999998
 31
0.0
  0
ARC
  5
109
330
2
100
AcDbEntity
  8
0
100
AcDbCircle
 10
7.643979980080752
 20
4.562499999999998
 30
0.0
 40
0.15625
100
AcDbArc
 50
270.0000000000001
 51
0.0
  0
ARC
  5
10A
330
2
100
AcDbEntity
  8
0
100
AcDbCircle
 10
7.643979980080752
 20
4.249999999999998
 30
0.0
 40
0.15625
100
AcDbArc
 50
90.0
 51
180.0
  0
LINE
  5
10B
330
2
100
AcDbEntity
  8
0
100
AcDbLine
 10
7.643979980080756
 20
4.406249999999998
 30
0.0
 11
7.643979980080756
 21
4.406249999999998
 31
0.0
  0
LINE
  5
10C
330
2
100
AcDbEntity
  8
0
100
AcDbLine
 10
7.487729980080756
 20
5.624999999999998
 30
0.0
 11
7.487729980080756
 21
6.124999999999998
 31
0.0
  0
ARC
  5
10D
330
2
100
AcDbEntity
  8
0
100
AcDbCircle
 10
7.643979980080756
 20
5.624999999999998
 30
0.0
 40
0.15625
100
AcDbArc
 50
180.0000000000001
 51
270.0
  0
LINE
  5
10E
330
2
100
AcDbEntity
  8
0
100
AcDbLine
 10
7.643979980080756
 20
5.468749999999998
 30
0.0
 11
7.643979980080756
 21
5.468749999999998
 31
0.0
  0
ARC
  5
10F
330
2
100
AcDbEntity
  8
0
100
AcDbCircle
 10
7.643979980080756
 20
5.312499999999998
 30
0.0
 40
0.15625
100
AcDbArc
 50
0.0
 51
90.0
  0
ARC
  5
111
330
2
100
AcDbEntity
  8
0
100
AcDbCircle
 10
7.643979980080756
 20
6.124999999999998
 30
0.0
 40
0.15625
100
AcDbArc
 50
90.0
 51
180.0
  0
LINE
  5
113
330
2
100
AcDbEntity
  8
0
100
AcDbLine
 10
8.862729980080758
 20
7.093749999999998
 30
0.0
 11
7.800229980080756
 21
7.093749999999998
 31
0.0
  0
LINE
  5
114
330
2
100
AcDbEntity
  8
0
100
AcDbLine
 10
7.800229980080756
 20
6.437499999999997
 30
0.0
 11
7.80022998008076
 21
7.093749999999998
 31
0.0
  0
LINE
  5
115
330
2
100
AcDbEntity
  8
0
100
AcDbLine
 10
2.875000000000002
 20
13.05263033208376
 30
0.0
 11
0.9374999999999716
 21
13.05263033208376
 31
0.0
  0
LINE
  5
116
330
2
100
AcDbEntity
  8
0
100
AcDbLine
 10
2.875000000000002
 20
13.11513033208376
 30
0.0
 11
0.9374999999999734
 21
13.11513033208376
 31
0.0
  0
LINE
  5
118
330
2
100
AcDbEntity
  8
0
100
AcDbLine
 10
0.8749999999999716
 20
9.974911018271953
 30
0.0
 11
0.8749999999999716
 21
12.26601867973209
 31
0.0
  0
LINE
  5
119
330
2
100
AcDbEntity
  8
0
100
AcDbLine
 10
-0.8749999999999982
 20
9.974911018271939
 30
0.0
 11
-0.8749999999999982
 21
12.26601867973208
 31
0.0
  0
LINE
  5
11A
330
2
100
AcDbEntity
  8
0
100
AcDbLine
 10
-0.9374999999999982
 20
13.05263033208376
 30
0.0
 11
-2.875
 21
13.05263033208376
 31
0.0
  0
LINE
  5
11B
330
2
100
AcDbEntity
  8
0
100
AcDbLine
 10
-0.9375000000000213
 20
13.11513033208376
 30
0.0
 11
-2.875
 21
13.11513033208376
 31
0.0
  0
LINE
  5
11C
330
2
100
AcDbEntity
  8
0
100
AcDbLine
 10
-2.875
 20
13.05263033208377
 30
0.0
 11
-2.875
 21
13.11513033208376
 31
0.0
  0
LINE
  5
11D
330
2
100
AcDbEntity
  8
0
100
AcDbLine
 10
-0.6002614010087731
 20
12.92763033208375
 30
0.0
 11
0.6002614010087193
 21
12.92763033208375
 31
0.0
  0
LINE
  5
11E
330
2
100
AcDbEntity
  8
0
100
AcDbLine
 10
-0.8749999999999982
 20
12.26601867973208
 30
0.0
 11
-0.8749999999999982
 21
12.99013033208376
 31
0.0
  0
ARC
  5
11F
330
2
100
AcDbEntity
  8
0
100
AcDbCircle
 10
-0.6002614010087726
 20
13.42763033208375
 30
0.0
 40
0.5
100
AcDbArc
 50
244.8824237621772
 51
269.9999999999999
  0
LINE
  5
120
330
2
100
AcDbEntity
  8
0
100
AcDbLine
 10
-0.8125000000000213
 20
12.97491101827195
 30
0.0
 11
-0.8125000000000213
 21
12.99013033208376
 31
0.0
  0
ARC
  5
121
330
2
100
AcDbEntity
  8
0
100
AcDbCircle
 10
-0.9375000000000213
 20
12.99013033208376
 30
0.0
 40
0.125
100
AcDbArc
 50
0.0
 51
90.00000000000003
  0
ARC
  5
122
330
2
100
AcDbEntity
  8
0
100
AcDbCircle
 10
-0.9374999999999982
 20
12.99013033208376
 30
0.0
 40
0.0625
100
AcDbArc
 50
0.0
 51
90.00000000000003
  0
LINE
  5
123
330
2
100
AcDbEntity
  8
0
100
AcDbLine
 10
-0.6002614010087726
 20
12.92763033208375
 30
0.0
 11
-0.4671159765816313
 21
12.92763033208375
 31
0.0
  0
LINE
  5
124
330
2
100
AcDbEntity
  8
0
100
AcDbLine
 10
0.8749999999999698
 20
12.26601867973209
 30
0.0
 11
0.8749999999999716
 21
12.99013033208376
 31
0.0
  0
LINE
  5
125
330
2
100
AcDbEntity
  8
0
100
AcDbLine
 10
0.8124999999999716
 20
12.97491101827195
 30
0.0
 11
0.8124999999999734
 21
12.99013033208376
 31
0.0
  0
ARC
  5
126
330
2
100
AcDbEntity
  8
0
100
AcDbCircle
 10
0.9374999999999734
 20
12.99013033208376
 30
0.0
 40
0.125
100
AcDbArc
 50
90.00000000000006
 51
180.0
  0
ARC
  5
127
330
2
100
AcDbEntity
  8
0
100
AcDbCircle
 10
0.9374999999999716
 20
12.99013033208376
 30
0.0
 40
0.0625
100
AcDbArc
 50
90.00000000000006
 51
180.0
  0
LINE
  5
128
330
2
100
AcDbEntity
  8
0
100
AcDbLine
 10
0.4736491677319421
 20
12.92763033208375
 30
0.0
 11
0.6002614010087193
 21
12.92763033208375
 31
0.0
  0
LINE
  5
129
330
2
100
AcDbEntity
  8
0
100
AcDbLine
 10
0.4999999999999734
 20
12.92763033208375
 30
0.0
 11
0.6002614010087193
 21
12.92763033208375
 31
0.0
  0
ARC
  5
12A
330
2
100
AcDbEntity
  8
0
100
AcDbCircle
 10
0.6002614010087193
 20
13.42763033208375
 30
0.0
 40
0.5
100
AcDbArc
 50
270.0
 51
295.1175762378232
  0
LINE
  5
12B
330
2
100
AcDbEntity
  8
0
100
AcDbLine
 10
0.8749999999999716
 20
9.974911018271953
 30
0.0
 11
0.8124999999999716
 21
9.974911018271953
 31
0.0
  0
LINE
  5
12C
330
2
100
AcDbEntity
  8
0
100
AcDbLine
 10
0.8753548491859267
 20
9.974911018271939
 30
0.0
 11
0.8128548491859267
 21
9.974911018271939
 31
0.0
  0
LINE
  5
12D
330
2
100
AcDbEntity
  8
0
100
AcDbLine
 10
0.8753548491859267
 20
9.974911018271939
 30
0.0
 11
0.8128548491859267
 21
9.974911018271939
 31
0.0
  0
LINE
  5
12E
330
2
100
AcDbEntity
  8
0
100
AcDbLine
 10
2.875000000000002
 20
13.05263033208376
 30
0.0
 11
2.875000000000002
 21
13.11513033208376
 31
0.0
  0
LINE
  5
130
330
2
100
AcDbEntity
  8
0
100
AcDbLine
 10
2.875000000000002
 20
7.159773959581717
 30
0.0
 11
0.8125000000000018
 21
7.159773959581717
 31
0.0
  0
ARC
  5
131
330
2
100
AcDbEntity
  8
0
100
AcDbCircle
 10
0.875
 20
1.962622089931841
 30
0.0
 40
0.1875000000000025
100
AcDbArc
 50
270.0
 51
90.0
  0
LINE
  5
132
330
2
100
AcDbEntity
  8
0
100
AcDbLine
 10
2.257094513699565
 20
1.52119969694682
 30
0.0
 11
0.8750000000000018
 21
0.1867636147541347
 31
0.0
  0
LINE
  5
133
330
2
100
AcDbEntity
  8
0
100
AcDbLine
 10
0.8125000000000036
 20
7.15977395958172
 30
0.0
 11
0.8125000000000018
 21
0.09375
 31
0.0
  0
LINE
  5
134
330
2
100
AcDbEntity
  8
0
100
AcDbLine
 10
-0.8125
 20
0.0937500000000036
 30
0.0
 11
-0.8125
 21
7.15977395958172
 31
0.0
  0
LINE
  5
135
330
2
100
AcDbEntity
  8
0
100
AcDbLine
 10
0.8750000000000018
 20
7.159773959581717
 30
0.0
 11
0.875
 21
0.09375
 31
0.0
  0
LINE
  5
136
330
2
100
AcDbEntity
  8
0
100
AcDbLine
 10
-0.875
 20
0.0937499999999964
 30
0.0
 11
-0.875
 21
7.159773959581724
 31
0.0
  0
ARC
  5
137
330
2
100
AcDbEntity
  8
0
100
AcDbCircle
 10
-2.71875
 20
6.47227395958172
 30
0.0
 40
0.15625
100
AcDbArc
 50
180.0
 51
269.9999999999999
  0
LINE
  5
138
330
2
100
AcDbEntity
  8
0
100
AcDbLine
 10
-2.257094513699569
 20
1.521199696946823
 30
0.0
 11
-0.875
 21
0.1867636147541347
 31
0.0
  0
CIRCLE
  5
139
330
2
100
AcDbEntity
  8
0
100
AcDbCircle
 10
-1.375
 20
1.09727395958172
 30
0.0
 40
0.085937500000002
  0
LINE
  5
13A
330
2
100
AcDbEntity
  8
0
100
AcDbLine
 10
0.75
 20
0.0
 30
0.0
 11
-0.75
 21
-0.0000000000000036
 31
0.0
  0
LINE
  5
13B
330
2
100
AcDbEntity
  8
0
100
AcDbLine
 10
0.7500000000000018
 20
0.0625
 30
0.0
 11
-0.75
 21
0.0625000000000036
 31
0.0
  0
ARC
  5
13C
330
2
100
AcDbEntity
  8
0
100
AcDbCircle
 10
-0.75
 20
0.1249999999999965
 30
0.0
 40
0.125
100
AcDbArc
 50
180.0
 51
269.9999999999999
  0
ARC
  5
13D
330
2
100
AcDbEntity
  8
0
100
AcDbCircle
 10
-0.75
 20
0.1250000000000036
 30
0.0
 40
0.0625
100
AcDbArc
 50
180.0
 51
269.9999999999998
  0
ARC
  5
13E
330
2
100
AcDbEntity
  8
0
100
AcDbCircle
 10
0.75
 20
0.125
 30
0.0
 40
0.125
100
AcDbArc
 50
270.0000000000001
 51
0.0
  0
ARC
  5
13F
330
2
100
AcDbEntity
  8
0
100
AcDbCircle
 10
0.7500000000000018
 20
0.125
 30
0.0
 40
0.0625
100
AcDbArc
 50
269.9999999999998
 51
0.0
  0
LINE
  5
144
330
2
100
AcDbEntity
  8
0
100
AcDbLine
 10
0.8750000000000178
 20
0.644123055471546
 30
0.0
 11
0.8750000000000178
 21
0.9207980554715505
 31
0.0
  0
CIRCLE
  5
147
330
2
100
AcDbEntity
  8
0
100
AcDbCircle
 10
-2.1875
 20
3.869761259382823
 30
0.0
 40
0.085937500000002
  0
LINE
  5
148
330
2
100
AcDbEntity
  8
0
100
AcDbLine
 10
-2.5625
 20
2.240601157564235
 30
0.0
 11
-2.5625
 21
4.28477395958172
 31
0.0
  0
CIRCLE
  5
149
330
2
100
AcDbEntity
  8
0
100
AcDbCircle
 10
-1.375
 20
2.61289895958172
 30
0.0
 40
0.085937500000002
  0
ARC
  5
14A
330
2
100
AcDbEntity
  8
0
100
AcDbCircle
 10
-1.5625
 20
2.240601157564235
 30
0.0
 40
1.0
100
AcDbArc
 50
180.0
 51
226.0050860052541
  0
CIRCLE
  5
14B
330
2
100
AcDbEntity
  8
0
100
AcDbCircle
 10
-2.1875
 20
2.364677699757667
 30
0.0
 40
0.085937500000002
  0
CIRCLE
  5
14C
330
2
100
AcDbEntity
  8
0
100
AcDbCircle
 10
-1.375
 20
3.61289895958172
 30
0.0
 40
0.085937500000002
  0
LINE
  5
14D
330
2
100
AcDbEntity
  8
0
100
AcDbLine
 10
0.8750000000000178
 20
2.392841382025047
 30
0.0
 11
0.8750000000000178
 21
2.669516382025051
 31
0.0
  0
ARC
  5
14E
330
2
100
AcDbEntity
  8
0
100
AcDbCircle
 10
-0.875
 20
1.962622089931841
 30
0.0
 40
0.1875000000000025
100
AcDbArc
 50
90.0
 51
270.0
  0
LINE
  5
155
330
2
100
AcDbEntity
  8
0
100
AcDbLine
 10
0.8750000000000178
 20
3.510097586910099
 30
0.0
 11
0.8750000000000178
 21
3.786772586910104
 31
0.0
  0
LINE
  5
156
330
2
100
AcDbEntity
  8
0
100
AcDbLine
 10
-2.875
 20
4.59727395958172
 30
0.0
 11
-2.875
 21
5.34727395958172
 31
0.0
  0
ARC
  5
157
330
2
100
AcDbEntity
  8
0
100
AcDbCircle
 10
-2.71875
 20
4.59727395958172
 30
0.0
 40
0.15625
100
AcDbArc
 50
180.0
 51
269.9999999999999
  0
ARC
  5
158
330
2
100
AcDbEntity
  8
0
100
AcDbCircle
 10
-2.71875
 20
4.28477395958172
 30
0.0
 40
0.15625
100
AcDbArc
 50
0.0
 51
90.0
  0
LINE
  5
159
330
2
100
AcDbEntity
  8
0
100
AcDbLine
 10
-2.71875
 20
4.44102395958172
 30
0.0
 11
-2.71875
 21
4.44102395958172
 31
0.0
  0
CIRCLE
  5
15A
330
2
100
AcDbEntity
  8
0
100
AcDbCircle
 10
-2.470606184502513
 20
5.02601125938282
 30
0.0
 40
0.085937500000002
  0
CIRCLE
  5
15B
330
2
100
AcDbEntity
  8
0
100
AcDbCircle
 10
-1.375
 20
4.61289895958172
 30
0.0
 40
0.085937500000002
  0
LINE
  5
15C
330
2
100
AcDbEntity
  8
0
100
AcDbLine
 10
-2.5625
 20
5.65977395958172
 30
0.0
 11
-2.5625
 21
6.15977395958172
 31
0.0
  0
ARC
  5
15D
330
2
100
AcDbEntity
  8
0
100
AcDbCircle
 10
-2.71875
 20
5.34727395958172
 30
0.0
 40
0.15625
100
AcDbArc
 50
90.0
 51
180.0
  0
ARC
  5
15E
330
2
100
AcDbEntity
  8
0
100
AcDbCircle
 10
-2.71875
 20
5.65977395958172
 30
0.0
 40
0.15625
100
AcDbArc
 50
270.0
 51
359.9999999999999
  0
LINE
  5
15F
330
2
100
AcDbEntity
  8
0
100
AcDbLine
 10
-2.71875
 20
5.50352395958172
 30
0.0
 11
-2.71875
 21
5.50352395958172
 31
0.0
  0
ARC
  5
160
330
2
100
AcDbEntity
  8
0
100
AcDbCircle
 10
-2.71875
 20
6.15977395958172
 30
0.0
 40
0.15625
100
AcDbArc
 50
0.0
 51
90.0
  0
CIRCLE
  5
161
330
2
100
AcDbEntity
  8
0
100
AcDbCircle
 10
-2.1875
 20
5.860948559183921
 30
0.0
 40
0.085937500000002
  0
CIRCLE
  5
162
330
2
100
AcDbEntity
  8
0
100
AcDbCircle
 10
-1.375
 20
5.61289895958172
 30
0.0
 40
0.085937500000002
  0
LINE
  5
165
330
2
100
AcDbEntity
  8
0
100
AcDbLine
 10
0.8750000000000178
 20
5.762673759382757
 30
0.0
 11
0.8750000000000178
 21
6.039348759382762
 31
0.0
  0
LINE
  5
168
330
2
100
AcDbEntity
  8
0
100
AcDbLine
 10
-2.874999999999998
 20
7.159773959581717
 30
0.0
 11
-0.8124999999999965
 21
7.15977395958172
 31
0.0
  0
LINE
  5
169
330
2
100
AcDbEntity
  8
0
100
AcDbLine
 10
-2.875
 20
6.47227395958172
 30
0.0
 11
-2.875000000000002
 21
7.159773959581724
 31
0.0
  0
CIRCLE
  5
16A
330
2
100
AcDbEntity
  8
0
100
AcDbCircle
 10
-2.5
 20
6.860948559183921
 30
0.0
 40
0.085937500000002
  0
CIRCLE
  5
16B
330
2
100
AcDbEntity
  8
0
100
AcDbCircle
 10
-1.375
 20
6.73789895958172
 30
0.0
 40
0.085937500000002
  0
ARC
  5
16C
330
2
100
AcDbEntity
  8
0
100
AcDbCircle
 10
2.718750000000002
 20
6.472273959581717
 30
0.0
 40
0.15625
100
AcDbArc
 50
270.0000000000001
 51
0.0
  0
CIRCLE
  5
16D
330
2
100
AcDbEntity
  8
0
100
AcDbCircle
 10
1.375000000000002
 20
1.11289895958172
 30
0.0
 40
0.085937500000002
  0
CIRCLE
  5
16E
330
2
100
AcDbEntity
  8
0
100
AcDbCircle
 10
2.187500000000002
 20
3.869761259382823
 30
0.0
 40
0.085937500000002
  0
LINE
  5
16F
330
2
100
AcDbEntity
  8
0
100
AcDbLine
 10
2.562500000000002
 20
2.240601157564228
 30
0.0
 11
2.562500000000002
 21
4.284773959581717
 31
0.0
  0
CIRCLE
  5
170
330
2
100
AcDbEntity
  8
0
100
AcDbCircle
 10
1.375000000000002
 20
2.61289895958172
 30
0.0
 40
0.085937500000002
  0
CIRCLE
  5
171
330
2
100
AcDbEntity
  8
0
100
AcDbCircle
 10
2.187500000000002
 20
2.369761259382823
 30
0.0
 40
0.085937500000002
  0
ARC
  5
172
330
2
100
AcDbEntity
  8
0
100
AcDbCircle
 10
1.562500000000002
 20
2.240601157564228
 30
0.0
 40
1.0
100
AcDbArc
 50
313.9949139947457
 51
0.0
  0
CIRCLE
  5
173
330
2
100
AcDbEntity
  8
0
100
AcDbCircle
 10
1.375000000000002
 20
3.61289895958172
 30
0.0
 40
0.085937500000002
  0
LINE
  5
174
330
2
100
AcDbEntity
  8
0
100
AcDbLine
 10
2.875000000000002
 20
4.597273959581717
 30
0.0
 11
2.875000000000002
 21
5.347273959581717
 31
0.0
  0
CIRCLE
  5
175
330
2
100
AcDbEntity
  8
0
100
AcDbCircle
 10
1.375000000000002
 20
4.612898959581717
 30
0.0
 40
0.085937500000002
  0
ARC
  5
176
330
2
100
AcDbEntity
  8
0
100
AcDbCircle
 10
2.718750000000002
 20
4.597273959581717
 30
0.0
 40
0.15625
100
AcDbArc
 50
270.0000000000001
 51
0.0
  0
ARC
  5
177
330
2
100
AcDbEntity
  8
0
100
AcDbCircle
 10
2.718750000000002
 20
4.284773959581717
 30
0.0
 40
0.15625
100
AcDbArc
 50
89.99999999999999
 51
180.0
  0
LINE
  5
178
330
2
100
AcDbEntity
  8
0
100
AcDbLine
 10
2.718750000000002
 20
4.441023959581717
 30
0.0
 11
2.718750000000002
 21
4.441023959581717
 31
0.0
  0
CIRCLE
  5
179
330
2
100
AcDbEntity
  8
0
100
AcDbCircle
 10
2.547436653578247
 20
5.02601125938282
 30
0.0
 40
0.085937500000002
  0
CIRCLE
  5
17A
330
2
100
AcDbEntity
  8
0
100
AcDbCircle
 10
2.187500000000002
 20
5.86976125938282
 30
0.0
 40
0.085937500000002
  0
CIRCLE
  5
17B
330
2
100
AcDbEntity
  8
0
100
AcDbCircle
 10
1.375000000000002
 20
5.612898959581717
 30
0.0
 40
0.085937500000002
  0
LINE
  5
17C
330
2
100
AcDbEntity
  8
0
100
AcDbLine
 10
2.562500000000002
 20
5.659773959581717
 30
0.0
 11
2.562500000000002
 21
6.159773959581717
 31
0.0
  0
ARC
  5
17D
330
2
100
AcDbEntity
  8
0
100
AcDbCircle
 10
2.718750000000002
 20
5.659773959581717
 30
0.0
 40
0.15625
100
AcDbArc
 50
180.0000000000001
 51
270.0
  0
LINE
  5
17E
330
2
100
AcDbEntity
  8
0
100
AcDbLine
 10
2.718750000000002
 20
5.503523959581717
 30
0.0
 11
2.718750000000002
 21
5.503523959581717
 31
0.0
  0
ARC
  5
17F
330
2
100
AcDbEntity
  8
0
100
AcDbCircle
 10
2.718750000000002
 20
5.347273959581717
 30
0.0
 40
0.15625
100
AcDbArc
 50
0.0
 51
89.99999999999999
  0
ARC
  5
180
330
2
100
AcDbEntity
  8
0
100
AcDbCircle
 10
2.718750000000002
 20
6.159773959581717
 30
0.0
 40
0.15625
100
AcDbArc
 50
89.99999999999999
 51
180.0
  0
LINE
  5
181
330
2
100
AcDbEntity
  8
0
100
AcDbLine
 10
2.718750000000002
 20
6.316023959581717
 30
0.0
 11
2.718750000000002
 21
6.316023959581717
 31
0.0
  0
CIRCLE
  5
182
330
2
100
AcDbEntity
  8
0
100
AcDbCircle
 10
1.375000000000002
 20
6.737898959581717
 30
0.0
 40
0.085937500000002
  0
LINE
  5
183
330
2
100
AcDbEntity
  8
0
100
AcDbLine
 10
2.875000000000002
 20
6.472273959581717
 30
0.0
 11
2.875000000000002
 21
7.159773959581717
 31
0.0
  0
CIRCLE
  5
184
330
2
100
AcDbEntity
  8
0
100
AcDbCircle
 10
2.500000000000002
 20
6.86976125938282
 30
0.0
 40
0.085937500000002
  0
ARC
  5
185
330
2
100
AcDbEntity
  8
0
100
AcDbCircle
 10
-0.87672694893892
 20
3.91789911323572
 30
0.0
 40
0.0320532506230862
100
AcDbArc
 50
236.4891770443209
 51
269.9999999999936
  0
ARC
  5
186
330
2
100
AcDbEntity
  8
0
100
AcDbCircle
 10
-0.8616519303751336
 20
3.940665636850351
 30
0.0
 40
0.0593583926698527
100
AcDbArc
 50
212.0281066666074
 51
236.4891770443289
  0
ARC
  5
187
330
2
100
AcDbEntity
  8
0
100
AcDbCircle
 10
-0.837648504851451
 20
3.955681019472152
 30
0.0
 40
0.0876713959042334
100
AcDbArc
 50
194.5265478168139
 51
212.0281066666247
  0
ARC
  5
188
330
2
100
AcDbEntity
  8
0
100
AcDbCircle
 10
-0.7996250096753155
 20
3.965533362612611
 30
0.0
 40
0.1269505869698208
100
AcDbArc
 50
179.9999999999872
 51
194.5265478167842
  0
ARC
  5
189
330
2
100
AcDbEntity
  8
0
100
AcDbCircle
 10
-0.7996250096753439
 20
3.965533362612661
 30
0.0
 40
0.1269505869697927
100
AcDbArc
 50
165.4734521832125
 51
180.0000000000096
  0
ARC
  5
18A
330
2
100
AcDbEntity
  8
0
100
AcDbCircle
 10
-0.8376485048514564
 20
3.975385705753123
 30
0.0
 40
0.087671395904227
100
AcDbArc
 50
147.9718933333755
 51
165.4734521831875
  0
ARC
  5
18B
330
2
100
AcDbEntity
  8
0
100
AcDbCircle
 10
-0.8616519303751336
 20
3.99040108837492
 30
0.0
 40
0.0593583926698527
100
AcDbArc
 50
123.5108229556711
 51
147.9718933333926
  0
ARC
  5
18C
330
2
100
AcDbEntity
  8
0
100
AcDbCircle
 10
-0.87672694893892
 20
4.013167611989548
 30
0.0
 40
0.0320532506230895
100
AcDbArc
 50
90.00000000000637
 51
123.5108229556756
  0
ARC
  5
18D
330
2
100
AcDbEntity
  8
0
100
AcDbCircle
 10
-0.87672694893892
 20
3.90332963567937
 30
0.0
 40
0.0468087730667364
100
AcDbArc
 50
237.392078984802
 51
269.9999999999956
  0
ARC
  5
18E
330
2
100
AcDbEntity
  8
0
100
AcDbCircle
 10
-0.857684444647143
 20
3.933096502423453
 30
0.0
 40
0.0821454866301438
100
AcDbArc
 50
212.9226719024506
 51
237.3920789848061
  0
ARC
  5
18F
330
2
100
AcDbEntity
  8
0
100
AcDbCircle
 10
-0.827426533334096
 20
3.952688211419723
 30
0.0
 40
0.1181923486076126
100
AcDbArc
 50
195.0133710020016
 51
212.9226719024541
  0
ARC
  5
190
330
2
100
AcDbEntity
  8
0
100
AcDbCircle
 10
-0.7795324870007594
 20
3.965533362612632
 30
0.0
 40
0.1677790160026746
100
AcDbArc
 50
179.9999999999976
 51
195.0133710019948
  0
ARC
  5
191
330
2
100
AcDbEntity
  8
0
100
AcDbCircle
 10
-0.7795324870007896
 20
3.965533362612646
 30
0.0
 40
0.167779016002644
100
AcDbArc
 50
164.9866289980049
 51
180.0000000000024
  0
ARC
  5
192
330
2
100
AcDbEntity
  8
0
100
AcDbCircle
 10
-0.8274265333340996
 20
3.978378513805552
 30
0.0
 40
0.1181923486076083
100
AcDbArc
 50
147.0773280975464
 51
164.9866289979997
  0
ARC
  5
193
330
2
100
AcDbEntity
  8
0
100
AcDbCircle
 10
-0.8576844446471412
 20
3.997970222801818
 30
0.0
 40
0.0821454866301446
100
AcDbArc
 50
122.607921015195
 51
147.0773280975501
  0
ARC
  5
194
330
2
100
AcDbEntity
  8
0
100
AcDbCircle
 10
-0.87672694893892
 20
4.027737089545902
 30
0.0
 40
0.0468087730667357
100
AcDbArc
 50
90.00000000000435
 51
122.607921015198
  0
ARC
  5
195
330
2
100
AcDbEntity
  8
0
100
AcDbCircle
 10
-0.8743571293527559
 20
2.789279790502164
 30
0.0
 40
0.0320532506230862
100
AcDbArc
 50
236.4891770443209
 51
269.9999999999936
  0
ARC
  5
196
330
2
100
AcDbEntity
  8
0
100
AcDbCircle
 10
-0.8592821107889694
 20
2.812046314116795
 30
0.0
 40
0.0593583926698527
100
AcDbArc
 50
212.0281066666074
 51
236.4891770443289
  0
ARC
  5
197
330
2
100
AcDbEntity
  8
0
100
AcDbCircle
 10
-0.8352786852652869
 20
2.827061696738596
 30
0.0
 40
0.0876713959042334
100
AcDbArc
 50
194.5265478168139
 51
212.0281066666247
  0
ARC
  5
198
330
2
100
AcDbEntity
  8
0
100
AcDbCircle
 10
-0.7972551900891514
 20
2.836914039879055
 30
0.0
 40
0.1269505869698208
100
AcDbArc
 50
179.9999999999872
 51
194.5265478167842
  0
ARC
  5
199
330
2
100
AcDbEntity
  8
0
100
AcDbCircle
 10
-0.7972551900891798
 20
2.836914039879105
 30
0.0
 40
0.1269505869697927
100
AcDbArc
 50
165.4734521832125
 51
180.0000000000096
  0
ARC
  5
19A
330
2
100
AcDbEntity
  8
0
100
AcDbCircle
 10
-0.8352786852652923
 20
2.846766383019567
 30
0.0
 40
0.087671395904227
100
AcDbArc
 50
147.9718933333755
 51
165.4734521831875
  0
ARC
  5
19B
330
2
100
AcDbEntity
  8
0
100
AcDbCircle
 10
-0.8592821107889694
 20
2.861781765641364
 30
0.0
 40
0.0593583926698527
100
AcDbArc
 50
123.5108229556711
 51
147.9718933333926
  0
ARC
  5
19C
330
2
100
AcDbEntity
  8
0
100
AcDbCircle
 10
-0.8743571293527559
 20
2.884548289255992
 30
0.0
 40
0.0320532506230895
100
AcDbArc
 50
90.00000000000637
 51
123.5108229556756
  0
ARC
  5
19D
330
2
100
AcDbEntity
  8
0
100
AcDbCircle
 10
-0.8743571293527559
 20
2.774710312945814
 30
0.0
 40
0.0468087730667364
100
AcDbArc
 50
237.392078984802
 51
269.9999999999956
  0
ARC
  5
19E
330
2
100
AcDbEntity
  8
0
100
AcDbCircle
 10
-0.8553146250609789
 20
2.804477179689897
 30
0.0
 40
0.0821454866301438
100
AcDbArc
 50
212.9226719024506
 51
237.3920789848061
  0
ARC
  5
19F
330
2
100
AcDbEntity
  8
0
100
AcDbCircle
 10
-0.8250567137479319
 20
2.824068888686167
 30
0.0
 40
0.1181923486076126
100
AcDbArc
 50
195.0133710020016
 51
212.9226719024541
  0
ARC
  5
1A0
330
2
100
AcDbEntity
  8
0
100
AcDbCircle
 10
-0.7771626674145953
 20
2.836914039879076
 30
0.0
 40
0.1677790160026746
100
AcDbArc
 50
179.9999999999976
 51
195.0133710019948
  0
ARC
  5
1A1
330
2
100
AcDbEntity
  8
0
100
AcDbCircle
 10
-0.7771626674146255
 20
2.83691403987909
 30
0.0
 40
0.167779016002644
100
AcDbArc
 50
164.9866289980049
 51
180.0000000000024
  0
ARC
  5
1A2
330
2
100
AcDbEntity
  8
0
100
AcDbCircle
 10
-0.8250567137479354
 20
2.849759191071996
 30
0.0
 40
0.1181923486076083
100
AcDbArc
 50
147.0773280975464
 51
164.9866289979997
  0
ARC
  5
1A3
330
2
100
AcDbEntity
  8
0
100
AcDbCircle
 10
-0.8553146250609771
 20
2.869350900068262
 30
0.0
 40
0.0821454866301446
100
AcDbArc
 50
122.607921015195
 51
147.0773280975501
  0
ARC
  5
1A4
330
2
100
AcDbEntity
  8
0
100
AcDbCircle
 10
-0.8743571293527559
 20
2.899117766812346
 30
0.0
 40
0.0468087730667357
100
AcDbArc
 50
90.00000000000435
 51
122.607921015198
  0
ARC
  5
1A5
330
2
100
AcDbEntity
  8
0
100
AcDbCircle
 10
0.8750000000000142
 20
2.468975155091783
 30
0.0
 40
0.0468087730667364
100
AcDbArc
 50
270.0000000000044
 51
302.607921015198
  0
ARC
  5
1A6
330
2
100
AcDbEntity
  8
0
100
AcDbCircle
 10
0.8559574957082372
 20
2.498742021835867
 30
0.0
 40
0.0821454866301438
100
AcDbArc
 50
302.6079210151939
 51
327.0773280975494
  0
ARC
  5
1A7
330
2
100
AcDbEntity
  8
0
100
AcDbCircle
 10
0.8256995843951902
 20
2.518333730832136
 30
0.0
 40
0.1181923486076126
100
AcDbArc
 50
327.0773280975459
 51
344.9866289979984
  0
ARC
  5
1A8
330
2
100
AcDbEntity
  8
0
100
AcDbCircle
 10
0.7778055380618536
 20
2.531178882025046
 30
0.0
 40
0.1677790160026746
100
AcDbArc
 50
344.9866289980052
 51
0.0000000000024265
  0
ARC
  5
1A9
330
2
100
AcDbEntity
  8
0
100
AcDbCircle
 10
0.7778055380618838
 20
2.53117888202506
 30
0.0
 40
0.167779016002644
100
AcDbArc
 50
359.9999999999976
 51
15.0133710019951
  0
ARC
  5
1AA
330
2
100
AcDbEntity
  8
0
100
AcDbCircle
 10
0.8256995843951938
 20
2.544024033217966
 30
0.0
 40
0.1181923486076083
100
AcDbArc
 50
15.01337100200033
 51
32.9226719024536
  0
ARC
  5
1AB
330
2
100
AcDbEntity
  8
0
100
AcDbCircle
 10
0.8559574957082354
 20
2.563615742214232
 30
0.0
 40
0.0821454866301446
100
AcDbArc
 50
32.92267190244989
 51
57.39207898480503
  0
ARC
  5
1AC
330
2
100
AcDbEntity
  8
0
100
AcDbCircle
 10
0.8750000000000142
 20
2.593382608958315
 30
0.0
 40
0.0468087730667357
100
AcDbArc
 50
57.39207898480197
 51
89.99999999999565
  0
ARC
  5
1AD
330
2
100
AcDbEntity
  8
0
100
AcDbCircle
 10
0.8750000000000142
 20
2.483544632648133
 30
0.0
 40
0.0320532506230862
100
AcDbArc
 50
270.0000000000064
 51
303.5108229556791
  0
ARC
  5
1AE
330
2
100
AcDbEntity
  8
0
100
AcDbCircle
 10
0.8599249814362278
 20
2.506311156262765
 30
0.0
 40
0.0593583926698527
100
AcDbArc
 50
303.5108229556711
 51
327.9718933333926
  0
ARC
  5
1AF
330
2
100
AcDbEntity
  8
0
100
AcDbCircle
 10
0.8359215559125452
 20
2.521326538884566
 30
0.0
 40
0.0876713959042334
100
AcDbArc
 50
327.9718933333754
 51
345.4734521831862
  0
ARC
  5
1B0
330
2
100
AcDbEntity
  8
0
100
AcDbCircle
 10
0.7978980607364097
 20
2.531178882025024
 30
0.0
 40
0.1269505869698208
100
AcDbArc
 50
345.4734521832157
 51
0.0000000000128274
  0
ARC
  5
1B1
330
2
100
AcDbEntity
  8
0
100
AcDbCircle
 10
0.7978980607364381
 20
2.531178882025074
 30
0.0
 40
0.1269505869697927
100
AcDbArc
 50
359.9999999999904
 51
14.52654781678748
  0
ARC
  5
1B2
330
2
100
AcDbEntity
  8
0
100
AcDbCircle
 10
0.8359215559125506
 20
2.541031225165536
 30
0.0
 40
0.087671395904227
100
AcDbArc
 50
14.52654781681249
 51
32.0281066666245
  0
ARC
  5
1B3
330
2
100
AcDbEntity
  8
0
100
AcDbCircle
 10
0.8599249814362278
 20
2.556046607787334
 30
0.0
 40
0.0593583926698527
100
AcDbArc
 50
32.02810666660741
 51
56.48917704432887
  0
ARC
  5
1B4
330
2
100
AcDbEntity
  8
0
100
AcDbCircle
 10
0.8750000000000142
 20
2.578813131401962
 30
0.0
 40
0.0320532506230895
100
AcDbArc
 50
56.48917704432444
 51
89.99999999999365
  0
ARC
  5
1B5
330
2
100
AcDbEntity
  8
0
100
AcDbCircle
 10
0.8750000000000142
 20
3.586231359976836
 30
0.0
 40
0.0468087730667364
100
AcDbArc
 50
270.0000000000044
 51
302.607921015198
  0
ARC
  5
1B6
330
2
100
AcDbEntity
  8
0
100
AcDbCircle
 10
0.8559574957082372
 20
3.615998226720919
 30
0.0
 40
0.0821454866301438
100
AcDbArc
 50
302.6079210151939
 51
327.0773280975494
  0
ARC
  5
1B7
330
2
100
AcDbEntity
  8
0
100
AcDbCircle
 10
0.8256995843951902
 20
3.635589935717189
 30
0.0
 40
0.1181923486076126
100
AcDbArc
 50
327.0773280975459
 51
344.9866289979984
  0
ARC
  5
1B8
330
2
100
AcDbEntity
  8
0
100
AcDbCircle
 10
0.7778055380618536
 20
3.648435086910098
 30
0.0
 40
0.1677790160026746
100
AcDbArc
 50
344.9866289980052
 51
0.0000000000024265
  0
ARC
  5
1B9
330
2
100
AcDbEntity
  8
0
100
AcDbCircle
 10
0.7778055380618838
 20
3.648435086910112
 30
0.0
 40
0.167779016002644
100
AcDbArc
 50
359.9999999999976
 51
15.0133710019951
  0
ARC
  5
1BA
330
2
100
AcDbEntity
  8
0
100
AcDbCircle
 10
0.8256995843951938
 20
3.661280238103018
 30
0.0
 40
0.1181923486076083
100
AcDbArc
 50
15.01337100200033
 51
32.9226719024536
  0
ARC
  5
1BB
330
2
100
AcDbEntity
  8
0
100
AcDbCircle
 10
0.8559574957082354
 20
3.680871947099284
 30
0.0
 40
0.0821454866301446
100
AcDbArc
 50
32.92267190244989
 51
57.39207898480503
  0
ARC
  5
1BC
330
2
100
AcDbEntity
  8
0
100
AcDbCircle
 10
0.8750000000000142
 20
3.710638813843367
 30
0.0
 40
0.0468087730667357
100
AcDbArc
 50
57.39207898480197
 51
89.99999999999565
  0
ARC
  5
1BD
330
2
100
AcDbEntity
  8
0
100
AcDbCircle
 10
0.8750000000000142
 20
3.600800837533186
 30
0.0
 40
0.0320532506230862
100
AcDbArc
 50
270.0000000000064
 51
303.5108229556791
  0
ARC
  5
1BE
330
2
100
AcDbEntity
  8
0
100
AcDbCircle
 10
0.8599249814362278
 20
3.623567361147817
 30
0.0
 40
0.0593583926698527
100
AcDbArc
 50
303.5108229556711
 51
327.9718933333926
  0
ARC
  5
1BF
330
2
100
AcDbEntity
  8
0
100
AcDbCircle
 10
0.8359215559125452
 20
3.638582743769618
 30
0.0
 40
0.0876713959042334
100
AcDbArc
 50
327.9718933333754
 51
345.4734521831862
  0
ARC
  5
1C0
330
2
100
AcDbEntity
  8
0
100
AcDbCircle
 10
0.7978980607364097
 20
3.648435086910077
 30
0.0
 40
0.1269505869698208
100
AcDbArc
 50
345.4734521832157
 51
0.0000000000128274
  0
ARC
  5
1C1
330
2
100
AcDbEntity
  8
0
100
AcDbCircle
 10
0.7978980607364381
 20
3.648435086910126
 30
0.0
 40
0.1269505869697927
100
AcDbArc
 50
359.9999999999904
 51
14.52654781678748
  0
ARC
  5
1C2
330
2
100
AcDbEntity
  8
0
100
AcDbCircle
 10
0.8359215559125506
 20
3.658287430050589
 30
0.0
 40
0.087671395904227
100
AcDbArc
 50
14.52654781681249
 51
32.0281066666245
  0
ARC
  5
1C3
330
2
100
AcDbEntity
  8
0
100
AcDbCircle
 10
0.8599249814362278
 20
3.673302812672386
 30
0.0
 40
0.0593583926698527
100
AcDbArc
 50
32.02810666660741
 51
56.48917704432887
  0
ARC
  5
1C4
330
2
100
AcDbEntity
  8
0
100
AcDbCircle
 10
0.8750000000000142
 20
3.696069336287014
 30
0.0
 40
0.0320532506230895
100
AcDbArc
 50
56.48917704432444
 51
89.99999999999365
  0
ARC
  5
1C5
330
2
100
AcDbEntity
  8
0
100
AcDbCircle
 10
-0.8734812733510573
 20
6.101236013211562
 30
0.0
 40
0.0320532506230862
100
AcDbArc
 50
236.4891770443209
 51
269.9999999999936
  0
ARC
  5
1C6
330
2
100
AcDbEntity
  8
0
100
AcDbCircle
 10
-0.8584062547872708
 20
6.124002536826193
 30
0.0
 40
0.0593583926698527
100
AcDbArc
 50
212.0281066666074
 51
236.4891770443289
  0
ARC
  5
1C7
330
2
100
AcDbEntity
  8
0
100
AcDbCircle
 10
-0.8344028292635883
 20
6.139017919447994
 30
0.0
 40
0.0876713959042334
100
AcDbArc
 50
194.5265478168139
 51
212.0281066666247
  0
ARC
  5
1C8
330
2
100
AcDbEntity
  8
0
100
AcDbCircle
 10
-0.7963793340874528
 20
6.148870262588453
 30
0.0
 40
0.1269505869698208
100
AcDbArc
 50
179.9999999999872
 51
194.5265478167842
  0
ARC
  5
1C9
330
2
100
AcDbEntity
  8
0
100
AcDbCircle
 10
-0.7963793340874812
 20
6.148870262588503
 30
0.0
 40
0.1269505869697927
100
AcDbArc
 50
165.4734521832125
 51
180.0000000000096
  0
ARC
  5
1CA
330
2
100
AcDbEntity
  8
0
100
AcDbCircle
 10
-0.8344028292635937
 20
6.158722605728965
 30
0.0
 40
0.087671395904227
100
AcDbArc
 50
147.9718933333755
 51
165.4734521831875
  0
ARC
  5
1CB
330
2
100
AcDbEntity
  8
0
100
AcDbCircle
 10
-0.8584062547872708
 20
6.173737988350762
 30
0.0
 40
0.0593583926698527
100
AcDbArc
 50
123.5108229556711
 51
147.9718933333926
  0
ARC
  5
1CC
330
2
100
AcDbEntity
  8
0
100
AcDbCircle
 10
-0.8734812733510573
 20
6.19650451196539
 30
0.0
 40
0.0320532506230895
100
AcDbArc
 50
90.00000000000637
 51
123.5108229556756
  0
ARC
  5
1CD
330
2
100
AcDbEntity
  8
0
100
AcDbCircle
 10
-0.8734812733510573
 20
6.086666535655212
 30
0.0
 40
0.0468087730667364
100
AcDbArc
 50
237.392078984802
 51
269.9999999999956
  0
ARC
  5
1CE
330
2
100
AcDbEntity
  8
0
100
AcDbCircle
 10
-0.8544387690592803
 20
6.116433402399295
 30
0.0
 40
0.0821454866301438
100
AcDbArc
 50
212.9226719024506
 51
237.3920789848061
  0
ARC
  5
1CF
330
2
100
AcDbEntity
  8
0
100
AcDbCircle
 10
-0.8241808577462333
 20
6.136025111395565
 30
0.0
 40
0.1181923486076126
100
AcDbArc
 50
195.0133710020016
 51
212.9226719024541
  0
ARC
  5
1D0
330
2
100
AcDbEntity
  8
0
100
AcDbCircle
 10
-0.7762868114128967
 20
6.148870262588474
 30
0.0
 40
0.1677790160026746
100
AcDbArc
 50
179.9999999999976
 51
195.0133710019948
  0
ARC
  5
1D1
330
2
100
AcDbEntity
  8
0
100
AcDbCircle
 10
-0.7762868114129269
 20
6.148870262588488
 30
0.0
 40
0.167779016002644
100
AcDbArc
 50
164.9866289980049
 51
180.0000000000024
  0
ARC
  5
1D2
330
2
100
AcDbEntity
  8
0
100
AcDbCircle
 10
-0.8241808577462368
 20
6.161715413781394
 30
0.0
 40
0.1181923486076083
100
AcDbArc
 50
147.0773280975464
 51
164.9866289979997
  0
ARC
  5
1D3
330
2
100
AcDbEntity
  8
0
100
AcDbCircle
 10
-0.8544387690592785
 20
6.18130712277766
 30
0.0
 40
0.0821454866301446
100
AcDbArc
 50
122.607921015195
 51
147.0773280975501
  0
ARC
  5
1D4
330
2
100
AcDbEntity
  8
0
100
AcDbCircle
 10
-0.8734812733510573
 20
6.211073989521744
 30
0.0
 40
0.0468087730667357
100
AcDbArc
 50
90.00000000000435
 51
122.607921015198
  0
ARC
  5
1D5
330
2
100
AcDbEntity
  8
0
100
AcDbCircle
 10
0.8750000000000142
 20
5.838807532449494
 30
0.0
 40
0.0468087730667364
100
AcDbArc
 50
270.0000000000044
 51
302.607921015198
  0
ARC
  5
1D6
330
2
100
AcDbEntity
  8
0
100
AcDbCircle
 10
0.8559574957082372
 20
5.868574399193577
 30
0.0
 40
0.0821454866301438
100
AcDbArc
 50
302.6079210151939
 51
327.0773280975494
  0
ARC
  5
1D7
330
2
100
AcDbEntity
  8
0
100
AcDbCircle
 10
0.8256995843951902
 20
5.888166108189846
 30
0.0
 40
0.1181923486076126
100
AcDbArc
 50
327.0773280975459
 51
344.9866289979984
  0
ARC
  5
1D8
330
2
100
AcDbEntity
  8
0
100
AcDbCircle
 10
0.7778055380618536
 20
5.901011259382756
 30
0.0
 40
0.1677790160026746
100
AcDbArc
 50
344.9866289980052
 51
0.0000000000024265
  0
ARC
  5
1D9
330
2
100
AcDbEntity
  8
0
100
AcDbCircle
 10
0.7778055380618838
 20
5.90101125938277
 30
0.0
 40
0.167779016002644
100
AcDbArc
 50
359.9999999999976
 51
15.0133710019951
  0
ARC
  5
1DA
330
2
100
AcDbEntity
  8
0
100
AcDbCircle
 10
0.8256995843951938
 20
5.913856410575676
 30
0.0
 40
0.1181923486076083
100
AcDbArc
 50
15.01337100200033
 51
32.9226719024536
  0
ARC
  5
1DB
330
2
100
AcDbEntity
  8
0
100
AcDbCircle
 10
0.8559574957082354
 20
5.933448119571942
 30
0.0
 40
0.0821454866301446
100
AcDbArc
 50
32.92267190244989
 51
57.39207898480503
  0
ARC
  5
1DC
330
2
100
AcDbEntity
  8
0
100
AcDbCircle
 10
0.8750000000000142
 20
5.963214986316025
 30
0.0
 40
0.0468087730667357
100
AcDbArc
 50
57.39207898480197
 51
89.99999999999565
  0
ARC
  5
1DD
330
2
100
AcDbEntity
  8
0
100
AcDbCircle
 10
0.8750000000000142
 20
5.853377010005843
 30
0.0
 40
0.0320532506230862
100
AcDbArc
 50
270.0000000000064
 51
303.5108229556791
  0
ARC
  5
1DE
330
2
100
AcDbEntity
  8
0
100
AcDbCircle
 10
0.8599249814362278
 20
5.876143533620475
 30
0.0
 40
0.0593583926698527
100
AcDbArc
 50
303.5108229556711
 51
327.9718933333926
  0
ARC
  5
1DF
330
2
100
AcDbEntity
  8
0
100
AcDbCircle
 10
0.8359215559125452
 20
5.891158916242276
 30
0.0
 40
0.0876713959042334
100
AcDbArc
 50
327.9718933333754
 51
345.4734521831862
  0
ARC
  5
1E0
330
2
100
AcDbEntity
  8
0
100
AcDbCircle
 10
0.7978980607364097
 20
5.901011259382734
 30
0.0
 40
0.1269505869698208
100
AcDbArc
 50
345.4734521832157
 51
0.0000000000128274
  0
ARC
  5
1E1
330
2
100
AcDbEntity
  8
0
100
AcDbCircle
 10
0.7978980607364381
 20
5.901011259382784
 30
0.0
 40
0.1269505869697927
100
AcDbArc
 50
359.9999999999904
 51
14.52654781678748
  0
ARC
  5
1E2
330
2
100
AcDbEntity
  8
0
100
AcDbCircle
 10
0.8359215559125506
 20
5.910863602523246
 30
0.0
 40
0.087671395904227
100
AcDbArc
 50
14.52654781681249
 51
32.0281066666245
  0
ARC
  5
1E3
330
2
100
AcDbEntity
  8
0
100
AcDbCircle
 10
0.8599249814362278
 20
5.925878985145044
 30
0.0
 40
0.0593583926698527
100
AcDbArc
 50
32.02810666660741
 51
56.48917704432887
  0
ARC
  5
1E4
330
2
100
AcDbEntity
  8
0
100
AcDbCircle
 10
0.8750000000000142
 20
5.948645508759672
 30
0.0
 40
0.0320532506230895
100
AcDbArc
 50
56.48917704432444
 51
89.99999999999365
  0
ARC
  5
1E6
330
2
100
AcDbEntity
  8
0
100
AcDbCircle
 10
-0.9371451508140396
 20
12.2788040082005
 30
0.0
 40
0.0625
100
AcDbArc
 50
315.0000000000001
 51
0.0
  0
LINE
  5
1E8
330
2
100
AcDbEntity
  8
0
100
AcDbLine
 10
-0.9993102558781004
 20
12.12825055548812
 30
0.0
 11
-0.8746451508140396
 21
12.05766600142361
 31
0.0
  0
LINE
  5
1EA
330
2
100
AcDbEntity
  8
0
100
AcDbLine
 10
-0.89295097698988
 20
12.23460983437634
 30
0.0
 11
-0.9993102558780986
 21
12.12825055548812
 31
0.0
  0
LINE
  5
1EB
330
2
100
AcDbEntity
  8
0
100
AcDbLine
 10
0.9996651050640324
 20
12.12825055548812
 30
0.0
 11
0.8749999999999716
 21
12.05766600142361
 31
0.0
  0
LINE
  5
1EC
330
2
100
AcDbEntity
  8
0
100
AcDbLine
 10
0.893305826175812
 20
12.23460983437634
 30
0.0
 11
0.9996651050640306
 21
12.12825055548812
 31
0.0
  0
ARC
  5
1F0
330
2
100
AcDbEntity
  8
0
100
AcDbCircle
 10
0.9374999999999716
 20
12.2788040082005
 30
0.0
 40
0.0625
100
AcDbArc
 50
180.0
 51
224.9999999999999
  0
LINE
  5
1F1
330
2
100
AcDbEntity
  8
0
100
AcDbLine
 10
7.805265649420607
 20
2.301136441180566
 30
0.0
 11
7.805265649420607
 21
2.57781144118057
 31
0.0
  0
LWPOLYLINE
  5
1F2
330
2
100
AcDbEntity
  8
0
100
AcDbPolyline
 90
        9
 70
     0
 43
0.0
 10
7.805265649420607
 20
2.330461441180566
 42
0.1432467981947568
 10
7.830490300276063
 20
2.337839538051815
 42
0.1071754848060475
 10
7.855176466246649
 20
2.362390463196467
 42
0.0783035184710328
 10
7.87012313386901
 20
2.396011717547266
 42
0.0656020556757086
 10
7.875850203485117
 20
2.439473941180571
 42
0.0656020556757101
 10
7.87012313386901
 20
2.48293616481387
 42
0.0783035184710357
 10
7.855176466246649
 20
2.516557419164668
 42
0.1071754848060445
 10
7.830490300276063
 20
2.54110834430932
 42
0.1432467981947535
 10
7.805265649420607
 20
2.54848644118057
 42
0.1432467981947515
  0
LWPOLYLINE
  5
1F4
330
2
100
AcDbEntity
  8
0
100
AcDbPolyline
 90
        9
 70
     0
 43
0.0
 10
7.805265649420607
 20
2.359786441180566
 42
0.147269582437036
 10
7.822962072583147
 20
2.36511428286836
 42
0.1071386913803464
 10
7.840513966246649
 20
2.383126369554764
 42
0.0765137470862007
 10
7.851055880293417
 20
2.407631107588925
 42
0.063469041210727
 10
7.85511429712682
 20
2.439473941180571
 42
0.0634690412107267
 10
7.851055880293417
 20
2.471316774772211
 42
0.0765137470862059
 10
7.840513966246649
 20
2.495821512806371
 42
0.1071386913803463
 10
7.822962072583147
 20
2.513833599492775
 42
0.1472695824370325
 10
7.805265649420607
 20
2.51916144118057
 42
0.1472695824370333
  0
LINE
  5
1F5
330
2
100
AcDbEntity
  8
0
100
AcDbLine
 10
7.805265649420607
 20
3.450414863445586
 30
0.0
 11
7.805265649420607
 21
3.72708986344559
 31
0.0
  0
LWPOLYLINE
  5
1F6
330
2
100
AcDbEntity
  8
0
100
AcDbPolyline
 90
        9
 70
     0
 43
0.0
 10
7.805265649420607
 20
3.479739863445586
 42
0.1432467981947568
 10
7.830490300276063
 20
3.487117960316835
 42
0.1071754848060475
 10
7.855176466246649
 20
3.511668885461488
 42
0.0783035184710328
 10
7.87012313386901
 20
3.545290139812286
 42
0.0656020556757086
 10
7.875850203485117
 20
3.588752363445591
 42
0.0656020556757101
 10
7.87012313386901
 20
3.63221458707889
 42
0.0783035184710357
 10
7.855176466246649
 20
3.665835841429688
 42
0.1071754848060445
 10
7.830490300276063
 20
3.69038676657434
 42
0.1432467981947535
 10
7.805265649420607
 20
3.69776486344559
 42
0.1432467981947515
  0
LWPOLYLINE
  5
1F8
330
2
100
AcDbEntity
  8
0
100
AcDbPolyline
 90
        9
 70
     0
 43
0.0
 10
7.805265649420607
 20
3.509064863445586
 42
0.147269582437036
 10
7.822962072583147
 20
3.51439270513338
 42
0.1071386913803464
 10
7.840513966246649
 20
3.532404791819785
 42
0.0765137470862007
 10
7.851055880293417
 20
3.556909529853945
 42
0.063469041210727
 10
7.85511429712682
 20
3.588752363445591
 42
0.0634690412107267
 10
7.851055880293417
 20
3.620595197037231
 42
0.0765137470862059
 10
7.840513966246649
 20
3.645099935071391
 42
0.1071386913803463
 10
7.822962072583147
 20
3.663112021757796
 42
0.1472695824370325
 10
7.805265649420607
 20
3.66843986344559
 42
0.1472695824370333
  0
LINE
  5
1F9
330
2
100
AcDbEntity
  8
0
100
AcDbLine
 10
7.80526564942061
 20
5.702991035918243
 30
0.0
 11
7.80526564942061
 21
5.979666035918248
 31
0.0
  0
LWPOLYLINE
  5
1FA
330
2
100
AcDbEntity
  8
0
100
AcDbPolyline
 90
        9
 70
     0
 43
0.0
 10
7.80526564942061
 20
5.732316035918244
 42
0.1432467981947568
 10
7.830490300276066
 20
5.739694132789493
 42
0.1071754848060475
 10
7.855176466246652
 20
5.764245057934145
 42
0.0783035184710328
 10
7.870123133869013
 20
5.797866312284944
 42
0.0656020556757086
 10
7.87585020348512
 20
5.841328535918249
 42
0.0656020556757101
 10
7.870123133869013
 20
5.884790759551548
 42
0.0783035184710357
 10
7.855176466246652
 20
5.918412013902346
 42
0.1071754848060445
 10
7.830490300276066
 20
5.942962939046998
 42
0.1432467981947535
 10
7.80526564942061
 20
5.950341035918248
 42
0.1432467981947515
  0
LWPOLYLINE
  5
1FC
330
2
100
AcDbEntity
  8
0
100
AcDbPolyline
 90
        9
 70
     0
 43
0.0
 10
7.80526564942061
 20
5.761641035918244
 42
0.147269582437036
 10
7.822962072583151
 20
5.766968877606038
 42
0.1071386913803464
 10
7.840513966246652
 20
5.784980964292442
 42
0.0765137470862007
 10
7.851055880293421
 20
5.809485702326603
 42
0.063469041210727
 10
7.855114297126823
 20
5.841328535918249
 42
0.0634690412107267
 10
7.851055880293421
 20
5.873171369509889
 42
0.0765137470862059
 10
7.840513966246652
 20
5.897676107544049
 42
0.1071386913803463
 10
7.822962072583151
 20
5.915688194230453
 42
0.1472695824370325
 10
7.80526564942061
 20
5.921016035918248
 42
0.1472695824370333
  0
ARC
  5
1FD
330
2
100
AcDbEntity
  8
0
100
AcDbCircle
 10
-0.8746570893347432
 20
0.9148189917537621
 30
0.0
 40
0.0320532506230862
100
AcDbArc
 50
236.4891770443209
 51
269.9999999999936
  0
ARC
  5
1FE
330
2
100
AcDbEntity
  8
0
100
AcDbCircle
 10
-0.8595820707709567
 20
0.9375855153683936
 30
0.0
 40
0.0593583926698527
100
AcDbArc
 50
212.0281066666074
 51
236.4891770443289
  0
ARC
  5
1FF
330
2
100
AcDbEntity
  8
0
100
AcDbCircle
 10
-0.8355786452472742
 20
0.9526008979901945
 30
0.0
 40
0.0876713959042334
100
AcDbArc
 50
194.5265478168139
 51
212.0281066666247
  0
ARC
  5
200
330
2
100
AcDbEntity
  8
0
100
AcDbCircle
 10
-0.7975551500711386
 20
0.9624532411306532
 30
0.0
 40
0.1269505869698208
100
AcDbArc
 50
179.9999999999872
 51
194.5265478167842
  0
ARC
  5
201
330
2
100
AcDbEntity
  8
0
100
AcDbCircle
 10
-0.7975551500711671
 20
0.962453241130703
 30
0.0
 40
0.1269505869697927
100
AcDbArc
 50
165.4734521832125
 51
180.0000000000096
  0
ARC
  5
202
330
2
100
AcDbEntity
  8
0
100
AcDbCircle
 10
-0.8355786452472795
 20
0.9723055842711652
 30
0.0
 40
0.087671395904227
100
AcDbArc
 50
147.9718933333755
 51
165.4734521831875
  0
ARC
  5
203
330
2
100
AcDbEntity
  8
0
100
AcDbCircle
 10
-0.8595820707709567
 20
0.9873209668929626
 30
0.0
 40
0.0593583926698527
100
AcDbArc
 50
123.5108229556711
 51
147.9718933333926
  0
ARC
  5
204
330
2
100
AcDbEntity
  8
0
100
AcDbCircle
 10
-0.8746570893347432
 20
1.010087490507591
 30
0.0
 40
0.0320532506230895
100
AcDbArc
 50
90.00000000000637
 51
123.5108229556756
  0
ARC
  5
205
330
2
100
AcDbEntity
  8
0
100
AcDbCircle
 10
-0.8746570893347432
 20
0.9002495141974123
 30
0.0
 40
0.0468087730667364
100
AcDbArc
 50
237.392078984802
 51
269.9999999999956
  0
ARC
  5
206
330
2
100
AcDbEntity
  8
0
100
AcDbCircle
 10
-0.8556145850429662
 20
0.9300163809414954
 30
0.0
 40
0.0821454866301438
100
AcDbArc
 50
212.9226719024506
 51
237.3920789848061
  0
ARC
  5
207
330
2
100
AcDbEntity
  8
0
100
AcDbCircle
 10
-0.8253566737299192
 20
0.9496080899377652
 30
0.0
 40
0.1181923486076126
100
AcDbArc
 50
195.0133710020016
 51
212.9226719024541
  0
ARC
  5
208
330
2
100
AcDbEntity
  8
0
100
AcDbCircle
 10
-0.7774626273965826
 20
0.9624532411306745
 30
0.0
 40
0.1677790160026746
100
AcDbArc
 50
179.9999999999976
 51
195.0133710019948
  0
ARC
  5
209
330
2
100
AcDbEntity
  8
0
100
AcDbCircle
 10
-0.7774626273966128
 20
0.9624532411306888
 30
0.0
 40
0.167779016002644
100
AcDbArc
 50
164.9866289980049
 51
180.0000000000024
  0
ARC
  5
20A
330
2
100
AcDbEntity
  8
0
100
AcDbCircle
 10
-0.8253566737299227
 20
0.9752983923235945
 30
0.0
 40
0.1181923486076083
100
AcDbArc
 50
147.0773280975464
 51
164.9866289979997
  0
ARC
  5
20B
330
2
100
AcDbEntity
  8
0
100
AcDbCircle
 10
-0.8556145850429644
 20
0.9948901013198608
 30
0.0
 40
0.0821454866301446
100
AcDbArc
 50
122.607921015195
 51
147.0773280975501
  0
ARC
  5
20C
330
2
100
AcDbEntity
  8
0
100
AcDbCircle
 10
-0.8746570893347432
 20
1.024656968063944
 30
0.0
 40
0.0468087730667357
100
AcDbArc
 50
90.00000000000435
 51
122.607921015198
  0
ARC
  5
20D
330
2
100
AcDbEntity
  8
0
100
AcDbCircle
 10
0.8750000000000142
 20
0.7202568285382824
 30
0.0
 40
0.0468087730667364
100
AcDbArc
 50
270.0000000000044
 51
302.607921015198
  0
ARC
  5
20E
330
2
100
AcDbEntity
  8
0
100
AcDbCircle
 10
0.8559574957082372
 20
0.7500236952823656
 30
0.0
 40
0.0821454866301438
100
AcDbArc
 50
302.6079210151939
 51
327.0773280975494
  0
ARC
  5
20F
330
2
100
AcDbEntity
  8
0
100
AcDbCircle
 10
0.8256995843951902
 20
0.7696154042786354
 30
0.0
 40
0.1181923486076126
100
AcDbArc
 50
327.0773280975459
 51
344.9866289979984
  0
ARC
  5
210
330
2
100
AcDbEntity
  8
0
100
AcDbCircle
 10
0.7778055380618536
 20
0.7824605554715447
 30
0.0
 40
0.1677790160026746
100
AcDbArc
 50
344.9866289980052
 51
0.0000000000024265
  0
ARC
  5
211
330
2
100
AcDbEntity
  8
0
100
AcDbCircle
 10
0.7778055380618838
 20
0.7824605554715589
 30
0.0
 40
0.167779016002644
100
AcDbArc
 50
359.9999999999976
 51
15.0133710019951
  0
ARC
  5
212
330
2
100
AcDbEntity
  8
0
100
AcDbCircle
 10
0.8256995843951938
 20
0.7953057066644647
 30
0.0
 40
0.1181923486076083
100
AcDbArc
 50
15.01337100200033
 51
32.9226719024536
  0
ARC
  5
213
330
2
100
AcDbEntity
  8
0
100
AcDbCircle
 10
0.8559574957082354
 20
0.8148974156607309
 30
0.0
 40
0.0821454866301446
100
AcDbArc
 50
32.92267190244989
 51
57.39207898480503
  0
ARC
  5
214
330
2
100
AcDbEntity
  8
0
100
AcDbCircle
 10
0.8750000000000142
 20
0.8446642824048141
 30
0.0
 40
0.0468087730667357
100
AcDbArc
 50
57.39207898480197
 51
89.99999999999565
  0
ARC
  5
215
330
2
100
AcDbEntity
  8
0
100
AcDbCircle
 10
0.8750000000000142
 20
0.7348263060946323
 30
0.0
 40
0.0320532506230862
100
AcDbArc
 50
270.0000000000064
 51
303.5108229556791
  0
ARC
  5
216
330
2
100
AcDbEntity
  8
0
100
AcDbCircle
 10
0.8599249814362278
 20
0.7575928297092638
 30
0.0
 40
0.0593583926698527
100
AcDbArc
 50
303.5108229556711
 51
327.9718933333926
  0
ARC
  5
217
330
2
100
AcDbEntity
  8
0
100
AcDbCircle
 10
0.8359215559125452
 20
0.7726082123310647
 30
0.0
 40
0.0876713959042334
100
AcDbArc
 50
327.9718933333754
 51
345.4734521831862
  0
ARC
  5
218
330
2
100
AcDbEntity
  8
0
100
AcDbCircle
 10
0.7978980607364097
 20
0.7824605554715234
 30
0.0
 40
0.1269505869698208
100
AcDbArc
 50
345.4734521832157
 51
0.0000000000128274
  0
ARC
  5
219
330
2
100
AcDbEntity
  8
0
100
AcDbCircle
 10
0.7978980607364381
 20
0.7824605554715731
 30
0.0
 40
0.1269505869697927
100
AcDbArc
 50
359.9999999999904
 51
14.52654781678748
  0
ARC
  5
21A
330
2
100
AcDbEntity
  8
0
100
AcDbCircle
 10
0.8359215559125506
 20
0.7923128986120354
 30
0.0
 40
0.087671395904227
100
AcDbArc
 50
14.52654781681249
 51
32.0281066666245
  0
ARC
  5
21B
330
2
100
AcDbEntity
  8
0
100
AcDbCircle
 10
0.8599249814362278
 20
0.8073282812338327
 30
0.0
 40
0.0593583926698527
100
AcDbArc
 50
32.02810666660741
 51
56.48917704432887
  0
ARC
  5
21C
330
2
100
AcDbEntity
  8
0
100
AcDbCircle
 10
0.8750000000000142
 20
0.8300948048484607
 30
0.0
 40
0.0320532506230895
100
AcDbArc
 50
56.48917704432444
 51
89.99999999999365
  0
LINE
  5
21D
330
2
100
AcDbEntity
  8
0
100
AcDbLine
 10
7.805265649420607
 20
0.5844403320070324
 30
0.0
 11
7.805265649420607
 21
0.8611153320070368
 31
0.0
  0
LWPOLYLINE
  5
21E
330
2
100
AcDbEntity
  8
0
100
AcDbPolyline
 90
        9
 70
     0
 43
0.0
 10
7.805265649420607
 20
0.6137653320070324
 42
0.1432467981947568
 10
7.830490300276063
 20
0.6211434288782822
 42
0.1071754848060475
 10
7.855176466246649
 20
0.6456943540229343
 42
0.0783035184710328
 10
7.87012313386901
 20
0.6793156083737326
 42
0.0656020556757086
 10
7.875850203485117
 20
0.7227778320070382
 42
0.0656020556757101
 10
7.87012313386901
 20
0.7662400556403366
 42
0.0783035184710357
 10
7.855176466246649
 20
0.7998613099911349
 42
0.1071754848060445
 10
7.830490300276063
 20
0.824412235135787
 42
0.1432467981947535
 10
7.805265649420607
 20
0.8317903320070368
 42
0.1432467981947515
  0
LWPOLYLINE
  5
220
330
2
100
AcDbEntity
  8
0
100
AcDbPolyline
 90
        9
 70
     0
 43
0.0
 10
7.805265649420607
 20
0.6430903320070325
 42
0.147269582437036
 10
7.822962072583147
 20
0.6484181736948269
 42
0.1071386913803464
 10
7.840513966246649
 20
0.6664302603812313
 42
0.0765137470862007
 10
7.851055880293417
 20
0.6909349984153916
 42
0.063469041210727
 10
7.85511429712682
 20
0.7227778320070382
 42
0.0634690412107267
 10
7.851055880293417
 20
0.7546206655986776
 42
0.0765137470862059
 10
7.840513966246649
 20
0.7791254036328379
 42
0.1071386913803463
 10
7.822962072583147
 20
0.7971374903192423
 42
0.1472695824370325
 10
7.805265649420607
 20
0.8024653320070367
 42
0.1472695824370333
  0
LWPOLYLINE
  5
221
330
2
100
AcDbEntity
  8
0
100
AcDbPolyline
 90
        2
 70
     0
 43
0.0
 10
-0.8749999999999982
 20
9.974911018271939
 10
0.8753548491859267
 20
9.974911018271939
  0
LINE
  5
226
330
2
100
AcDbEntity
  8
0
100
AcDbLine
 10
-0.8125000000000213
 20
12.97491101827195
 30
0.0
 11
-0.8125000000000213
 21
9.974911018271939
 31
0.0
  0
LINE
  5
227
330
2
100
AcDbEntity
  8
0
100
AcDbLine
 10
0.8124999999999717
 20
12.97491101827195
 30
0.0
 11
0.8124999999999717
 21
9.974911018271939
 31
0.0
  0
LWPOLYLINE
  5
22C
330
2
100
AcDbEntity
  8
0
100
AcDbPolyline
 90
        9
 70
     0
 43
0.0
 10
-7.805265649420608
 20
5.984632313361677
 42
-0.147269582437036
 10
-7.822962072583149
 20
5.989960155049472
 42
-0.1071386913803464
 10
-7.84051396624665
 20
6.007972241735876
 42
-0.0765137470862007
 10
-7.851055880293419
 20
6.032476979770037
 42
-0.063469041210727
 10
-7.855114297126821
 20
6.064319813361683
 42
-0.0634690412107267
 10
-7.851055880293419
 20
6.096162646953323
 42
-0.0765137470862059
 10
-7.84051396624665
 20
6.120667384987483
 42
-0.1071386913803463
 10
-7.822962072583149
 20
6.138679471673887
 42
-0.1472695824370325
 10
-7.805265649420608
 20
6.144007313361682
 42
-0.1472695824370333
  0
LWPOLYLINE
  5
22D
330
2
100
AcDbEntity
  8
0
100
AcDbPolyline
 90
        9
 70
     0
 43
0.0
 10
-7.805265649420608
 20
5.955307313361677
 42
-0.1432467981947568
 10
-7.830490300276065
 20
5.962685410232927
 42
-0.1071754848060475
 10
-7.85517646624665
 20
5.987236335377579
 42
-0.0783035184710328
 10
-7.870123133869011
 20
6.020857589728378
 42
-0.0656020556757086
 10
-7.875850203485118
 20
6.064319813361683
 42
-0.0656020556757101
 10
-7.870123133869011
 20
6.107782036994982
 42
-0.0783035184710357
 10
-7.85517646624665
 20
6.14140329134578
 42
-0.1071754848060445
 10
-7.830490300276065
 20
6.165954216490432
 42
-0.1432467981947535
 10
-7.805265649420608
 20
6.173332313361682
 42
-0.1432467981947515
  0
LINE
  5
22E
330
2
100
AcDbEntity
  8
0
100
AcDbLine
 10
-7.805265649420608
 20
5.925982313361677
 30
0.0
 11
-7.805265649420608
 21
6.202657313361682
 31
0.0
  0
LINE
  5
22F
330
2
100
AcDbEntity
  8
0
100
AcDbLine
 10
-8.862729980080751
 20
7.093750000000005
 30
0.0
 11
-8.862729980080758
 21
0.1497303148918601
 31
0.0
  0
LINE
  5
230
330
2
100
AcDbEntity
  8
0
100
AcDbLine
 10
-8.800229980080751
 20
7.093750000000005
 30
0.0
 11
-8.800229980080758
 21
0.1497303148918601
 31
0.0
  0
LINE
  5
231
330
2
100
AcDbEntity
  8
0
100
AcDbLine
 10
-7.487729980080754
 20
5.624999999999998
 30
0.0
 11
-7.487729980080754
 21
6.124999999999998
 31
0.0
  0
LINE
  5
232
330
2
100
AcDbEntity
  8
0
100
AcDbLine
 10
-7.182324493780321
 20
1.517650737365093
 30
0.0
 11
-5.827932723230973
 21
0.2099621313174449
 31
0.0
  0
LINE
  5
233
330
2
100
AcDbEntity
  8
0
100
AcDbLine
 10
-5.722510666268974
 20
-0.0000000000000018
 30
0.0
 11
-8.722510666268946
 21
-0.0000000000000018
 31
0.0
  0
LINE
  5
234
330
2
100
AcDbEntity
  8
0
100
AcDbLine
 10
-5.722510666268974
 20
0.0624999999999982
 30
0.0
 11
-5.722510666268974
 21
-0.0000000000000018
 31
0.0
  0
ARC
  5
235
330
2
100
AcDbEntity
  8
0
100
AcDbCircle
 10
-6.175229980080751
 20
-0.1497385989912576
 30
0.0
 40
0.5
100
AcDbArc
 50
25.11757623782306
 51
46.00508600525413
  0
LWPOLYLINE
  5
236
330
2
100
AcDbEntity
  8
0
100
AcDbPolyline
 90
        9
 70
     0
 43
0.0
 10
-7.805265649420605
 20
0.8230830176661659
 42
-0.147269582437036
 10
-7.822962072583145
 20
0.8284108593539603
 42
-0.1071386913803464
 10
-7.840513966246647
 20
0.8464229460403647
 42
-0.0765137470862007
 10
-7.851055880293416
 20
0.870927684074525
 42
-0.063469041210727
 10
-7.855114297126818
 20
0.9027705176661716
 42
-0.0634690412107267
 10
-7.851055880293416
 20
0.934613351257811
 42
-0.0765137470862059
 10
-7.840513966246647
 20
0.9591180892919713
 42
-0.1071386913803463
 10
-7.822962072583145
 20
0.9771301759783757
 42
-0.1472695824370325
 10
-7.805265649420605
 20
0.9824580176661701
 42
-0.1472695824370333
  0
LWPOLYLINE
  5
237
330
2
100
AcDbEntity
  8
0
100
AcDbPolyline
 90
        9
 70
     0
 43
0.0
 10
-7.805265649420605
 20
0.7937580176661658
 42
-0.1432467981947568
 10
-7.830490300276061
 20
0.8011361145374156
 42
-0.1071754848060475
 10
-7.855176466246647
 20
0.8256870396820677
 42
-0.0783035184710328
 10
-7.870123133869008
 20
0.859308294032866
 42
-0.0656020556757086
 10
-7.875850203485115
 20
0.9027705176661716
 42
-0.0656020556757101
 10
-7.870123133869008
 20
0.94623274129947
 42
-0.0783035184710357
 10
-7.855176466246647
 20
0.9798539956502683
 42
-0.1071754848060445
 10
-7.830490300276061
 20
1.00440492079492
 42
-0.1432467981947535
 10
-7.805265649420605
 20
1.01178301766617
 42
-0.1432467981947515
  0
LINE
  5
238
330
2
100
AcDbEntity
  8
0
100
AcDbLine
 10
-7.805265649420605
 20
0.7644330176661658
 30
0.0
 11
-7.805265649420605
 21
1.04110801766617
 31
0.0
  0
LINE
  5
239
330
2
100
AcDbEntity
  8
0
100
AcDbLine
 10
-8.862729980080758
 20
0.1809803148918601
 30
0.0
 11
-8.800229980080758
 21
0.1809803148918601
 31
0.0
  0
LINE
  5
23A
330
2
100
AcDbEntity
  8
0
100
AcDbLine
 10
-8.722510666268946
 20
0.0624999999999982
 30
0.0
 11
-8.722510666268946
 21
-0.0000000000000018
 31
0.0
  0
ARC
  5
23B
330
2
100
AcDbEntity
  8
0
100
AcDbCircle
 10
-9.175229980080751
 20
-0.1497385989912576
 30
0.0
 40
0.5
100
AcDbArc
 50
25.11757623782321
 51
41.40962210927817
  0
LINE
  5
23C
330
2
100
AcDbEntity
  8
0
100
AcDbLine
 10
-7.487729980080751
 20
2.237052197982505
 30
0.0
 11
-7.487729980080754
 21
4.249999999999998
 31
0.0
  0
ARC
  5
23D
330
2
100
AcDbEntity
  8
0
100
AcDbCircle
 10
-6.487729980080751
 20
2.237052197982505
 30
0.0
 40
1.0
100
AcDbArc
 50
180.0
 51
226.0050860052541
  0
ARC
  5
23E
330
2
100
AcDbEntity
  8
0
100
AcDbCircle
 10
-8.818917723605182
 20
1.957565554454144
 30
0.0
 40
0.1875000000000025
100
AcDbArc
 50
270.0
 51
90.0
  0
LINE
  5
23F
330
2
100
AcDbEntity
  8
0
100
AcDbLine
 10
-7.805265649420605
 20
2.633140218624002
 30
0.0
 11
-7.805265649420605
 21
2.909815218624006
 31
0.0
  0
LWPOLYLINE
  5
240
330
2
100
AcDbEntity
  8
0
100
AcDbPolyline
 90
        9
 70
     0
 43
0.0
 10
-7.805265649420605
 20
2.662465218624002
 42
-0.1432467981947568
 10
-7.830490300276061
 20
2.669843315495251
 42
-0.1071754848060475
 10
-7.855176466246647
 20
2.694394240639904
 42
-0.0783035184710328
 10
-7.870123133869008
 20
2.728015494990702
 42
-0.0656020556757086
 10
-7.875850203485115
 20
2.771477718624007
 42
-0.0656020556757101
 10
-7.870123133869008
 20
2.814939942257306
 42
-0.0783035184710357
 10
-7.855176466246647
 20
2.848561196608104
 42
-0.1071754848060445
 10
-7.830490300276061
 20
2.873112121752756
 42
-0.1432467981947535
 10
-7.805265649420605
 20
2.880490218624006
 42
-0.1432467981947515
  0
LWPOLYLINE
  5
241
330
2
100
AcDbEntity
  8
0
100
AcDbPolyline
 90
        9
 70
     0
 43
0.0
 10
-7.805265649420605
 20
2.691790218624002
 42
-0.147269582437036
 10
-7.822962072583145
 20
2.697118060311796
 42
-0.1071386913803464
 10
-7.840513966246647
 20
2.715130146998201
 42
-0.0765137470862007
 10
-7.851055880293416
 20
2.739634885032361
 42
-0.063469041210727
 10
-7.855114297126818
 20
2.771477718624007
 42
-0.0634690412107267
 10
-7.851055880293416
 20
2.803320552215647
 42
-0.0765137470862059
 10
-7.840513966246647
 20
2.827825290249807
 42
-0.1071386913803463
 10
-7.822962072583145
 20
2.845837376936212
 42
-0.1472695824370325
 10
-7.805265649420605
 20
2.851165218624006
 42
-0.1472695824370333
  0
LINE
  5
242
330
2
100
AcDbEntity
  8
0
100
AcDbLine
 10
-7.800229980080754
 20
4.562499999999998
 30
0.0
 11
-7.800229980080754
 21
5.312499999999998
 31
0.0
  0
LWPOLYLINE
  5
243
330
2
100
AcDbEntity
  8
0
100
AcDbPolyline
 90
        9
 70
     0
 43
0.0
 10
-7.805265649420605
 20
3.841068640889022
 42
-0.147269582437036
 10
-7.822962072583145
 20
3.846396482576816
 42
-0.1071386913803464
 10
-7.840513966246647
 20
3.864408569263221
 42
-0.0765137470862007
 10
-7.851055880293416
 20
3.888913307297381
 42
-0.063469041210727
 10
-7.855114297126818
 20
3.920756140889028
 42
-0.0634690412107267
 10
-7.851055880293416
 20
3.952598974480667
 42
-0.0765137470862059
 10
-7.840513966246647
 20
3.977103712514827
 42
-0.1071386913803463
 10
-7.822962072583145
 20
3.995115799201232
 42
-0.1472695824370325
 10
-7.805265649420605
 20
4.000443640889026
 42
-0.1472695824370333
  0
LWPOLYLINE
  5
244
330
2
100
AcDbEntity
  8
0
100
AcDbPolyline
 90
        9
 70
     0
 43
0.0
 10
-7.805265649420605
 20
3.811743640889022
 42
-0.1432467981947568
 10
-7.830490300276061
 20
3.819121737760272
 42
-0.1071754848060475
 10
-7.855176466246647
 20
3.843672662904924
 42
-0.0783035184710328
 10
-7.870123133869008
 20
3.877293917255722
 42
-0.0656020556757086
 10
-7.875850203485115
 20
3.920756140889028
 42
-0.0656020556757101
 10
-7.870123133869008
 20
3.964218364522326
 42
-0.0783035184710357
 10
-7.855176466246647
 20
3.997839618873124
 42
-0.1071754848060445
 10
-7.830490300276061
 20
4.022390544017776
 42
-0.1432467981947535
 10
-7.805265649420605
 20
4.029768640889026
 42
-0.1432467981947515
  0
LINE
  5
245
330
2
100
AcDbEntity
  8
0
100
AcDbLine
 10
-7.805265649420605
 20
3.782418640889022
 30
0.0
 11
-7.805265649420605
 21
4.059093640889026
 31
0.0
  0
ARC
  5
246
330
2
100
AcDbEntity
  8
0
100
AcDbCircle
 10
-7.643979980080751
 20
4.562499999999998
 30
0.0
 40
0.15625
100
AcDbArc
 50
180.0
 51
269.9999999999999
  0
LINE
  5
247
330
2
100
AcDbEntity
  8
0
100
AcDbLine
 10
-7.643979980080754
 20
4.406249999999998
 30
0.0
 11
-7.643979980080754
 21
4.406249999999998
 31
0.0
  0
ARC
  5
248
330
2
100
AcDbEntity
  8
0
100
AcDbCircle
 10
-7.643979980080751
 20
4.249999999999998
 30
0.0
 40
0.15625
100
AcDbArc
 50
0.000000000000007
 51
90.0
  0
ARC
  5
249
330
2
100
AcDbEntity
  8
0
100
AcDbCircle
 10
-7.643979980080754
 20
5.312499999999998
 30
0.0
 40
0.15625
100
AcDbArc
 50
90.0
 51
180.0
  0
LINE
  5
24A
330
2
100
AcDbEntity
  8
0
100
AcDbLine
 10
-7.643979980080754
 20
5.468749999999998
 30
0.0
 11
-7.643979980080754
 21
5.468749999999998
 31
0.0
  0
ARC
  5
24B
330
2
100
AcDbEntity
  8
0
100
AcDbCircle
 10
-7.643979980080754
 20
5.624999999999998
 30
0.0
 40
0.15625
100
AcDbArc
 50
270.0
 51
359.9999999999999
  0
LINE
  5
24C
330
2
100
AcDbEntity
  8
0
100
AcDbLine
 10
-8.862729980080758
 20
7.093749999999998
 30
0.0
 11
-7.800229980080754
 21
7.093749999999998
 31
0.0
  0
LINE
  5
24D
330
2
100
AcDbEntity
  8
0
100
AcDbLine
 10
-7.800229980080754
 20
6.437499999999997
 30
0.0
 11
-7.800229980080758
 21
7.093749999999998
 31
0.0
  0
ARC
  5
24E
330
2
100
AcDbEntity
  8
0
100
AcDbCircle
 10
-7.643979980080754
 20
6.437499999999998
 30
0.0
 40
0.15625
100
AcDbArc
 50
180.0
 51
269.9999999999999
  0
ARC
  5
24F
330
2
100
AcDbEntity
  8
0
100
AcDbCircle
 10
-7.643979980080754
 20
6.124999999999998
 30
0.0
 40
0.15625
100
AcDbArc
 50
0.000000000000007
 51
90.0
  0
ARC
  5
2B8
330
2
100
AcDbEntity
  8
0
100
AcDbCircle
 10
-7.858203890276826
 20
6.093470887957704
 30
0.0
 40
0.1545284259354844
100
AcDbArc
 50
210.8424709887117
 51
235.2517244545657
  0
ARC
  5
2B9
330
2
100
AcDbEntity
  8
0
100
AcDbCircle
 10
-7.858203890276833
 20
6.035168738765652
 30
0.0
 40
0.1545284259354811
100
AcDbArc
 50
124.7482755454322
 51
149.1575290112859
  0
ARC
  5
2BA
330
2
100
AcDbEntity
  8
0
100
AcDbCircle
 10
-7.805265649420601
 20
6.212480613598832
 30
0.0
 40
0.2864983002371524
100
AcDbArc
 50
253.9689634222568
 51
269.9999999999986
  0
ARC
  5
2BB
330
2
100
AcDbEntity
  8
0
100
AcDbCircle
 10
-7.826207633507142
 20
6.139596265661748
 30
0.0
 40
0.2106649640867842
100
AcDbArc
 50
235.2517244545688
 51
253.9689634222602
  0
ARC
  5
2BC
330
2
100
AcDbEntity
  8
0
100
AcDbCircle
 10
-7.826207633507128
 20
5.989043361061608
 30
0.0
 40
0.2106649640867918
100
AcDbArc
 50
106.0310365777433
 51
124.7482755454343
  0
ARC
  5
2BD
330
2
100
AcDbEntity
  8
0
100
AcDbCircle
 10
-7.805265649420601
 20
5.916159013124531
 30
0.0
 40
0.2864983002371495
100
AcDbArc
 50
90.00000000000142
 51
106.0310365777434
  0
ARC
  5
2BE
330
2
100
AcDbEntity
  8
0
100
AcDbCircle
 10
-7.907022959166614
 20
6.064319813361678
 30
0.0
 40
0.0976681881821226
100
AcDbArc
 50
180.0
 51
210.8424709887125
  0
ARC
  5
2BF
330
2
100
AcDbEntity
  8
0
100
AcDbCircle
 10
-7.907022959166607
 20
6.064319813361681
 30
0.0
 40
0.09766818818213
100
AcDbArc
 50
149.1575290112895
 51
180.0000000000021
  0
ARC
  5
2C0
330
2
100
AcDbEntity
  8
0
100
AcDbCircle
 10
-7.858203890276823
 20
3.949907215485048
 30
0.0
 40
0.1545284259354844
100
AcDbArc
 50
210.8424709887117
 51
235.2517244545657
  0
ARC
  5
2C1
330
2
100
AcDbEntity
  8
0
100
AcDbCircle
 10
-7.85820389027683
 20
3.891605066292996
 30
0.0
 40
0.1545284259354811
100
AcDbArc
 50
124.7482755454322
 51
149.1575290112859
  0
ARC
  5
2C2
330
2
100
AcDbEntity
  8
0
100
AcDbCircle
 10
-7.805265649420598
 20
4.068916941126176
 30
0.0
 40
0.2864983002371524
100
AcDbArc
 50
253.9689634222568
 51
269.9999999999986
  0
ARC
  5
2C3
330
2
100
AcDbEntity
  8
0
100
AcDbCircle
 10
-7.826207633507138
 20
3.996032593189092
 30
0.0
 40
0.2106649640867842
100
AcDbArc
 50
235.2517244545688
 51
253.9689634222602
  0
ARC
  5
2C4
330
2
100
AcDbEntity
  8
0
100
AcDbCircle
 10
-7.826207633507124
 20
3.845479688588952
 30
0.0
 40
0.2106649640867918
100
AcDbArc
 50
106.0310365777433
 51
124.7482755454343
  0
ARC
  5
2C5
330
2
100
AcDbEntity
  8
0
100
AcDbCircle
 10
-7.805265649420598
 20
3.772595340651876
 30
0.0
 40
0.2864983002371495
100
AcDbArc
 50
90.00000000000142
 51
106.0310365777434
  0
ARC
  5
2C6
330
2
100
AcDbEntity
  8
0
100
AcDbCircle
 10
-7.907022959166611
 20
3.920756140889022
 30
0.0
 40
0.0976681881821226
100
AcDbArc
 50
180.0
 51
210.8424709887125
  0
ARC
  5
2C7
330
2
100
AcDbEntity
  8
0
100
AcDbCircle
 10
-7.907022959166604
 20
3.920756140889026
 30
0.0
 40
0.09766818818213
100
AcDbArc
 50
149.1575290112895
 51
180.0000000000021
  0
ARC
  5
2C8
330
2
100
AcDbEntity
  8
0
100
AcDbCircle
 10
-7.858203890276823
 20
2.800628793220028
 30
0.0
 40
0.1545284259354844
100
AcDbArc
 50
210.8424709887117
 51
235.2517244545657
  0
ARC
  5
2C9
330
2
100
AcDbEntity
  8
0
100
AcDbCircle
 10
-7.85820389027683
 20
2.742326644027976
 30
0.0
 40
0.1545284259354811
100
AcDbArc
 50
124.7482755454322
 51
149.1575290112859
  0
ARC
  5
2CA
330
2
100
AcDbEntity
  8
0
100
AcDbCircle
 10
-7.805265649420598
 20
2.919638518861156
 30
0.0
 40
0.2864983002371524
100
AcDbArc
 50
253.9689634222568
 51
269.9999999999986
  0
ARC
  5
2CB
330
2
100
AcDbEntity
  8
0
100
AcDbCircle
 10
-7.826207633507138
 20
2.846754170924072
 30
0.0
 40
0.2106649640867842
100
AcDbArc
 50
235.2517244545688
 51
253.9689634222602
  0
ARC
  5
2CC
330
2
100
AcDbEntity
  8
0
100
AcDbCircle
 10
-7.826207633507124
 20
2.696201266323932
 30
0.0
 40
0.2106649640867918
100
AcDbArc
 50
106.0310365777433
 51
124.7482755454343
  0
ARC
  5
2CD
330
2
100
AcDbEntity
  8
0
100
AcDbCircle
 10
-7.805265649420598
 20
2.623316918386855
 30
0.0
 40
0.2864983002371495
100
AcDbArc
 50
90.00000000000142
 51
106.0310365777434
  0
ARC
  5
2CE
330
2
100
AcDbEntity
  8
0
100
AcDbCircle
 10
-7.907022959166611
 20
2.771477718624002
 30
0.0
 40
0.0976681881821226
100
AcDbArc
 50
180.0
 51
210.8424709887125
  0
ARC
  5
2CF
330
2
100
AcDbEntity
  8
0
100
AcDbCircle
 10
-7.907022959166604
 20
2.771477718624006
 30
0.0
 40
0.09766818818213
100
AcDbArc
 50
149.1575290112895
 51
180.0000000000021
  0
ARC
  5
2D0
330
2
100
AcDbEntity
  8
0
100
AcDbCircle
 10
-7.858203890276823
 20
0.9319215922621922
 30
0.0
 40
0.1545284259354844
100
AcDbArc
 50
210.8424709887117
 51
235.2517244545657
  0
ARC
  5
2D1
330
2
100
AcDbEntity
  8
0
100
AcDbCircle
 10
-7.85820389027683
 20
0.8736194430701403
 30
0.0
 40
0.1545284259354811
100
AcDbArc
 50
124.7482755454322
 51
149.1575290112859
  0
ARC
  5
2D2
330
2
100
AcDbEntity
  8
0
100
AcDbCircle
 10
-7.805265649420598
 20
1.05093131790332
 30
0.0
 40
0.2864983002371524
100
AcDbArc
 50
253.9689634222568
 51
269.9999999999986
  0
ARC
  5
2D3
330
2
100
AcDbEntity
  8
0
100
AcDbCircle
 10
-7.826207633507138
 20
0.9780469699662362
 30
0.0
 40
0.2106649640867842
100
AcDbArc
 50
235.2517244545688
 51
253.9689634222602
  0
ARC
  5
2D4
330
2
100
AcDbEntity
  8
0
100
AcDbCircle
 10
-7.826207633507124
 20
0.8274940653660963
 30
0.0
 40
0.2106649640867918
100
AcDbArc
 50
106.0310365777433
 51
124.7482755454343
  0
ARC
  5
2D5
330
2
100
AcDbEntity
  8
0
100
AcDbCircle
 10
-7.805265649420598
 20
0.7546097174290196
 30
0.0
 40
0.2864983002371495
100
AcDbArc
 50
90.00000000000142
 51
106.0310365777434
  0
ARC
  5
2D6
330
2
100
AcDbEntity
  8
0
100
AcDbCircle
 10
-7.907022959166611
 20
0.9027705176661662
 30
0.0
 40
0.0976681881821226
100
AcDbArc
 50
180.0
 51
210.8424709887125
  0
ARC
  5
2D7
330
2
100
AcDbEntity
  8
0
100
AcDbCircle
 10
-7.907022959166604
 20
0.9027705176661698
 30
0.0
 40
0.09766818818213
100
AcDbArc
 50
149.1575290112895
 51
180.0000000000021
  0
ARC
  5
2D8
330
2
100
AcDbEntity
  8
0
100
AcDbCircle
 10
7.858203890276828
 20
5.87047961051427
 30
0.0
 40
0.1545284259354844
100
AcDbArc
 50
304.7482755454344
 51
329.1575290112884
  0
ARC
  5
2D9
330
2
100
AcDbEntity
  8
0
100
AcDbCircle
 10
7.858203890276835
 20
5.812177461322218
 30
0.0
 40
0.1545284259354811
100
AcDbArc
 50
30.84247098871409
 51
55.25172445456781
  0
ARC
  5
2DA
330
2
100
AcDbEntity
  8
0
100
AcDbCircle
 10
7.805265649420603
 20
5.989489336155398
 30
0.0
 40
0.2864983002371524
100
AcDbArc
 50
270.0000000000014
 51
286.0310365777432
  0
ARC
  5
2DB
330
2
100
AcDbEntity
  8
0
100
AcDbCircle
 10
7.826207633507144
 20
5.916604988218314
 30
0.0
 40
0.2106649640867842
100
AcDbArc
 50
286.0310365777398
 51
304.7482755454312
  0
ARC
  5
2DC
330
2
100
AcDbEntity
  8
0
100
AcDbCircle
 10
7.82620763350713
 20
5.766052083618174
 30
0.0
 40
0.2106649640867918
100
AcDbArc
 50
55.25172445456567
 51
73.96896342225675
  0
ARC
  5
2DD
330
2
100
AcDbEntity
  8
0
100
AcDbCircle
 10
7.805265649420603
 20
5.693167735681097
 30
0.0
 40
0.2864983002371495
100
AcDbArc
 50
73.96896342225659
 51
89.99999999999859
  0
ARC
  5
2DE
330
2
100
AcDbEntity
  8
0
100
AcDbCircle
 10
7.907022959166616
 20
5.841328535918244
 30
0.0
 40
0.0976681881821226
100
AcDbArc
 50
329.1575290112875
 51
0.000000000000007
  0
ARC
  5
2DF
330
2
100
AcDbEntity
  8
0
100
AcDbCircle
 10
7.907022959166609
 20
5.841328535918247
 30
0.0
 40
0.09766818818213
100
AcDbArc
 50
359.9999999999979
 51
30.84247098871045
  0
ARC
  5
2E0
330
2
100
AcDbEntity
  8
0
100
AcDbCircle
 10
7.858203890276824
 20
3.617903438041612
 30
0.0
 40
0.1545284259354844
100
AcDbArc
 50
304.7482755454344
 51
329.1575290112884
  0
ARC
  5
2E1
330
2
100
AcDbEntity
  8
0
100
AcDbCircle
 10
7.858203890276831
 20
3.55960128884956
 30
0.0
 40
0.1545284259354811
100
AcDbArc
 50
30.84247098871409
 51
55.25172445456781
  0
ARC
  5
2E2
330
2
100
AcDbEntity
  8
0
100
AcDbCircle
 10
7.805265649420599
 20
3.73691316368274
 30
0.0
 40
0.2864983002371524
100
AcDbArc
 50
270.0000000000014
 51
286.0310365777432
  0
ARC
  5
2E3
330
2
100
AcDbEntity
  8
0
100
AcDbCircle
 10
7.82620763350714
 20
3.664028815745656
 30
0.0
 40
0.2106649640867842
100
AcDbArc
 50
286.0310365777398
 51
304.7482755454312
  0
ARC
  5
2E4
330
2
100
AcDbEntity
  8
0
100
AcDbCircle
 10
7.826207633507126
 20
3.513475911145516
 30
0.0
 40
0.2106649640867918
100
AcDbArc
 50
55.25172445456567
 51
73.96896342225675
  0
ARC
  5
2E5
330
2
100
AcDbEntity
  8
0
100
AcDbCircle
 10
7.805265649420599
 20
3.440591563208439
 30
0.0
 40
0.2864983002371495
100
AcDbArc
 50
73.96896342225659
 51
89.99999999999859
  0
ARC
  5
2E6
330
2
100
AcDbEntity
  8
0
100
AcDbCircle
 10
7.907022959166612
 20
3.588752363445586
 30
0.0
 40
0.0976681881821226
100
AcDbArc
 50
329.1575290112875
 51
0.000000000000007
  0
ARC
  5
2E7
330
2
100
AcDbEntity
  8
0
100
AcDbCircle
 10
7.907022959166605
 20
3.58875236344559
 30
0.0
 40
0.09766818818213
100
AcDbArc
 50
359.9999999999979
 51
30.84247098871045
  0
ARC
  5
2E8
330
2
100
AcDbEntity
  8
0
100
AcDbCircle
 10
7.858203890276824
 20
2.468625015776592
 30
0.0
 40
0.1545284259354844
100
AcDbArc
 50
304.7482755454344
 51
329.1575290112884
  0
ARC
  5
2E9
330
2
100
AcDbEntity
  8
0
100
AcDbCircle
 10
7.858203890276831
 20
2.41032286658454
 30
0.0
 40
0.1545284259354811
100
AcDbArc
 50
30.84247098871409
 51
55.25172445456781
  0
ARC
  5
2EA
330
2
100
AcDbEntity
  8
0
100
AcDbCircle
 10
7.805265649420599
 20
2.58763474141772
 30
0.0
 40
0.2864983002371524
100
AcDbArc
 50
270.0000000000014
 51
286.0310365777432
  0
ARC
  5
2EB
330
2
100
AcDbEntity
  8
0
100
AcDbCircle
 10
7.82620763350714
 20
2.514750393480636
 30
0.0
 40
0.2106649640867842
100
AcDbArc
 50
286.0310365777398
 51
304.7482755454312
  0
ARC
  5
2EC
330
2
100
AcDbEntity
  8
0
100
AcDbCircle
 10
7.826207633507126
 20
2.364197488880496
 30
0.0
 40
0.2106649640867918
100
AcDbArc
 50
55.25172445456567
 51
73.96896342225675
  0
ARC
  5
2ED
330
2
100
AcDbEntity
  8
0
100
AcDbCircle
 10
7.805265649420599
 20
2.291313140943419
 30
0.0
 40
0.2864983002371495
100
AcDbArc
 50
73.96896342225659
 51
89.99999999999859
  0
ARC
  5
2EE
330
2
100
AcDbEntity
  8
0
100
AcDbCircle
 10
7.907022959166612
 20
2.439473941180566
 30
0.0
 40
0.0976681881821226
100
AcDbArc
 50
329.1575290112875
 51
0.000000000000007
  0
ARC
  5
2EF
330
2
100
AcDbEntity
  8
0
100
AcDbCircle
 10
7.907022959166605
 20
2.43947394118057
 30
0.0
 40
0.09766818818213
100
AcDbArc
 50
359.9999999999979
 51
30.84247098871045
  0
ARC
  5
2F0
330
2
100
AcDbEntity
  8
0
100
AcDbCircle
 10
7.858203890276824
 20
0.7519289066030588
 30
0.0
 40
0.1545284259354844
100
AcDbArc
 50
304.7482755454344
 51
329.1575290112884
  0
ARC
  5
2F1
330
2
100
AcDbEntity
  8
0
100
AcDbCircle
 10
7.858203890276831
 20
0.6936267574110069
 30
0.0
 40
0.1545284259354811
100
AcDbArc
 50
30.84247098871409
 51
55.25172445456781
  0
ARC
  5
2F2
330
2
100
AcDbEntity
  8
0
100
AcDbCircle
 10
7.805265649420599
 20
0.8709386322441866
 30
0.0
 40
0.2864983002371524
100
AcDbArc
 50
270.0000000000014
 51
286.0310365777432
  0
ARC
  5
2F3
330
2
100
AcDbEntity
  8
0
100
AcDbCircle
 10
7.82620763350714
 20
0.7980542843071028
 30
0.0
 40
0.2106649640867842
100
AcDbArc
 50
286.0310365777398
 51
304.7482755454312
  0
ARC
  5
2F4
330
2
100
AcDbEntity
  8
0
100
AcDbCircle
 10
7.826207633507126
 20
0.6475013797069629
 30
0.0
 40
0.2106649640867918
100
AcDbArc
 50
55.25172445456567
 51
73.96896342225675
  0
ARC
  5
2F5
330
2
100
AcDbEntity
  8
0
100
AcDbCircle
 10
7.805265649420599
 20
0.5746170317698862
 30
0.0
 40
0.2864983002371495
100
AcDbArc
 50
73.96896342225659
 51
89.99999999999859
  0
ARC
  5
2F6
330
2
100
AcDbEntity
  8
0
100
AcDbCircle
 10
7.907022959166612
 20
0.7227778320070328
 30
0.0
 40
0.0976681881821226
100
AcDbArc
 50
329.1575290112875
 51
0.000000000000007
  0
ARC
  5
2F7
330
2
100
AcDbEntity
  8
0
100
AcDbCircle
 10
7.907022959166605
 20
0.7227778320070364
 30
0.0
 40
0.09766818818213
100
AcDbArc
 50
359.9999999999979
 51
30.84247098871045
  0
LINE
  5
2FD
330
2
100
AcDbEntity
  8
0
  6
HIDDEN
100
AcDbLine
 10
-5.757475623760768
 20
0.1249999999999965
 30
0.0
 11
-8.757475623760769
 21
0.1249999999999965
 31
0.0
  0
LINE
  5
2FE
330
2
100
AcDbEntity
  8
0
  6
HIDDEN
100
AcDbLine
 10
5.722510666268951
 20
0.0625
 30
0.0
 11
8.722510666268949
 21
0.0625
 31
0.0
  0
ENDSEC
  0
SECTION
  2
OBJECTS
  0
DICTIONARY
  5
9
330
0
100
AcDbDictionary
281
     1
  3
ACAD_COLOR
350
25A
  3
ACAD_GROUP
350
23
  3
ACAD_LAYOUT
350
D
  3
ACAD_MATERIAL
350
259
  3
ACAD_MLINESTYLE
350
24
  3
ACAD_PLOTSETTINGS
350
25
  3
ACAD_PLOTSTYLENAME
350
8
  3
ACAD_TABLESTYLE
350
25B
  3
ACDBHEADERROUNDTRIPXREC
350
318
  3
AcDbVariableDictionary
350
EC
  0
DICTIONARY
  5
25A
102
{ACAD_REACTORS
330
9
102
}
330
9
100
AcDbDictionary
281
     1
  0
DICTIONARY
  5
23
102
{ACAD_REACTORS
330
9
102
}
330
9
100
AcDbDictionary
281
     1
  0
DICTIONARY
  5
D
102
{ACAD_REACTORS
330
9
102
}
330
9
100
AcDbDictionary
281
     1
  3
Layout1
350
13
  3
Model
350
C
  0
DICTIONARY
  5
259
102
{ACAD_REACTORS
330
9
102
}
330
9
100
AcDbDictionary
281
     1
  0
DICTIONARY
  5
24
102
{ACAD_REACTORS
330
9
102
}
330
9
100
AcDbDictionary
281
     1
  3
STANDARD
350
27
  0
DICTIONARY
  5
25
102
{ACAD_REACTORS
330
9
102
}
330
9
100
AcDbDictionary
281
     1
  0
ACDBDICTIONARYWDFLT
  5
8
102
{ACAD_REACTORS
330
9
102
}
330
9
100
AcDbDictionary
281
     1
  3
Normal
350
7
100
AcDbDictionaryWithDefault
340
7
  0
DICTIONARY
  5
25B
102
{ACAD_REACTORS
330
9
102
}
330
9
100
AcDbDictionary
281
     1
  3
Standard
350
25C
  0
DICTIONARY
  5
318
102
{ACAD_REACTORS
330
9
102
}
330
9
100
AcDbDictionary
281
     1
  3
COLORDICT
350
319
  3
MATERIALDICT
350
31A
  0
DICTIONARY
  5
EC
102
{ACAD_REACTORS
330
9
102
}
330
9
100
AcDbDictionary
281
     1
  3
CTABLESTYLE
350
315
  3
HIDETEXT
350
317
  0
LAYOUT
  5
13
102
{ACAD_REACTORS
330
D
102
}
102
{ACAD_XDICTIONARY
360
31B
102
}
330
D
100
AcDbPlotSettings
  1

  2
C:\ACAD2000\plotters\HP LaserJet 2100 Series PS.pc3
  4

  6

 40
0.0
 41
0.0
 42
0.0
 43
0.0
 44
0.0
 45
0.0
 46
0.0
 47
0.0
 48
0.0
 49
0.0
140
0.0
141
0.0
142
1.0
143
1.0
 70
   688
 72
     0
 73
     0
 74
     5
  7

 75
    16
147
1.0
148
0.0
149
0.0
100
AcDbLayout
  1
Layout1
 70
     0
 71
     1
 10
0.0
 20
0.0
 11
12.0
 21
9.0
 12
0.0
 22
0.0
 32
0.0
 14
1.000000000000000E+20
 24
1.000000000000000E+20
 34
1.000000000000000E+20
 15
-1.000000000000000E+20
 25
-1.000000000000000E+20
 35
-1.000000000000000E+20
146
0.0
 13
0.0
 23
0.0
 33
0.0
 16
1.0
 26
0.0
 36
0.0
 17
0.0
 27
1.0
 37
0.0
 76
     0
330
E
  0
LAYOUT
  5
C
102
{ACAD_REACTORS
330
D
102
}
102
{ACAD_XDICTIONARY
360
31D
102
}
330
D
100
AcDbPlotSettings
  1

  2
HP LaserJet 2100 Series PS
  4
Letter
  6

 40
3.174999952316284
 41
3.174999952316284
 42
3.175003051757813
 43
3.17498779296875
 44
215.9000091552734
 45
279.3999938964844
 46
0.0
 47
0.0
 48
0.0
 49
0.0
140
0.0
141
0.0
142
1.0
143
5.090908941468881
 70
 28336
 72
     0
 73
     1
 74
     2
  7

 75
     0
147
0.1964285771946001
148
0.0
149
0.0
100
AcDbLayout
  1
Model
 70
     1
 71
     0
 10
0.0
 20
0.0
 11
12.0
 21
9.0
 12
0.0
 22
0.0
 32
0.0
 14
0.0
 24
0.0
 34
0.0
 15
0.0
 25
0.0
 35
0.0
146
0.0
 13
0.0
 23
0.0
 33
0.0
 16
1.0
 26
0.0
 36
0.0
 17
0.0
 27
1.0
 37
0.0
 76
     0
330
2
  0
MLINESTYLE
  5
27
102
{ACAD_REACTORS
330
24
102
}
330
24
100
AcDbMlineStyle
  2
STANDARD
 70
     0
  3

 62
   256
 51
90.0
 52
90.0
 71
     2
 49
0.5
 62
   256
  6
BYLAYER
 49
-0.5
 62
   256
  6
BYLAYER
  0
ACDBPLACEHOLDER
  5
7
102
{ACAD_REACTORS
330
8
102
}
330
8
  0
ACAD_PROXY_OBJECT
  5
25C
102
{ACAD_REACTORS
330
25B
102
}
330
25B
100
AcDbProxyObject
 90
      499
 91
      557
 95
   983063
 70
     0
 93
     1841
310
4214DD185B99185C9928B81E85EB51B8AE3F2E07A17AD46E2B8FC02B5E8DC0F42B1CFD028000000C1008070000C3001FDFF8000000C1003FBFF000000182007F7FE00000030400FEFFC00000060801FDFF8000000C1003FBFF00000018200000000000000681FA0B0000001820100E000186003FBFF000000182007F7FE000
310
00030400FEFFC00000060801FDFF8000000C1003FBFF000000182007F7FE000000304000AD7A3703D0AC73F4160000003040201C00030C007F7FE00000030400FEFFC00000060801FDFF8000000C1003FBFF000000182007F7FE00000030400FEFFC000000608000
340
16
340
16
340
16
 94
        0
  0
XRECORD
  5
319
102
{ACAD_REACTORS
330
318
102
}
330
318
100
AcDbXrecord
340
25A
  0
XRECORD
  5
31A
102
{ACAD_REACTORS
330
318
102
}
330
318
100
AcDbXrecord
340
259
  0
DICTIONARYVAR
  5
315
102
{ACAD_REACTORS
330
EC
102
}
330
EC
100
DictionaryVariables
280
     0
  1
STANDARD
  0
DICTIONARYVAR
  5
317
102
{ACAD_REACTORS
330
EC
102
}
330
EC
100
DictionaryVariables
280
     0
  1
0
  0
DICTIONARY
  5
31B
330
13
100
AcDbDictionary
280
     1
281
     1
  3
ACAD_XREC_ROUNDTRIP
360
31C
  0
DICTIONARY
  5
31D
330
C
100
AcDbDictionary
280
     1
281
     1
  3
ACAD_XREC_ROUNDTRIP
360
31E
  0
XRECORD
  5
31C
102
{ACAD_REACTORS
330
31B
102
}
330
31B
100
AcDbXrecord
102
SHADEPLOT
 70
     0
102
SHADEPLOTRESLEVEL
 70
     2
102
SHADEPLOTCUSTOMDPI
 70
   300
  0
XRECORD
  5
31E
102
{ACAD_REACTORS
330
31D
102
}
330
31D
100
AcDbXrecord
102
SHADEPLOT
 70
     0
102
SHADEPLOTRESLEVEL
 70
     2
102
SHADEPLOTCUSTOMDPI
 70
   300
  0
ENDSEC
  0
EOF
