  0
SECTION
  2
HEADER
  9
$ACADVER
  1
AC1015
  9
$ACADMAINTVER
 70
     6
  9
$DWGCODEPAGE
  3
ANSI_1252
  9
$INSBASE
 10
0.0
 20
0.0
 30
0.0
  9
$EXTMIN
 10
-8.122017879969768
 20
-0.0289949493661161
 30
0.0
  9
$EXTMAX
 10
8.122017879969764
 20
13.10098775712031
 30
0.0
  9
$LIMMIN
 10
0.0
 20
0.0
  9
$LIMMAX
 10
26.25
 20
20.0
  9
$ORTHOMODE
 70
     1
  9
$REGENMODE
 70
     1
  9
$FILLMODE
 70
     1
  9
$QTEXTMODE
 70
     0
  9
$MIRRTEXT
 70
     0
  9
$LTSCALE
 40
1.0
  9
$ATTMODE
 70
     1
  9
$TEXTSIZE
 40
0.225
  9
$TRACEWID
 40
0.05
  9
$TEXTSTYLE
  7
STANDARD
  9
$CLAYER
  8
0
  9
$CELTYPE
  6
BYLAYER
  9
$CECOLOR
 62
   256
  9
$CELTSCALE
 40
1.0
  9
$DISPSILH
 70
     0
  9
$DIMSCALE
 40
2.5
  9
$DIMASZ
 40
0.125
  9
$DIMEXO
 40
0.062
  9
$DIMDLI
 40
0.375
  9
$DIMRND
 40
0.0
  9
$DIMDLE
 40
0.0
  9
$DIMEXE
 40
0.08
  9
$DIMTP
 40
0.0
  9
$DIMTM
 40
0.0
  9
$DIMTXT
 40
0.09
  9
$DIMCEN
 40
-0.03125
  9
$DIMTSZ
 40
0.0
  9
$DIMTOL
 70
     0
  9
$DIMLIM
 70
     0
  9
$DIMTIH
 70
     1
  9
$DIMTOH
 70
     1
  9
$DIMSE1
 70
     0
  9
$DIMSE2
 70
     0
  9
$DIMTAD
 70
     0
  9
$DIMZIN
 70
     0
  9
$DIMBLK
  1

  9
$DIMASO
 70
     0
  9
$DIMSHO
 70
     0
  9
$DIMPOST
  1

  9
$DIMAPOST
  1

  9
$DIMALT
 70
     0
  9
$DIMALTD
 70
     2
  9
$DIMALTF
 40
25.4
  9
$DIMLFAC
 40
1.0
  9
$DIMTOFL
 70
     0
  9
$DIMTVP
 40
0.0
  9
$DIMTIX
 70
     0
  9
$DIMSOXD
 70
     0
  9
$DIMSAH
 70
     0
  9
$DIMBLK1
  1

  9
$DIMBLK2
  1

  9
$DIMSTYLE
  2
STANDARD
  9
$DIMCLRD
 70
     0
  9
$DIMCLRE
 70
     0
  9
$DIMCLRT
 70
     0
  9
$DIMTFAC
 40
1.0
  9
$DIMGAP
 40
0.08984375
  9
$DIMJUST
 70
     0
  9
$DIMSD1
 70
     0
  9
$DIMSD2
 70
     0
  9
$DIMTOLJ
 70
     1
  9
$DIMTZIN
 70
     0
  9
$DIMALTZ
 70
     0
  9
$DIMALTTZ
 70
     0
  9
$DIMUPT
 70
     0
  9
$DIMDEC
 70
     5
  9
$DIMTDEC
 70
     6
  9
$DIMALTU
 70
     5
  9
$DIMALTTD
 70
     2
  9
$DIMTXSTY
  7
STANDARD
  9
$DIMAUNIT
 70
     0
  9
$DIMADEC
 70
     0
  9
$DIMALTRND
 40
0.0
  9
$DIMAZIN
 70
     0
  9
$DIMDSEP
 70
    46
  9
$DIMATFIT
 70
     3
  9
$DIMFRAC
 70
     2
  9
$DIMLDRBLK
  1

  9
$DIMLUNIT
 70
     5
  9
$DIMLWD
 70
    -2
  9
$DIMLWE
 70
    -2
  9
$DIMTMOVE
 70
     2
  9
$LUNITS
 70
     5
  9
$LUPREC
 70
     6
  9
$SKETCHINC
 40
0.1
  9
$FILLETRAD
 40
0.0
  9
$AUNITS
 70
     0
  9
$AUPREC
 70
     0
  9
$MENU
  1
acad
  9
$ELEVATION
 40
0.0
  9
$PELEVATION
 40
0.0
  9
$THICKNESS
 40
0.0
  9
$LIMCHECK
 70
     0
  9
$CHAMFERA
 40
0.0
  9
$CHAMFERB
 40
0.0
  9
$CHAMFERC
 40
0.0
  9
$CHAMFERD
 40
0.0
  9
$SKPOLY
 70
     0
  9
$TDCREATE
 40
2449876.934157986
  9
$TDUCREATE
 40
2449877.267491319
  9
$TDUPDATE
 40
2454166.802630926
  9
$TDUUPDATE
 40
2454167.135964259
  9
$TDINDWG
 40
0.0688761343
  9
$TDUSRTIMER
 40
0.0688761343
  9
$USRTIMER
 70
     1
  9
$ANGBASE
 50
0.0
  9
$ANGDIR
 70
     0
  9
$PDMODE
 70
     0
  9
$PDSIZE
 40
0.0
  9
$PLINEWID
 40
0.0
  9
$SPLFRAME
 70
     0
  9
$SPLINETYPE
 70
     6
  9
$SPLINESEGS
 70
     8
  9
$HANDSEED
  5
2C2
  9
$SURFTAB1
 70
     6
  9
$SURFTAB2
 70
     6
  9
$SURFTYPE
 70
     6
  9
$SURFU
 70
     6
  9
$SURFV
 70
     6
  9
$UCSBASE
  2

  9
$UCSNAME
  2

  9
$UCSORG
 10
0.0
 20
0.0
 30
0.0
  9
$UCSXDIR
 10
1.0
 20
0.0
 30
0.0
  9
$UCSYDIR
 10
0.0
 20
1.0
 30
0.0
  9
$UCSORTHOREF
  2

  9
$UCSORTHOVIEW
 70
     0
  9
$UCSORGTOP
 10
0.0
 20
0.0
 30
0.0
  9
$UCSORGBOTTOM
 10
0.0
 20
0.0
 30
0.0
  9
$UCSORGLEFT
 10
0.0
 20
0.0
 30
0.0
  9
$UCSORGRIGHT
 10
0.0
 20
0.0
 30
0.0
  9
$UCSORGFRONT
 10
0.0
 20
0.0
 30
0.0
  9
$UCSORGBACK
 10
0.0
 20
0.0
 30
0.0
  9
$PUCSBASE
  2

  9
$PUCSNAME
  2

  9
$PUCSORG
 10
0.0
 20
0.0
 30
0.0
  9
$PUCSXDIR
 10
1.0
 20
0.0
 30
0.0
  9
$PUCSYDIR
 10
0.0
 20
1.0
 30
0.0
  9
$PUCSORTHOREF
  2

  9
$PUCSORTHOVIEW
 70
     0
  9
$PUCSORGTOP
 10
0.0
 20
0.0
 30
0.0
  9
$PUCSORGBOTTOM
 10
0.0
 20
0.0
 30
0.0
  9
$PUCSORGLEFT
 10
0.0
 20
0.0
 30
0.0
  9
$PUCSORGRIGHT
 10
0.0
 20
0.0
 30
0.0
  9
$PUCSORGFRONT
 10
0.0
 20
0.0
 30
0.0
  9
$PUCSORGBACK
 10
0.0
 20
0.0
 30
0.0
  9
$USERI1
 70
     0
  9
$USERI2
 70
     0
  9
$USERI3
 70
     0
  9
$USERI4
 70
     0
  9
$USERI5
 70
     0
  9
$USERR1
 40
0.0
  9
$USERR2
 40
0.0
  9
$USERR3
 40
0.0
  9
$USERR4
 40
0.0
  9
$USERR5
 40
0.0
  9
$WORLDVIEW
 70
     1
  9
$SHADEDGE
 70
     3
  9
$SHADEDIF
 70
    70
  9
$TILEMODE
 70
     1
  9
$MAXACTVP
 70
    16
  9
$PINSBASE
 10
0.0
 20
0.0
 30
0.0
  9
$PLIMCHECK
 70
     0
  9
$PEXTMIN
 10
1.000000000000000E+20
 20
1.000000000000000E+20
 30
1.000000000000000E+20
  9
$PEXTMAX
 10
-1.000000000000000E+20
 20
-1.000000000000000E+20
 30
-1.000000000000000E+20
  9
$PLIMMIN
 10
0.0
 20
0.0
  9
$PLIMMAX
 10
12.0
 20
9.0
  9
$UNITMODE
 70
     0
  9
$VISRETAIN
 70
     0
  9
$PLINEGEN
 70
     1
  9
$PSLTSCALE
 70
     0
  9
$TREEDEPTH
 70
  3020
  9
$CMLSTYLE
  2
STANDARD
  9
$CMLJUST
 70
     0
  9
$CMLSCALE
 40
1.0
  9
$PROXYGRAPHICS
 70
     1
  9
$MEASUREMENT
 70
     0
  9
$CELWEIGHT
370
    -1
  9
$ENDCAPS
280
     0
  9
$JOINSTYLE
280
     0
  9
$LWDISPLAY
290
     0
  9
$INSUNITS
 70
     0
  9
$HYPERLINKBASE
  1

  9
$STYLESHEET
  1

  9
$XEDIT
290
     1
  9
$CEPSNTYPE
380
     0
  9
$PSTYLEMODE
290
     1
  9
$FINGERPRINTGUID
  2
{7E196FFC-9A39-43AA-949D-32208D368C35}
  9
$VERSIONGUID
  2
{D5C56DC8-0AE0-4C25-BE3F-E738B075071E}
  9
$EXTNAMES
290
     1
  9
$PSVPSCALE
 40
0.0
  9
$OLESTARTUP
290
     0
  0
ENDSEC
  0
SECTION
  2
CLASSES
  0
CLASS
  1
DICTIONARYVAR
  2
AcDbDictionaryVar
  3
AutoCAD 2000
 90
        0
280
     0
281
     0
  0
CLASS
  1
LWPOLYLINE
  2
AcDbPolyline
  3
AutoCAD 2000
 90
        0
280
     0
281
     1
  0
CLASS
  1
ACDBDICTIONARYWDFLT
  2
AcDbDictionaryWithDefault
  3
AutoCAD 2000
 90
        0
280
     0
281
     0
  0
CLASS
  1
ACDBPLACEHOLDER
  2
AcDbPlaceHolder
  3
ObjectDBX Classes
 90
        0
280
     0
281
     0
  0
CLASS
  1
LAYOUT
  2
AcDbLayout
  3
ObjectDBX Classes
 90
        0
280
     0
281
     0
  0
CLASS
  1
LONG_TRANSACTION
  2
AcDbLongTransaction
  3
ObjectDBX Classes
 90
   -65536
280
     1
281
     0
  0
CLASS
  1
LWPOLYLINE
  2
AcDbPolyline
  3
AutoCAD 2000
 90
        0
280
     0
281
     1
  0
CLASS
  1
HATCH
  2
AcDbHatch
  3
AutoCAD 2000
 90
        0
280
     0
281
     1
  0
CLASS
  1
XRECORD
  2
AcDbXrecord
  3
AutoCAD 2000
 90
        0
280
     0
281
     0
  0
CLASS
  1
LONG_TRANSACTION
  2
AcDbLongTransaction
  3
ObjectDBX Classes
 90
   -65536
280
     1
281
     0
  0
CLASS
  1
LWPOLYLINE
  2
AcDbPolyline
  3
AutoCAD 2000
 90
        0
280
     0
281
     1
  0
CLASS
  1
HATCH
  2
AcDbHatch
  3
AutoCAD 2000
 90
        0
280
     0
281
     1
  0
CLASS
  1
XRECORD
  2
AcDbXrecord
  3
AutoCAD 2000
 90
        0
280
     0
281
     0
  0
CLASS
  1
TABLESTYLE
  2
AcDbTableStyle
  3
ObjectDBX Classes
 90
     2047
280
     1
281
     0
  0
ENDSEC
  0
SECTION
  2
TABLES
  0
TABLE
  2
VPORT
  5
1D
330
0
100
AcDbSymbolTable
 70
     3
  0
VPORT
  5
2B4
330
1D
100
AcDbSymbolTableRecord
100
AcDbViewportTableRecord
  2
*Active
 70
     0
 10
0.0
 20
0.0
 11
1.0
 21
1.0
 12
5.303322962597271
 22
6.943480598149094
 13
0.0
 23
0.0
 14
0.063
 24
0.063
 15
0.25
 25
0.25
 16
0.0
 26
0.0
 36
1.0
 17
0.0
 27
0.0
 37
0.0
 40
20.2791419374208
 41
1.814583333333333
 42
50.0
 43
0.0
 44
0.0
 50
0.0
 51
0.0
 71
     0
 72
   100
 73
     1
 74
     0
 75
     0
 76
     0
 77
     0
 78
     0
281
     0
 65
     1
110
0.0
120
0.0
130
0.0
111
1.0
121
0.0
131
0.0
112
0.0
122
1.0
132
0.0
 79
     0
146
0.0
  0
ENDTAB
  0
TABLE
  2
LTYPE
  5
18
330
0
100
AcDbSymbolTable
 70
     2
  0
LTYPE
  5
19
330
18
100
AcDbSymbolTableRecord
100
AcDbLinetypeTableRecord
  2
BYBLOCK
 70
     0
  3

 72
    65
 73
     0
 40
0.0
  0
LTYPE
  5
1A
330
18
100
AcDbSymbolTableRecord
100
AcDbLinetypeTableRecord
  2
BYLAYER
 70
     0
  3

 72
    65
 73
     0
 40
0.0
  0
LTYPE
  5
A
330
18
100
AcDbSymbolTableRecord
100
AcDbLinetypeTableRecord
  2
CONTINUOUS
 70
     0
  3
Solid line
 72
    65
 73
     0
 40
0.0
  0
LTYPE
  5
2A1
330
18
100
AcDbSymbolTableRecord
100
AcDbLinetypeTableRecord
  2
HIDDEN
 70
     0
  3
Hidden __ __ __ __ __ __ __ __ __ __ __ __ __ _
 72
    65
 73
     2
 40
0.375
 49
0.25
 74
     0
 49
-0.125
 74
     0
  0
ENDTAB
  0
TABLE
  2
LAYER
  5
14
330
0
100
AcDbSymbolTable
 70
     1
  0
LAYER
  5
6
330
14
100
AcDbSymbolTableRecord
100
AcDbLayerTableRecord
  2
0
 70
     0
 62
     7
  6
CONTINUOUS
370
    -3
390
7
  0
ENDTAB
  0
TABLE
  2
STYLE
  5
15
330
0
100
AcDbSymbolTable
 70
     2
  0
STYLE
  5
16
330
15
100
AcDbSymbolTableRecord
100
AcDbTextStyleTableRecord
  2
STANDARD
 70
     0
 40
0.0
 41
1.0
 50
0.0
 71
     0
 42
0.225
  3
TXT
  4

  0
STYLE
  5
2A0
330
15
100
AcDbSymbolTableRecord
100
AcDbTextStyleTableRecord
  2

 70
     1
 40
0.0
 41
1.0
 50
0.0
 71
     0
 42
0.225
  3
ltypeshp.shx
  4

  0
ENDTAB
  0
TABLE
  2
VIEW
  5
1B
330
0
100
AcDbSymbolTable
 70
     0
  0
ENDTAB
  0
TABLE
  2
UCS
  5
1C
330
0
100
AcDbSymbolTable
 70
     0
  0
ENDTAB
  0
TABLE
  2
APPID
  5
1F
330
0
100
AcDbSymbolTable
 70
     1
  0
APPID
  5
20
330
1F
100
AcDbSymbolTableRecord
100
AcDbRegAppTableRecord
  2
ACAD
 70
     0
  0
ENDTAB
  0
TABLE
  2
DIMSTYLE
  5
21
330
0
100
AcDbSymbolTable
 70
     1
100
AcDbDimStyleTable
  0
DIMSTYLE
105
28
330
21
100
AcDbSymbolTableRecord
100
AcDbDimStyleTableRecord
  2
STANDARD
 70
     0
  3

  4

340
16
  0
ENDTAB
  0
TABLE
  2
BLOCK_RECORD
  5
1
330
0
100
AcDbSymbolTable
 70
     0
  0
BLOCK_RECORD
  5
2
330
1
100
AcDbSymbolTableRecord
100
AcDbBlockTableRecord
  2
*MODEL_SPACE
340
C
  0
BLOCK_RECORD
  5
E
330
1
100
AcDbSymbolTableRecord
100
AcDbBlockTableRecord
  2
*PAPER_SPACE
340
13
  0
ENDTAB
  0
ENDSEC
  0
SECTION
  2
BLOCKS
  0
BLOCK
  5
5
330
2
100
AcDbEntity
  8
0
100
AcDbBlockBegin
  2
*MODEL_SPACE
 70
     0
 10
0.0
 20
0.0
 30
0.0
  3
*MODEL_SPACE
  1

  4

  0
ENDBLK
  5
B
330
2
100
AcDbEntity
  8
0
100
AcDbBlockEnd
  0
BLOCK
  5
11
330
E
100
AcDbEntity
 67
     1
  8
0
100
AcDbBlockBegin
  2
*PAPER_SPACE
 70
     0
 10
0.0
 20
0.0
 30
0.0
  3
*PAPER_SPACE
  1

  4

  0
ENDBLK
  5
12
330
E
100
AcDbEntity
 67
     1
  8
0
100
AcDbBlockEnd
  0
ENDSEC
  0
SECTION
  2
ENTITIES
  0
LINE
  5
17D
330
2
100
AcDbEntity
  8
0
100
AcDbLine
 10
0.0456807409612079
 20
0.0251675037985546
 30
0.0
 11
-1.954319259038796
 21
0.0251675037985546
 31
0.0
  0
LINE
  5
17E
330
2
100
AcDbEntity
  8
0
100
AcDbLine
 10
-1.919394284890055
 20
0.6645795399988383
 30
0.0
 11
-0.7333929911093282
 21
2.32498135129185
 31
0.0
  0
LINE
  5
17F
330
2
100
AcDbEntity
  8
0
  6
HIDDEN
100
AcDbLine
 10
0.0456807409612079
 20
0.0951675037985549
 30
0.0
 11
-1.954319259038796
 21
0.0951675037985549
 31
0.0
  0
LINE
  5
180
330
2
100
AcDbEntity
  8
0
100
AcDbLine
 10
-1.954319259038789
 20
0.0251675037985546
 30
0.0
 11
-1.954319259038792
 21
0.5555973786765076
 31
0.0
  0
LINE
  5
181
330
2
100
AcDbEntity
  8
0
100
AcDbLine
 10
-1.954319259038792
 20
0.0951675037985549
 30
0.0
 11
-1.954319259038792
 21
0.5555973786765076
 31
0.0
  0
ARC
  5
182
330
2
100
AcDbEntity
  8
0
100
AcDbCircle
 10
-1.766819259038792
 20
0.5555973786765076
 30
0.0
 40
0.1875
100
AcDbArc
 50
144.4623222080256
 51
180.0000000000001
  0
ARC
  5
183
330
2
100
AcDbEntity
  8
0
100
AcDbCircle
 10
0.2659972200214806
 20
4.570000000000001
 30
0.0
 40
0.25
100
AcDbArc
 50
102.9119081762552
 51
257.088091823745
  0
LINE
  5
184
330
2
100
AcDbEntity
  8
0
100
AcDbLine
 10
0.3031807409612117
 20
1.019375919578865
 30
0.0
 11
0.3031807409612082
 21
9.123876315100088
 31
0.0
  0
LINE
  5
185
330
2
100
AcDbEntity
  8
0
100
AcDbLine
 10
-0.6984680169605912
 20
4.433963512614182
 30
0.0
 11
-0.6984680169605912
 21
5.123876315100088
 31
0.0
  0
LINE
  5
186
330
2
100
AcDbEntity
  8
0
100
AcDbLine
 10
0.2331807409612079
 20
0.9464635126141907
 30
0.0
 11
0.2331807409612114
 21
9.123876315100091
 31
0.0
  0
LINE
  5
187
330
2
100
AcDbEntity
  8
0
100
AcDbLine
 10
0.0456807409612079
 20
0.0251675037985546
 30
0.0
 11
0.0456807409612079
 21
0.5607927511783171
 31
0.0
  0
LINE
  5
188
330
2
100
AcDbEntity
  8
0
100
AcDbLine
 10
0.0456807409612079
 20
0.0951675037985549
 30
0.0
 11
0.0456807409612079
 21
0.5637891175859906
 31
0.0
  0
ARC
  5
189
330
2
100
AcDbEntity
  8
0
100
AcDbCircle
 10
0.2331807409612079
 20
0.5637891175859906
 30
0.0
 40
0.1875
100
AcDbArc
 50
144.4623222080256
 51
180.0000000000001
  0
LINE
  5
18B
330
2
100
AcDbEntity
  8
0
100
AcDbLine
 10
0.2539230059286535
 20
0.8927057724380649
 30
0.0
 11
0.195481914820034
 21
0.8289257186180947
 31
0.0
  0
ARC
  5
18C
330
2
100
AcDbEntity
  8
0
100
AcDbCircle
 10
0.0456807409612079
 20
0.9464635126141907
 30
0.0
 40
0.1875
100
AcDbArc
 50
324.4623222080258
 51
0.0000000000000254
  0
LINE
  5
18D
330
2
100
AcDbEntity
  8
0
100
AcDbLine
 10
0.0806057151099449
 20
0.6727712789083213
 30
0.0
 11
0.1982557668124709
 21
0.83748135129186
 31
0.0
  0
ARC
  5
18E
330
2
100
AcDbEntity
  8
0
100
AcDbCircle
 10
0.1156807409612117
 20
1.019375919578865
 30
0.0
 40
0.1875
100
AcDbArc
 50
317.5012503477052
 51
0.0
  0
ARC
  5
18F
330
2
100
AcDbEntity
  8
0
100
AcDbCircle
 10
-0.8762585286770115
 20
3.089632531065909
 30
0.0
 40
0.1810582856468215
100
AcDbArc
 50
10.90209062767963
 51
79.482527614248
  0
LINE
  5
190
330
2
100
AcDbEntity
  8
0
100
AcDbLine
 10
-0.6984680169605912
 20
2.433963512614181
 30
0.0
 11
-0.6984680169605912
 21
3.123876315100088
 31
0.0
  0
ARC
  5
191
330
2
100
AcDbEntity
  8
0
100
AcDbCircle
 10
-0.8859680169605912
 20
2.433963512614181
 30
0.0
 40
0.1875
100
AcDbArc
 50
324.4623222080256
 51
0.0000000000000254
  0
LINE
  5
192
330
2
100
AcDbEntity
  8
0
100
AcDbLine
 10
-1.000176434992403
 20
3.462805096231837
 30
0.0
 11
-1.000176434992399
 21
4.062805096231839
 31
0.0
  0
ARC
  5
194
330
2
100
AcDbEntity
  8
0
100
AcDbCircle
 10
-0.7994589890997812
 20
3.462805096231837
 30
0.0
 40
0.2
100
AcDbArc
 50
180.0000000000001
 51
257.3643749069813
  0
ARC
  5
195
330
2
100
AcDbEntity
  8
0
100
AcDbCircle
 10
-0.891748554835039
 20
4.445592986315885
 30
0.0
 40
0.1936300880018748
100
AcDbArc
 50
284.2986806059
 51
356.5567282701691
  0
ARC
  5
196
330
2
100
AcDbEntity
  8
0
100
AcDbCircle
 10
-0.8001764349923999
 20
4.062805096231839
 30
0.0
 40
0.2
100
AcDbArc
 50
102.6356250930187
 51
180.0000000000001
  0
LINE
  5
198
330
2
100
AcDbEntity
  8
0
100
AcDbLine
 10
-1.000176434992403
 20
7.462805096231836
 30
0.0
 11
-1.000176434992399
 21
8.062805096231838
 31
0.0
  0
ARC
  5
199
330
2
100
AcDbEntity
  8
0
100
AcDbCircle
 10
-0.8917485548350372
 20
6.445592986315885
 30
0.0
 40
0.1936300880018744
100
AcDbArc
 50
284.2986806058995
 51
356.556728270169
  0
LINE
  5
19A
330
2
100
AcDbEntity
  8
0
100
AcDbLine
 10
-1.000176434992403
 20
5.462805096231837
 30
0.0
 11
-1.000176434992399
 21
6.062805096231839
 31
0.0
  0
ARC
  5
19B
330
2
100
AcDbEntity
  8
0
100
AcDbCircle
 10
-0.8762585286770115
 20
5.089632531065909
 30
0.0
 40
0.1810582856468216
100
AcDbArc
 50
10.90209062767977
 51
79.48252761424803
  0
ARC
  5
19C
330
2
100
AcDbEntity
  8
0
100
AcDbCircle
 10
-0.7994589890997812
 20
5.462805096231837
 30
0.0
 40
0.2
100
AcDbArc
 50
180.0000000000001
 51
257.3643749069813
  0
ARC
  5
19E
330
2
100
AcDbEntity
  8
0
100
AcDbCircle
 10
-0.8001764349923999
 20
6.062805096231839
 30
0.0
 40
0.2
100
AcDbArc
 50
102.6356250930187
 51
180.0000000000001
  0
ARC
  5
19F
330
2
100
AcDbEntity
  8
0
100
AcDbCircle
 10
-0.8762585286770115
 20
7.089632531065909
 30
0.0
 40
0.1810582856468213
100
AcDbArc
 50
10.90209062767922
 51
79.48252761424793
  0
LINE
  5
1A0
330
2
100
AcDbEntity
  8
0
100
AcDbLine
 10
-0.6984680169605912
 20
6.433963512614182
 30
0.0
 11
-0.6984680169605912
 21
7.123876315100088
 31
0.0
  0
ARC
  5
1A1
330
2
100
AcDbEntity
  8
0
100
AcDbCircle
 10
-0.7994589890997812
 20
7.462805096231836
 30
0.0
 40
0.2
100
AcDbArc
 50
180.0000000000001
 51
257.3643749069813
  0
LINE
  5
1A2
330
2
100
AcDbEntity
  8
0
100
AcDbLine
 10
-0.6984680169605912
 20
9.123876315100088
 30
0.0
 11
0.2331807409612079
 21
9.123876315100088
 31
0.0
  0
LINE
  5
1A3
330
2
100
AcDbEntity
  8
0
100
AcDbLine
 10
-0.6984680169605912
 20
8.433963512614181
 30
0.0
 11
-0.6984680169605912
 21
9.123876315100088
 31
0.0
  0
ARC
  5
1A4
330
2
100
AcDbEntity
  8
0
100
AcDbCircle
 10
-0.8920079831888508
 20
8.445807392907025
 30
0.0
 40
0.1939020268796267
100
AcDbArc
 50
284.3573167815793
 51
356.4980920944886
  0
ARC
  5
1A5
330
2
100
AcDbEntity
  8
0
100
AcDbCircle
 10
-0.8001764349923999
 20
8.062805096231838
 30
0.0
 40
0.2
100
AcDbArc
 50
102.6356250930187
 51
180.0000000000001
  0
LINE
  5
1A6
330
2
100
AcDbEntity
  8
0
100
AcDbLine
 10
0.3031807409612082
 20
9.123876315100088
 30
0.0
 11
0.19169129617155
 21
9.123876315100088
 31
0.0
  0
LINE
  5
1BF
330
2
100
AcDbEntity
  8
0
100
AcDbLine
 10
-0.7043192590388063
 20
0.7320004966590985
 30
0.0
 11
-0.7043192590388063
 21
0.9976084966591032
 31
0.0
  0
LWPOLYLINE
  5
1C0
330
2
100
AcDbEntity
  8
0
100
AcDbPolyline
 90
        9
 70
     0
 43
0.0
 10
-0.7043192590388063
 20
0.7601524966590989
 42
0.1432467981947568
 10
-0.6801035942175684
 20
0.7672354696554984
 42
0.1071754848060475
 10
-0.6564048748858067
 20
0.7908043577943649
 42
0.0783035184710328
 10
-0.6420560739683392
 20
0.8230807619711311
 42
0.0656020556757086
 10
-0.6365580871368781
 20
0.864804496659104
 42
0.0656020556757101
 10
-0.6420560739683392
 20
0.9065282313470706
 42
0.0783035184710357
 10
-0.6564048748858067
 20
0.9388046355238369
 42
0.1071754848060445
 10
-0.6801035942175684
 20
0.9623735236627034
 42
0.1432467981947535
 10
-0.7043192590388063
 20
0.9694564966591028
 42
0.1432467981947515
  0
LWPOLYLINE
  5
1C2
330
2
100
AcDbEntity
  8
0
100
AcDbPolyline
 90
        9
 70
     0
 43
0.0
 10
-0.7043192590388063
 20
0.7883044966590984
 42
0.147269582437036
 10
-0.6873306928027692
 20
0.7934192246793814
 42
0.1071386913803464
 10
-0.670480874885806
 20
0.8107108278983302
 42
0.0765137470862007
 10
-0.6603606374009079
 20
0.8342353764111237
 42
0.063469041210727
 10
-0.6564645572408434
 20
0.864804496659104
 42
0.0634690412107267
 10
-0.6603606374009079
 20
0.8953736169070781
 42
0.0765137470862059
 10
-0.670480874885806
 20
0.9188981654198716
 42
0.1071386913803463
 10
-0.6873306928027692
 20
0.9361897686388203
 42
0.1472695824370325
 10
-0.7043192590388063
 20
0.9413044966591033
 42
0.1472695824370333
  0
LINE
  5
1C3
330
2
100
AcDbEntity
  8
0
100
AcDbLine
 10
-0.7043192590388063
 20
3.674059633473156
 30
0.0
 11
-0.7043192590388063
 21
3.939667633473159
 31
0.0
  0
LWPOLYLINE
  5
1C4
330
2
100
AcDbEntity
  8
0
100
AcDbPolyline
 90
        9
 70
     0
 43
0.0
 10
-0.7043192590388063
 20
3.702211633473154
 42
0.1432467981947568
 10
-0.6801035942175684
 20
3.709294606469554
 42
0.1071754848060475
 10
-0.6564048748858067
 20
3.732863494608421
 42
0.0783035184710328
 10
-0.6420560739683392
 20
3.765139898785187
 42
0.0656020556757086
 10
-0.6365580871368781
 20
3.806863633473161
 42
0.0656020556757101
 10
-0.6420560739683392
 20
3.848587368161128
 42
0.0783035184710357
 10
-0.6564048748858067
 20
3.880863772337894
 42
0.1071754848060445
 10
-0.6801035942175684
 20
3.904432660476759
 42
0.1432467981947535
 10
-0.7043192590388063
 20
3.911515633473159
 42
0.1432467981947515
  0
LWPOLYLINE
  5
1C6
330
2
100
AcDbEntity
  8
0
100
AcDbPolyline
 90
        9
 70
     0
 43
0.0
 10
-0.7043192590388063
 20
3.730363633473155
 42
0.147269582437036
 10
-0.6873306928027692
 20
3.735478361493438
 42
0.1071386913803464
 10
-0.670480874885806
 20
3.752769964712386
 42
0.0765137470862007
 10
-0.6603606374009079
 20
3.776294513225179
 42
0.063469041210727
 10
-0.6564645572408434
 20
3.806863633473161
 42
0.0634690412107267
 10
-0.6603606374009079
 20
3.837432753721134
 42
0.0765137470862059
 10
-0.670480874885806
 20
3.860957302233929
 42
0.1071386913803463
 10
-0.6873306928027692
 20
3.878248905452876
 42
0.1472695824370325
 10
-0.7043192590388063
 20
3.883363633473159
 42
0.1472695824370333
  0
LINE
  5
1C7
330
2
100
AcDbEntity
  8
0
100
AcDbLine
 10
-0.7043192590388063
 20
7.674059633473153
 30
0.0
 11
-0.7043192590388063
 21
7.939667633473157
 31
0.0
  0
LWPOLYLINE
  5
1C8
330
2
100
AcDbEntity
  8
0
100
AcDbPolyline
 90
        9
 70
     0
 43
0.0
 10
-0.7043192590388063
 20
7.70221163347315
 42
0.1432467981947568
 10
-0.6801035942175684
 20
7.70929460646955
 42
0.1071754848060475
 10
-0.6564048748858067
 20
7.732863494608417
 42
0.0783035184710328
 10
-0.6420560739683392
 20
7.765139898785183
 42
0.0656020556757086
 10
-0.6365580871368781
 20
7.806863633473157
 42
0.0656020556757101
 10
-0.6420560739683392
 20
7.848587368161123
 42
0.0783035184710357
 10
-0.6564048748858067
 20
7.880863772337889
 42
0.1071754848060445
 10
-0.6801035942175684
 20
7.904432660476754
 42
0.1432467981947535
 10
-0.7043192590388063
 20
7.911515633473155
 42
0.1432467981947515
  0
LWPOLYLINE
  5
1CA
330
2
100
AcDbEntity
  8
0
100
AcDbPolyline
 90
        9
 70
     0
 43
0.0
 10
-0.7043192590388063
 20
7.73036363347315
 42
0.147269582437036
 10
-0.6873306928027692
 20
7.735478361493433
 42
0.1071386913803464
 10
-0.670480874885806
 20
7.752769964712382
 42
0.0765137470862007
 10
-0.6603606374009079
 20
7.776294513225174
 42
0.063469041210727
 10
-0.6564645572408434
 20
7.806863633473157
 42
0.0634690412107267
 10
-0.6603606374009079
 20
7.83743275372113
 42
0.0765137470862059
 10
-0.670480874885806
 20
7.860957302233924
 42
0.1071386913803463
 10
-0.6873306928027692
 20
7.878248905452871
 42
0.1472695824370325
 10
-0.7043192590388063
 20
7.883363633473154
 42
0.1472695824370333
  0
LINE
  5
1CB
330
2
100
AcDbEntity
  8
0
100
AcDbLine
 10
-0.7043192590388063
 20
5.674059633473156
 30
0.0
 11
-0.7043192590388063
 21
5.939667633473159
 31
0.0
  0
LWPOLYLINE
  5
1CC
330
2
100
AcDbEntity
  8
0
100
AcDbPolyline
 90
        9
 70
     0
 43
0.0
 10
-0.7043192590388063
 20
5.702211633473154
 42
0.1432467981947568
 10
-0.6801035942175684
 20
5.709294606469554
 42
0.1071754848060475
 10
-0.6564048748858067
 20
5.732863494608421
 42
0.0783035184710328
 10
-0.6420560739683392
 20
5.765139898785187
 42
0.0656020556757086
 10
-0.6365580871368781
 20
5.806863633473161
 42
0.0656020556757101
 10
-0.6420560739683392
 20
5.848587368161128
 42
0.0783035184710357
 10
-0.6564048748858067
 20
5.880863772337894
 42
0.1071754848060445
 10
-0.6801035942175684
 20
5.904432660476759
 42
0.1432467981947535
 10
-0.7043192590388063
 20
5.911515633473159
 42
0.1432467981947515
  0
LWPOLYLINE
  5
1CE
330
2
100
AcDbEntity
  8
0
100
AcDbPolyline
 90
        9
 70
     0
 43
0.0
 10
-0.7043192590388063
 20
5.730363633473155
 42
0.147269582437036
 10
-0.6873306928027692
 20
5.735478361493438
 42
0.1071386913803464
 10
-0.670480874885806
 20
5.752769964712386
 42
0.0765137470862007
 10
-0.6603606374009079
 20
5.776294513225179
 42
0.063469041210727
 10
-0.6564645572408434
 20
5.806863633473161
 42
0.0634690412107267
 10
-0.6603606374009079
 20
5.837432753721134
 42
0.0765137470862059
 10
-0.670480874885806
 20
5.860957302233929
 42
0.1071386913803463
 10
-0.6873306928027692
 20
5.878248905452876
 42
0.1472695824370325
 10
-0.7043192590388063
 20
5.883363633473159
 42
0.1472695824370333
  0
ARC
  5
277
330
2
100
AcDbEntity
  8
0
100
AcDbCircle
 10
-0.6513810181825885
 20
7.836014708069179
 30
0.0
 40
0.1545284259354844
100
AcDbArc
 50
304.7482755454344
 51
329.1575290112884
  0
ARC
  5
278
330
2
100
AcDbEntity
  8
0
100
AcDbCircle
 10
-0.6513810181825814
 20
7.777712558877127
 30
0.0
 40
0.1545284259354811
100
AcDbArc
 50
30.84247098871409
 51
55.25172445456781
  0
ARC
  5
279
330
2
100
AcDbEntity
  8
0
100
AcDbCircle
 10
-0.7043192590388134
 20
7.955024433710307
 30
0.0
 40
0.2864983002371524
100
AcDbArc
 50
270.0000000000014
 51
286.0310365777432
  0
ARC
  5
27A
330
2
100
AcDbEntity
  8
0
100
AcDbCircle
 10
-0.6833772749522726
 20
7.882140085773223
 30
0.0
 40
0.2106649640867842
100
AcDbArc
 50
286.0310365777398
 51
304.7482755454312
  0
ARC
  5
27B
330
2
100
AcDbEntity
  8
0
100
AcDbCircle
 10
-0.6833772749522868
 20
7.731587181173083
 30
0.0
 40
0.2106649640867918
100
AcDbArc
 50
55.25172445456567
 51
73.96896342225678
  0
ARC
  5
27C
330
2
100
AcDbEntity
  8
0
100
AcDbCircle
 10
-0.7043192590388134
 20
7.658702833236006
 30
0.0
 40
0.2864983002371495
100
AcDbArc
 50
73.96896342225659
 51
89.99999999999859
  0
ARC
  5
27D
330
2
100
AcDbEntity
  8
0
100
AcDbCircle
 10
-0.6025619492928005
 20
7.806863633473153
 30
0.0
 40
0.0976681881821226
100
AcDbArc
 50
329.1575290112875
 51
0.000000000000007
  0
ARC
  5
27E
330
2
100
AcDbEntity
  8
0
100
AcDbCircle
 10
-0.6025619492928076
 20
7.806863633473157
 30
0.0
 40
0.09766818818213
100
AcDbArc
 50
359.9999999999979
 51
30.84247098871043
  0
ARC
  5
27F
330
2
100
AcDbEntity
  8
0
100
AcDbCircle
 10
-0.6513810181825885
 20
5.836014708069182
 30
0.0
 40
0.1545284259354844
100
AcDbArc
 50
304.7482755454344
 51
329.1575290112884
  0
ARC
  5
280
330
2
100
AcDbEntity
  8
0
100
AcDbCircle
 10
-0.6513810181825814
 20
5.77771255887713
 30
0.0
 40
0.1545284259354811
100
AcDbArc
 50
30.84247098871409
 51
55.25172445456781
  0
ARC
  5
281
330
2
100
AcDbEntity
  8
0
100
AcDbCircle
 10
-0.7043192590388134
 20
5.955024433710309
 30
0.0
 40
0.2864983002371524
100
AcDbArc
 50
270.0000000000014
 51
286.0310365777432
  0
ARC
  5
282
330
2
100
AcDbEntity
  8
0
100
AcDbCircle
 10
-0.6833772749522726
 20
5.882140085773226
 30
0.0
 40
0.2106649640867842
100
AcDbArc
 50
286.0310365777398
 51
304.7482755454312
  0
ARC
  5
283
330
2
100
AcDbEntity
  8
0
100
AcDbCircle
 10
-0.6833772749522868
 20
5.731587181173086
 30
0.0
 40
0.2106649640867918
100
AcDbArc
 50
55.25172445456567
 51
73.96896342225678
  0
ARC
  5
284
330
2
100
AcDbEntity
  8
0
100
AcDbCircle
 10
-0.7043192590388134
 20
5.658702833236009
 30
0.0
 40
0.2864983002371495
100
AcDbArc
 50
73.96896342225659
 51
89.99999999999859
  0
ARC
  5
285
330
2
100
AcDbEntity
  8
0
100
AcDbCircle
 10
-0.6025619492928005
 20
5.806863633473156
 30
0.0
 40
0.0976681881821226
100
AcDbArc
 50
329.1575290112875
 51
0.000000000000007
  0
ARC
  5
286
330
2
100
AcDbEntity
  8
0
100
AcDbCircle
 10
-0.6025619492928076
 20
5.806863633473159
 30
0.0
 40
0.09766818818213
100
AcDbArc
 50
359.9999999999979
 51
30.84247098871043
  0
ARC
  5
287
330
2
100
AcDbEntity
  8
0
100
AcDbCircle
 10
-0.6513810181825885
 20
3.836014708069182
 30
0.0
 40
0.1545284259354844
100
AcDbArc
 50
304.7482755454344
 51
329.1575290112884
  0
ARC
  5
288
330
2
100
AcDbEntity
  8
0
100
AcDbCircle
 10
-0.6513810181825814
 20
3.77771255887713
 30
0.0
 40
0.1545284259354811
100
AcDbArc
 50
30.84247098871409
 51
55.25172445456781
  0
ARC
  5
289
330
2
100
AcDbEntity
  8
0
100
AcDbCircle
 10
-0.7043192590388134
 20
3.955024433710309
 30
0.0
 40
0.2864983002371524
100
AcDbArc
 50
270.0000000000014
 51
286.0310365777432
  0
ARC
  5
28A
330
2
100
AcDbEntity
  8
0
100
AcDbCircle
 10
-0.6833772749522726
 20
3.882140085773226
 30
0.0
 40
0.2106649640867842
100
AcDbArc
 50
286.0310365777398
 51
304.7482755454312
  0
ARC
  5
28B
330
2
100
AcDbEntity
  8
0
100
AcDbCircle
 10
-0.6833772749522868
 20
3.731587181173086
 30
0.0
 40
0.2106649640867918
100
AcDbArc
 50
55.25172445456567
 51
73.96896342225678
  0
ARC
  5
28C
330
2
100
AcDbEntity
  8
0
100
AcDbCircle
 10
-0.7043192590388134
 20
3.658702833236009
 30
0.0
 40
0.2864983002371495
100
AcDbArc
 50
73.96896342225659
 51
89.99999999999859
  0
ARC
  5
28D
330
2
100
AcDbEntity
  8
0
100
AcDbCircle
 10
-0.6025619492928005
 20
3.806863633473156
 30
0.0
 40
0.0976681881821226
100
AcDbArc
 50
329.1575290112875
 51
0.000000000000007
  0
ARC
  5
28E
330
2
100
AcDbEntity
  8
0
100
AcDbCircle
 10
-0.6025619492928076
 20
3.806863633473159
 30
0.0
 40
0.09766818818213
100
AcDbArc
 50
359.9999999999979
 51
30.84247098871043
  0
ARC
  5
28F
330
2
100
AcDbEntity
  8
0
100
AcDbCircle
 10
-0.6513810181825885
 20
0.893955571255125
 30
0.0
 40
0.1545284259354844
100
AcDbArc
 50
304.7482755454344
 51
329.1575290112884
  0
ARC
  5
290
330
2
100
AcDbEntity
  8
0
100
AcDbCircle
 10
-0.6513810181825814
 20
0.8356534220630731
 30
0.0
 40
0.1545284259354811
100
AcDbArc
 50
30.84247098871409
 51
55.25172445456781
  0
ARC
  5
291
330
2
100
AcDbEntity
  8
0
100
AcDbCircle
 10
-0.7043192590388134
 20
1.012965296896253
 30
0.0
 40
0.2864983002371524
100
AcDbArc
 50
270.0000000000014
 51
286.0310365777432
  0
ARC
  5
292
330
2
100
AcDbEntity
  8
0
100
AcDbCircle
 10
-0.6833772749522726
 20
0.9400809489591691
 30
0.0
 40
0.2106649640867842
100
AcDbArc
 50
286.0310365777398
 51
304.7482755454312
  0
ARC
  5
293
330
2
100
AcDbEntity
  8
0
100
AcDbCircle
 10
-0.6833772749522868
 20
0.7895280443590291
 30
0.0
 40
0.2106649640867918
100
AcDbArc
 50
55.25172445456567
 51
73.96896342225678
  0
ARC
  5
294
330
2
100
AcDbEntity
  8
0
100
AcDbCircle
 10
-0.7043192590388134
 20
0.7166436964219525
 30
0.0
 40
0.2864983002371495
100
AcDbArc
 50
73.96896342225659
 51
89.99999999999859
  0
ARC
  5
295
330
2
100
AcDbEntity
  8
0
100
AcDbCircle
 10
-0.6025619492928005
 20
0.8648044966590991
 30
0.0
 40
0.0976681881821226
100
AcDbArc
 50
329.1575290112875
 51
0.000000000000007
  0
ARC
  5
296
330
2
100
AcDbEntity
  8
0
100
AcDbCircle
 10
-0.6025619492928076
 20
0.8648044966591026
 30
0.0
 40
0.09766818818213
100
AcDbArc
 50
359.9999999999979
 51
30.84247098871043
  0
ENDSEC
  0
SECTION
  2
OBJECTS
  0
DICTIONARY
  5
9
330
0
100
AcDbDictionary
281
     1
  3
ACAD_COLOR
350
212
  3
ACAD_GROUP
350
23
  3
ACAD_LAYOUT
350
D
  3
ACAD_MATERIAL
350
211
  3
ACAD_MLINESTYLE
350
24
  3
ACAD_PLOTSETTINGS
350
25
  3
ACAD_PLOTSTYLENAME
350
8
  3
ACAD_TABLESTYLE
350
213
  3
ACDBHEADERROUNDTRIPXREC
350
2BB
  3
AcDbVariableDictionary
350
FA
  0
DICTIONARY
  5
212
102
{ACAD_REACTORS
330
9
102
}
330
9
100
AcDbDictionary
281
     1
  0
DICTIONARY
  5
23
102
{ACAD_REACTORS
330
9
102
}
330
9
100
AcDbDictionary
281
     1
  0
DICTIONARY
  5
D
102
{ACAD_REACTORS
330
9
102
}
330
9
100
AcDbDictionary
281
     1
  3
Layout1
350
13
  3
Model
350
C
  0
DICTIONARY
  5
211
102
{ACAD_REACTORS
330
9
102
}
330
9
100
AcDbDictionary
281
     1
  0
DICTIONARY
  5
24
102
{ACAD_REACTORS
330
9
102
}
330
9
100
AcDbDictionary
281
     1
  3
STANDARD
350
27
  0
DICTIONARY
  5
25
102
{ACAD_REACTORS
330
9
102
}
330
9
100
AcDbDictionary
281
     1
  0
ACDBDICTIONARYWDFLT
  5
8
102
{ACAD_REACTORS
330
9
102
}
330
9
100
AcDbDictionary
281
     1
  3
Normal
350
7
100
AcDbDictionaryWithDefault
340
7
  0
DICTIONARY
  5
213
102
{ACAD_REACTORS
330
9
102
}
330
9
100
AcDbDictionary
281
     1
  3
Standard
350
214
  0
DICTIONARY
  5
2BB
102
{ACAD_REACTORS
330
9
102
}
330
9
100
AcDbDictionary
281
     1
  3
COLORDICT
350
2BC
  3
MATERIALDICT
350
2BD
  0
DICTIONARY
  5
FA
102
{ACAD_REACTORS
330
9
102
}
330
9
100
AcDbDictionary
281
     1
  3
CTABLESTYLE
350
2A8
  3
HIDETEXT
350
2BA
  0
LAYOUT
  5
13
102
{ACAD_REACTORS
330
D
102
}
102
{ACAD_XDICTIONARY
360
2BE
102
}
330
D
100
AcDbPlotSettings
  1

  2
C:\ACAD2000\plotters\HP LaserJet 2100 Series PS.pc3
  4

  6

 40
0.0
 41
0.0
 42
0.0
 43
0.0
 44
0.0
 45
0.0
 46
0.0
 47
0.0
 48
0.0
 49
0.0
140
0.0
141
0.0
142
1.0
143
1.0
 70
   688
 72
     0
 73
     0
 74
     5
  7

 75
    16
147
1.0
148
0.0
149
0.0
100
AcDbLayout
  1
Layout1
 70
     0
 71
     1
 10
0.0
 20
0.0
 11
12.0
 21
9.0
 12
0.0
 22
0.0
 32
0.0
 14
1.000000000000000E+20
 24
1.000000000000000E+20
 34
1.000000000000000E+20
 15
-1.000000000000000E+20
 25
-1.000000000000000E+20
 35
-1.000000000000000E+20
146
0.0
 13
0.0
 23
0.0
 33
0.0
 16
1.0
 26
0.0
 36
0.0
 17
0.0
 27
1.0
 37
0.0
 76
     0
330
E
  0
LAYOUT
  5
C
102
{ACAD_REACTORS
330
D
102
}
102
{ACAD_XDICTIONARY
360
2C0
102
}
330
D
100
AcDbPlotSettings
  1

  2
HP LaserJet 2100 Series PS
  4
Letter
  6

 40
3.174999952316284
 41
3.174999952316284
 42
3.175003051757813
 43
3.17498779296875
 44
215.9000091552734
 45
279.3999938964844
 46
0.0
 47
0.0
 48
0.0
 49
0.0
140
0.0
141
0.0
142
1.0
143
3.181818088418051
 70
 28336
 72
     0
 73
     1
 74
     2
  7

 75
     0
147
0.3142857235113601
148
0.0
149
0.0
100
AcDbLayout
  1
Model
 70
     1
 71
     0
 10
0.0
 20
0.0
 11
12.0
 21
9.0
 12
0.0
 22
0.0
 32
0.0
 14
0.0
 24
0.0
 34
0.0
 15
0.0
 25
0.0
 35
0.0
146
0.0
 13
0.0
 23
0.0
 33
0.0
 16
1.0
 26
0.0
 36
0.0
 17
0.0
 27
1.0
 37
0.0
 76
     0
330
2
  0
MLINESTYLE
  5
27
102
{ACAD_REACTORS
330
24
102
}
330
24
100
AcDbMlineStyle
  2
STANDARD
 70
     0
  3

 62
   256
 51
90.0
 52
90.0
 71
     2
 49
0.5
 62
   256
  6
BYLAYER
 49
-0.5
 62
   256
  6
BYLAYER
  0
ACDBPLACEHOLDER
  5
7
102
{ACAD_REACTORS
330
8
102
}
330
8
  0
ACAD_PROXY_OBJECT
  5
214
102
{ACAD_REACTORS
330
213
102
}
330
213
100
AcDbProxyObject
 90
      499
 91
      513
 95
   983063
 70
     0
 93
     1841
310
4214DD185B99185C9928B81E85EB51B8AE3F2E07A17AD46E2B8FC02B5E8DC0F42B1CFD028000000C1008070000C3001FDFF8000000C1003FBFF000000182007F7FE00000030400FEFFC00000060801FDFF8000000C1003FBFF00000018200000000000000681FA0B0000001820100E000186003FBFF000000182007F7FE000
310
00030400FEFFC00000060801FDFF8000000C1003FBFF000000182007F7FE000000304000AD7A3703D0AC73F4160000003040201C00030C007F7FE00000030400FEFFC00000060801FDFF8000000C1003FBFF000000182007F7FE00000030400FEFFC000000608000
340
16
340
16
340
16
 94
        0
  0
XRECORD
  5
2BC
102
{ACAD_REACTORS
330
2BB
102
}
330
2BB
100
AcDbXrecord
340
212
  0
XRECORD
  5
2BD
102
{ACAD_REACTORS
330
2BB
102
}
330
2BB
100
AcDbXrecord
340
211
  0
DICTIONARYVAR
  5
2A8
102
{ACAD_REACTORS
330
FA
102
}
330
FA
100
DictionaryVariables
280
     0
  1
STANDARD
  0
DICTIONARYVAR
  5
2BA
102
{ACAD_REACTORS
330
FA
102
}
330
FA
100
DictionaryVariables
280
     0
  1
0
  0
DICTIONARY
  5
2BE
330
13
100
AcDbDictionary
280
     1
281
     1
  3
ACAD_XREC_ROUNDTRIP
360
2BF
  0
DICTIONARY
  5
2C0
330
C
100
AcDbDictionary
280
     1
281
     1
  3
ACAD_XREC_ROUNDTRIP
360
2C1
  0
XRECORD
  5
2BF
102
{ACAD_REACTORS
330
2BE
102
}
330
2BE
100
AcDbXrecord
102
SHADEPLOT
 70
     0
102
SHADEPLOTRESLEVEL
 70
     2
102
SHADEPLOTCUSTOMDPI
 70
   300
  0
XRECORD
  5
2C1
102
{ACAD_REACTORS
330
2C0
102
}
330
2C0
100
AcDbXrecord
102
SHADEPLOT
 70
     0
102
SHADEPLOTRESLEVEL
 70
     2
102
SHADEPLOTCUSTOMDPI
 70
   300
  0
ENDSEC
  0
EOF
