  0
SECTION
  2
HEADER
  9
$ACADVER
  1
AC1015
  9
$ACADMAINTVER
 70
     6
  9
$DWGCODEPAGE
  3
ANSI_1252
  9
$INSBASE
 10
0.0
 20
0.0
 30
0.0
  9
$EXTMIN
 10
-8.7498078463355
 20
-0.0309751051458989
 30
-0.0000000000000058
  9
$EXTMAX
 10
8.748083626813681
 20
19.10710560524325
 30
0.0000000000000104
  9
$LIMMIN
 10
0.0
 20
0.0
  9
$LIMMAX
 10
26.6664
 20
34.99965
  9
$ORTHOMODE
 70
     1
  9
$REGENMODE
 70
     1
  9
$FILLMODE
 70
     1
  9
$QTEXTMODE
 70
     0
  9
$MIRRTEXT
 70
     0
  9
$LTSCALE
 40
1.0
  9
$ATTMODE
 70
     1
  9
$TEXTSIZE
 40
0.299997
  9
$TRACEWID
 40
0.05
  9
$TEXTSTYLE
  7
STANDARD
  9
$CLAYER
  8
0
  9
$CELTYPE
  6
BYLAYER
  9
$CECOLOR
 62
   256
  9
$CELTSCALE
 40
1.0
  9
$DISPSILH
 70
     0
  9
$DIMSCALE
 40
3.3333
  9
$DIMASZ
 40
0.125
  9
$DIMEXO
 40
0.062
  9
$DIMDLI
 40
0.375
  9
$DIMRND
 40
0.0
  9
$DIMDLE
 40
0.0
  9
$DIMEXE
 40
0.08
  9
$DIMTP
 40
0.0
  9
$DIMTM
 40
0.0
  9
$DIMTXT
 40
0.09
  9
$DIMCEN
 40
-0.03125
  9
$DIMTSZ
 40
0.0
  9
$DIMTOL
 70
     0
  9
$DIMLIM
 70
     0
  9
$DIMTIH
 70
     1
  9
$DIMTOH
 70
     1
  9
$DIMSE1
 70
     0
  9
$DIMSE2
 70
     0
  9
$DIMTAD
 70
     0
  9
$DIMZIN
 70
     0
  9
$DIMBLK
  1

  9
$DIMASO
 70
     0
  9
$DIMSHO
 70
     0
  9
$DIMPOST
  1

  9
$DIMAPOST
  1

  9
$DIMALT
 70
     0
  9
$DIMALTD
 70
     2
  9
$DIMALTF
 40
25.4
  9
$DIMLFAC
 40
1.0
  9
$DIMTOFL
 70
     0
  9
$DIMTVP
 40
0.0
  9
$DIMTIX
 70
     0
  9
$DIMSOXD
 70
     0
  9
$DIMSAH
 70
     0
  9
$DIMBLK1
  1

  9
$DIMBLK2
  1

  9
$DIMSTYLE
  2
STANDARD
  9
$DIMCLRD
 70
     0
  9
$DIMCLRE
 70
     0
  9
$DIMCLRT
 70
     0
  9
$DIMTFAC
 40
1.0
  9
$DIMGAP
 40
0.08984375
  9
$DIMJUST
 70
     0
  9
$DIMSD1
 70
     0
  9
$DIMSD2
 70
     0
  9
$DIMTOLJ
 70
     1
  9
$DIMTZIN
 70
     0
  9
$DIMALTZ
 70
     0
  9
$DIMALTTZ
 70
     0
  9
$DIMUPT
 70
     0
  9
$DIMDEC
 70
     5
  9
$DIMTDEC
 70
     6
  9
$DIMALTU
 70
     5
  9
$DIMALTTD
 70
     2
  9
$DIMTXSTY
  7
STANDARD
  9
$DIMAUNIT
 70
     0
  9
$DIMADEC
 70
     0
  9
$DIMALTRND
 40
0.0
  9
$DIMAZIN
 70
     0
  9
$DIMDSEP
 70
    46
  9
$DIMATFIT
 70
     3
  9
$DIMFRAC
 70
     2
  9
$DIMLDRBLK
  1

  9
$DIMLUNIT
 70
     5
  9
$DIMLWD
 70
    -2
  9
$DIMLWE
 70
    -2
  9
$DIMTMOVE
 70
     2
  9
$LUNITS
 70
     5
  9
$LUPREC
 70
     6
  9
$SKETCHINC
 40
0.1
  9
$FILLETRAD
 40
0.0
  9
$AUNITS
 70
     0
  9
$AUPREC
 70
     0
  9
$MENU
  1
acad
  9
$ELEVATION
 40
0.0
  9
$PELEVATION
 40
0.0
  9
$THICKNESS
 40
0.0
  9
$LIMCHECK
 70
     0
  9
$CHAMFERA
 40
0.0
  9
$CHAMFERB
 40
0.0
  9
$CHAMFERC
 40
0.0
  9
$CHAMFERD
 40
0.0
  9
$SKPOLY
 70
     0
  9
$TDCREATE
 40
2449882.96078287
  9
$TDUCREATE
 40
2449883.294116204
  9
$TDUPDATE
 40
2454166.806857477
  9
$TDUUPDATE
 40
2454167.14019081
  9
$TDINDWG
 40
0.0876715856
  9
$TDUSRTIMER
 40
0.0876715856
  9
$USRTIMER
 70
     1
  9
$ANGBASE
 50
0.0
  9
$ANGDIR
 70
     0
  9
$PDMODE
 70
     0
  9
$PDSIZE
 40
0.0
  9
$PLINEWID
 40
0.0
  9
$SPLFRAME
 70
     0
  9
$SPLINETYPE
 70
     6
  9
$SPLINESEGS
 70
     8
  9
$HANDSEED
  5
310
  9
$SURFTAB1
 70
     6
  9
$SURFTAB2
 70
     6
  9
$SURFTYPE
 70
     6
  9
$SURFU
 70
     6
  9
$SURFV
 70
     6
  9
$UCSBASE
  2

  9
$UCSNAME
  2

  9
$UCSORG
 10
0.0
 20
0.0
 30
0.0
  9
$UCSXDIR
 10
1.0
 20
0.0
 30
0.0
  9
$UCSYDIR
 10
0.0
 20
1.0
 30
0.0
  9
$UCSORTHOREF
  2

  9
$UCSORTHOVIEW
 70
     0
  9
$UCSORGTOP
 10
0.0
 20
0.0
 30
0.0
  9
$UCSORGBOTTOM
 10
0.0
 20
0.0
 30
0.0
  9
$UCSORGLEFT
 10
0.0
 20
0.0
 30
0.0
  9
$UCSORGRIGHT
 10
0.0
 20
0.0
 30
0.0
  9
$UCSORGFRONT
 10
0.0
 20
0.0
 30
0.0
  9
$UCSORGBACK
 10
0.0
 20
0.0
 30
0.0
  9
$PUCSBASE
  2

  9
$PUCSNAME
  2

  9
$PUCSORG
 10
0.0
 20
0.0
 30
0.0
  9
$PUCSXDIR
 10
1.0
 20
0.0
 30
0.0
  9
$PUCSYDIR
 10
0.0
 20
1.0
 30
0.0
  9
$PUCSORTHOREF
  2

  9
$PUCSORTHOVIEW
 70
     0
  9
$PUCSORGTOP
 10
0.0
 20
0.0
 30
0.0
  9
$PUCSORGBOTTOM
 10
0.0
 20
0.0
 30
0.0
  9
$PUCSORGLEFT
 10
0.0
 20
0.0
 30
0.0
  9
$PUCSORGRIGHT
 10
0.0
 20
0.0
 30
0.0
  9
$PUCSORGFRONT
 10
0.0
 20
0.0
 30
0.0
  9
$PUCSORGBACK
 10
0.0
 20
0.0
 30
0.0
  9
$USERI1
 70
     0
  9
$USERI2
 70
     0
  9
$USERI3
 70
     0
  9
$USERI4
 70
     0
  9
$USERI5
 70
     0
  9
$USERR1
 40
0.0
  9
$USERR2
 40
0.0
  9
$USERR3
 40
0.0
  9
$USERR4
 40
0.0
  9
$USERR5
 40
0.0
  9
$WORLDVIEW
 70
     1
  9
$SHADEDGE
 70
     3
  9
$SHADEDIF
 70
    70
  9
$TILEMODE
 70
     1
  9
$MAXACTVP
 70
    16
  9
$PINSBASE
 10
0.0
 20
0.0
 30
0.0
  9
$PLIMCHECK
 70
     0
  9
$PEXTMIN
 10
1.000000000000000E+20
 20
1.000000000000000E+20
 30
1.000000000000000E+20
  9
$PEXTMAX
 10
-1.000000000000000E+20
 20
-1.000000000000000E+20
 30
-1.000000000000000E+20
  9
$PLIMMIN
 10
0.0
 20
0.0
  9
$PLIMMAX
 10
12.0
 20
9.0
  9
$UNITMODE
 70
     0
  9
$VISRETAIN
 70
     0
  9
$PLINEGEN
 70
     1
  9
$PSLTSCALE
 70
     0
  9
$TREEDEPTH
 70
  3020
  9
$CMLSTYLE
  2
STANDARD
  9
$CMLJUST
 70
     0
  9
$CMLSCALE
 40
1.0
  9
$PROXYGRAPHICS
 70
     1
  9
$MEASUREMENT
 70
     0
  9
$CELWEIGHT
370
    -1
  9
$ENDCAPS
280
     0
  9
$JOINSTYLE
280
     0
  9
$LWDISPLAY
290
     0
  9
$INSUNITS
 70
     0
  9
$HYPERLINKBASE
  1

  9
$STYLESHEET
  1

  9
$XEDIT
290
     1
  9
$CEPSNTYPE
380
     0
  9
$PSTYLEMODE
290
     1
  9
$FINGERPRINTGUID
  2
{9E3C033F-2033-44E3-97CF-61E3321883E3}
  9
$VERSIONGUID
  2
{3108623D-30EA-442D-B1E3-0C4E9F0B2236}
  9
$EXTNAMES
290
     1
  9
$PSVPSCALE
 40
0.0
  9
$OLESTARTUP
290
     0
  0
ENDSEC
  0
SECTION
  2
CLASSES
  0
CLASS
  1
DICTIONARYVAR
  2
AcDbDictionaryVar
  3
AutoCAD 2000
 90
        0
280
     0
281
     0
  0
CLASS
  1
LWPOLYLINE
  2
AcDbPolyline
  3
AutoCAD 2000
 90
        0
280
     0
281
     1
  0
CLASS
  1
ACDBDICTIONARYWDFLT
  2
AcDbDictionaryWithDefault
  3
AutoCAD 2000
 90
        0
280
     0
281
     0
  0
CLASS
  1
ACDBPLACEHOLDER
  2
AcDbPlaceHolder
  3
ObjectDBX Classes
 90
        0
280
     0
281
     0
  0
CLASS
  1
LAYOUT
  2
AcDbLayout
  3
ObjectDBX Classes
 90
        0
280
     0
281
     0
  0
CLASS
  1
LONG_TRANSACTION
  2
AcDbLongTransaction
  3
ObjectDBX Classes
 90
   -65536
280
     1
281
     0
  0
CLASS
  1
LWPOLYLINE
  2
AcDbPolyline
  3
AutoCAD 2000
 90
        0
280
     0
281
     1
  0
CLASS
  1
HATCH
  2
AcDbHatch
  3
AutoCAD 2000
 90
        0
280
     0
281
     1
  0
CLASS
  1
XRECORD
  2
AcDbXrecord
  3
AutoCAD 2000
 90
        0
280
     0
281
     0
  0
CLASS
  1
LONG_TRANSACTION
  2
AcDbLongTransaction
  3
ObjectDBX Classes
 90
   -65536
280
     1
281
     0
  0
CLASS
  1
LWPOLYLINE
  2
AcDbPolyline
  3
AutoCAD 2000
 90
        0
280
     0
281
     1
  0
CLASS
  1
HATCH
  2
AcDbHatch
  3
AutoCAD 2000
 90
        0
280
     0
281
     1
  0
CLASS
  1
XRECORD
  2
AcDbXrecord
  3
AutoCAD 2000
 90
        0
280
     0
281
     0
  0
CLASS
  1
LONG_TRANSACTION
  2
AcDbLongTransaction
  3
ObjectDBX Classes
 90
   -65536
280
     1
281
     0
  0
CLASS
  1
LWPOLYLINE
  2
AcDbPolyline
  3
AutoCAD 2000
 90
        0
280
     0
281
     1
  0
CLASS
  1
HATCH
  2
AcDbHatch
  3
AutoCAD 2000
 90
        0
280
     0
281
     1
  0
CLASS
  1
XRECORD
  2
AcDbXrecord
  3
AutoCAD 2000
 90
        0
280
     0
281
     0
  0
CLASS
  1
TABLESTYLE
  2
AcDbTableStyle
  3
ObjectDBX Classes
 90
     2047
280
     1
281
     0
  0
ENDSEC
  0
SECTION
  2
TABLES
  0
TABLE
  2
VPORT
  5
1D
330
0
100
AcDbSymbolTable
 70
     3
  0
VPORT
  5
302
330
1D
100
AcDbSymbolTableRecord
100
AcDbViewportTableRecord
  2
*Active
 70
     0
 10
0.0
 20
0.0
 11
1.0
 21
1.0
 12
8.958296169720967
 22
12.60754280205928
 13
0.0
 23
0.0
 14
0.063
 24
0.063
 15
0.25
 25
0.25
 16
0.0
 26
0.0
 36
1.0
 17
0.0
 27
0.0
 37
0.0
 40
35.46759760922596
 41
1.814583333333333
 42
50.0
 43
0.0
 44
0.0
 50
0.0
 51
0.0
 71
     0
 72
   100
 73
     1
 74
     0
 75
     0
 76
     0
 77
     0
 78
     0
281
     0
 65
     1
110
0.0
120
0.0
130
0.0
111
1.0
121
0.0
131
0.0
112
0.0
122
1.0
132
0.0
 79
     0
146
0.0
  0
ENDTAB
  0
TABLE
  2
LTYPE
  5
18
330
0
100
AcDbSymbolTable
 70
     2
  0
LTYPE
  5
19
330
18
100
AcDbSymbolTableRecord
100
AcDbLinetypeTableRecord
  2
BYBLOCK
 70
     0
  3

 72
    65
 73
     0
 40
0.0
  0
LTYPE
  5
1A
330
18
100
AcDbSymbolTableRecord
100
AcDbLinetypeTableRecord
  2
BYLAYER
 70
     0
  3

 72
    65
 73
     0
 40
0.0
  0
LTYPE
  5
A
330
18
100
AcDbSymbolTableRecord
100
AcDbLinetypeTableRecord
  2
CONTINUOUS
 70
     0
  3
Solid line
 72
    65
 73
     0
 40
0.0
  0
LTYPE
  5
2FB
330
18
100
AcDbSymbolTableRecord
100
AcDbLinetypeTableRecord
  2
HIDDEN
 70
     0
  3
Hidden __ __ __ __ __ __ __ __ __ __ __ __ __ _
 72
    65
 73
     2
 40
0.375
 49
0.25
 74
     0
 49
-0.125
 74
     0
  0
ENDTAB
  0
TABLE
  2
LAYER
  5
14
330
0
100
AcDbSymbolTable
 70
     1
  0
LAYER
  5
6
330
14
100
AcDbSymbolTableRecord
100
AcDbLayerTableRecord
  2
0
 70
     0
 62
     7
  6
CONTINUOUS
370
    -3
390
7
  0
ENDTAB
  0
TABLE
  2
STYLE
  5
15
330
0
100
AcDbSymbolTable
 70
     2
  0
STYLE
  5
16
330
15
100
AcDbSymbolTableRecord
100
AcDbTextStyleTableRecord
  2
STANDARD
 70
     0
 40
0.0
 41
1.0
 50
0.0
 71
     0
 42
0.299997
  3
TXT
  4

  0
STYLE
  5
2FA
330
15
100
AcDbSymbolTableRecord
100
AcDbTextStyleTableRecord
  2

 70
     1
 40
0.0
 41
1.0
 50
0.0
 71
     0
 42
0.299997
  3
ltypeshp.shx
  4

  0
ENDTAB
  0
TABLE
  2
VIEW
  5
1B
330
0
100
AcDbSymbolTable
 70
     0
  0
ENDTAB
  0
TABLE
  2
UCS
  5
1C
330
0
100
AcDbSymbolTable
 70
     0
  0
ENDTAB
  0
TABLE
  2
APPID
  5
1F
330
0
100
AcDbSymbolTable
 70
     1
  0
APPID
  5
20
330
1F
100
AcDbSymbolTableRecord
100
AcDbRegAppTableRecord
  2
ACAD
 70
     0
  0
ENDTAB
  0
TABLE
  2
DIMSTYLE
  5
21
330
0
100
AcDbSymbolTable
 70
     1
100
AcDbDimStyleTable
  0
DIMSTYLE
105
28
330
21
100
AcDbSymbolTableRecord
100
AcDbDimStyleTableRecord
  2
STANDARD
 70
     0
  3

  4

340
16
  0
ENDTAB
  0
TABLE
  2
BLOCK_RECORD
  5
1
330
0
100
AcDbSymbolTable
 70
     0
  0
BLOCK_RECORD
  5
2
330
1
100
AcDbSymbolTableRecord
100
AcDbBlockTableRecord
  2
*MODEL_SPACE
340
C
  0
BLOCK_RECORD
  5
E
330
1
100
AcDbSymbolTableRecord
100
AcDbBlockTableRecord
  2
*PAPER_SPACE
340
13
  0
ENDTAB
  0
ENDSEC
  0
SECTION
  2
BLOCKS
  0
BLOCK
  5
5
330
2
100
AcDbEntity
  8
0
100
AcDbBlockBegin
  2
*MODEL_SPACE
 70
     0
 10
0.0
 20
0.0
 30
0.0
  3
*MODEL_SPACE
  1

  4

  0
ENDBLK
  5
B
330
2
100
AcDbEntity
  8
0
100
AcDbBlockEnd
  0
BLOCK
  5
11
330
E
100
AcDbEntity
 67
     1
  8
0
100
AcDbBlockBegin
  2
*PAPER_SPACE
 70
     0
 10
0.0
 20
0.0
 30
0.0
  3
*PAPER_SPACE
  1

  4

  0
ENDBLK
  5
12
330
E
100
AcDbEntity
 67
     1
  8
0
100
AcDbBlockEnd
  0
ENDSEC
  0
SECTION
  2
ENTITIES
  0
LINE
  5
11F
330
2
100
AcDbEntity
  8
0
100
AcDbLine
 10
1.785432455434624
 20
2.140000000000002
 30
0.0
 11
1.785432455434624
 21
10.6325
 31
0.0
  0
LINE
  5
120
330
2
100
AcDbEntity
  8
0
100
AcDbLine
 10
-1.855432455434624
 20
2.140000000000001
 30
0.0
 11
-1.855432455434631
 21
10.6325
 31
0.0
  0
LINE
  5
121
330
2
100
AcDbEntity
  8
0
100
AcDbLine
 10
-1.785432455434627
 20
2.140000000000001
 30
0.0
 11
-1.785432455434627
 21
10.6325
 31
0.0
  0
LINE
  5
122
330
2
100
AcDbEntity
  8
0
100
AcDbLine
 10
1.855432455434624
 20
2.140000000000001
 30
0.0
 11
1.855432455434618
 21
10.6325
 31
0.0
  0
ARC
  5
123
330
2
100
AcDbEntity
  8
0
100
AcDbCircle
 10
2.806530618474197
 20
6.026147209151198
 30
0.0
 40
0.2
100
AcDbArc
 50
102.6356250930187
 51
180.0
  0
ARC
  5
124
330
2
100
AcDbEntity
  8
0
100
AcDbCircle
 10
-2.806530618474199
 20
6.026147209151198
 30
0.0
 40
0.2
100
AcDbArc
 50
0.0000000000000254
 51
77.36437490698125
  0
LINE
  5
125
330
2
100
AcDbEntity
  8
0
100
AcDbLine
 10
-1.715432455434623
 20
0.0
 30
0.0
 11
1.715432455434623
 21
0.0
 31
0.0
  0
LINE
  5
126
330
2
100
AcDbEntity
  8
0
100
AcDbLine
 10
-1.715432455434627
 20
0.0700000000000003
 30
0.0
 11
1.715432455434623
 21
0.0700000000000003
 31
0.0
  0
LINE
  5
127
330
2
100
AcDbEntity
  8
0
100
AcDbLine
 10
-1.855432455434624
 20
0.1400000000000006
 30
0.0
 11
-1.855432455434627
 21
5.07
 31
0.0
  0
LINE
  5
128
330
2
100
AcDbEntity
  8
0
100
AcDbLine
 10
-1.785432455434627
 20
0.1400000000000006
 30
0.0
 11
-1.785432455434627
 21
5.07
 31
0.0
  0
ARC
  5
129
330
2
100
AcDbEntity
  8
0
100
AcDbCircle
 10
-1.715432455434623
 20
0.1400000000000006
 30
0.0
 40
0.14
100
AcDbArc
 50
180.0000000000001
 51
270.0
  0
ARC
  5
12A
330
2
100
AcDbEntity
  8
0
100
AcDbCircle
 10
-1.715432455434627
 20
0.1400000000000006
 30
0.0
 40
0.07
100
AcDbArc
 50
180.0
 51
270.0
  0
ARC
  5
12B
330
2
100
AcDbEntity
  8
0
100
AcDbCircle
 10
-2.843570162734948
 20
3.439148104014401
 30
0.0
 40
0.2373958062194578
100
AcDbArc
 50
292.0001217776733
 51
356.8606469279009
  0
ARC
  5
12C
330
2
100
AcDbEntity
  8
0
100
AcDbCircle
 10
-2.710889660650505
 20
3.023882546910194
 30
0.0
 40
0.2
100
AcDbArc
 50
102.6356250930189
 51
180.0
  0
LINE
  5
12D
330
2
100
AcDbEntity
  8
0
100
AcDbLine
 10
-1.855432455434624
 20
0.8325000000000071
 30
0.0
 11
-2.883007481285887
 21
2.271105036191763
 31
0.0
  0
LINE
  5
12F
330
2
100
AcDbEntity
  8
0
100
AcDbLine
 10
-2.917932455434624
 20
2.380087197514094
 30
0.0
 11
-2.910889660650505
 21
3.023882546910194
 31
0.0
  0
CIRCLE
  5
130
330
2
100
AcDbEntity
  8
0
100
AcDbCircle
 10
-2.605432455434624
 20
2.32
 30
0.0
 40
0.0855
  0
ARC
  5
131
330
2
100
AcDbEntity
  8
0
100
AcDbCircle
 10
-2.730432455434624
 20
2.380087197514094
 30
0.0
 40
0.1875
100
AcDbArc
 50
180.0
 51
215.5376777919745
  0
ARC
  5
132
330
2
100
AcDbEntity
  8
0
100
AcDbCircle
 10
-2.673850116389759
 20
5.010881652046989
 30
0.0
 40
0.2373958062194579
100
AcDbArc
 50
112.0001217776736
 51
176.860646927901
  0
ARC
  5
133
330
2
100
AcDbEntity
  8
0
100
AcDbCircle
 10
-2.719030618474204
 20
4.416459584051147
 30
0.0
 40
0.2
100
AcDbArc
 50
180.0
 51
257.3643749069807
  0
LINE
  5
134
330
2
100
AcDbEntity
  8
0
100
AcDbLine
 10
-2.919030618474204
 20
4.416459584051147
 30
0.0
 11
-2.910889660650505
 21
5.023882546910194
 31
0.0
  0
ARC
  5
135
330
2
100
AcDbEntity
  8
0
100
AcDbCircle
 10
-2.806530618474199
 20
4.026147209151198
 30
0.0
 40
0.2
100
AcDbArc
 50
0.0000000000000254
 51
77.36437490698125
  0
LINE
  5
136
330
2
100
AcDbEntity
  8
0
100
AcDbLine
 10
-2.606530618474203
 20
4.026147209151198
 30
0.0
 11
-2.606530618474203
 21
3.426147209151196
 31
0.0
  0
CIRCLE
  5
137
330
2
100
AcDbEntity
  8
0
100
AcDbCircle
 10
-2.605432455434624
 20
4.32
 30
0.0
 40
0.0855
  0
ARC
  5
138
330
2
100
AcDbEntity
  8
0
100
AcDbCircle
 10
-1.81706892800711
 20
4.1325
 30
0.0
 40
0.25
100
AcDbArc
 50
98.82715068361172
 51
261.1728493163883
  0
LINE
  5
13A
330
2
100
AcDbEntity
  8
0
100
AcDbLine
 10
-2.606530618474203
 20
6.026147209151198
 30
0.0
 11
-2.606530618474203
 21
5.426147209151196
 31
0.0
  0
ARC
  5
13B
330
2
100
AcDbEntity
  8
0
100
AcDbCircle
 10
-2.806530618474202
 20
5.426147209151196
 30
0.0
 40
0.2
100
AcDbArc
 50
282.6356250930186
 51
0.0000000000000254
  0
LINE
  5
13D
330
2
100
AcDbEntity
  8
0
100
AcDbLine
 10
1.855432455434624
 20
0.1400000000000006
 30
0.0
 11
1.855432455434624
 21
5.07
 31
0.0
  0
LINE
  5
13E
330
2
100
AcDbEntity
  8
0
100
AcDbLine
 10
1.785432455434624
 20
0.1400000000000006
 30
0.0
 11
1.785432455434624
 21
5.07
 31
0.0
  0
ARC
  5
13F
330
2
100
AcDbEntity
  8
0
100
AcDbCircle
 10
1.715432455434623
 20
0.1400000000000006
 30
0.0
 40
0.14
100
AcDbArc
 50
270.0
 51
0.0
  0
ARC
  5
140
330
2
100
AcDbEntity
  8
0
100
AcDbCircle
 10
1.715432455434623
 20
0.1400000000000006
 30
0.0
 40
0.07
100
AcDbArc
 50
270.0
 51
0.0
  0
ARC
  5
141
330
2
100
AcDbEntity
  8
0
100
AcDbCircle
 10
2.8065306184742
 20
3.426147209151196
 30
0.0
 40
0.2
100
AcDbArc
 50
180.0
 51
257.3643749069813
  0
LINE
  5
142
330
2
100
AcDbEntity
  8
0
100
AcDbLine
 10
1.855432455434624
 20
5.07
 30
0.0
 11
1.855432455434624
 21
0.8648044966590973
 31
0.0
  0
LINE
  5
143
330
2
100
AcDbEntity
  8
0
100
AcDbLine
 10
1.884486366047007
 20
0.8731754748573373
 30
0.0
 11
2.883007481285885
 21
2.271105036191763
 31
0.0
  0
CIRCLE
  5
145
330
2
100
AcDbEntity
  8
0
100
AcDbCircle
 10
2.605432455434624
 20
2.32
 30
0.0
 40
0.0855
  0
LINE
  5
146
330
2
100
AcDbEntity
  8
0
100
AcDbLine
 10
2.917932455434622
 20
2.380087197514094
 30
0.0
 11
2.917932455434622
 21
3.07
 31
0.0
  0
ARC
  5
147
330
2
100
AcDbEntity
  8
0
100
AcDbCircle
 10
2.730432455434622
 20
2.380087197514094
 30
0.0
 40
0.1875
100
AcDbArc
 50
324.4623222080255
 51
0.0
  0
ARC
  5
148
330
2
100
AcDbEntity
  8
0
100
AcDbCircle
 10
2.715481193209787
 20
3.030149427147829
 30
0.0
 40
0.20633608926476
100
AcDbArc
 50
11.13575422006761
 51
76.74797083893327
  0
LINE
  5
149
330
2
100
AcDbEntity
  8
0
100
AcDbLine
 10
2.917932455434622
 20
4.380087197514094
 30
0.0
 11
2.917932455434622
 21
5.07
 31
0.0
  0
CIRCLE
  5
14A
330
2
100
AcDbEntity
  8
0
100
AcDbCircle
 10
2.605432455434622
 20
4.32
 30
0.0
 40
0.0855
  0
ARC
  5
14B
330
2
100
AcDbEntity
  8
0
100
AcDbCircle
 10
1.81706892800711
 20
4.1325
 30
0.0
 40
0.25
100
AcDbArc
 50
278.8271506836109
 51
81.17284931638909
  0
ARC
  5
14D
330
2
100
AcDbEntity
  8
0
100
AcDbCircle
 10
2.806530618474197
 20
4.026147209151198
 30
0.0
 40
0.2
100
AcDbArc
 50
102.6356250930187
 51
180.0
  0
LINE
  5
14E
330
2
100
AcDbEntity
  8
0
100
AcDbLine
 10
2.606530618474201
 20
4.026147209151198
 30
0.0
 11
2.606530618474201
 21
3.426147209151196
 31
0.0
  0
ARC
  5
14F
330
2
100
AcDbEntity
  8
0
100
AcDbCircle
 10
2.714569818713059
 20
4.423604814830648
 30
0.0
 40
0.2079666921198116
100
AcDbArc
 50
283.4042354776939
 51
347.9214306605649
  0
LINE
  5
151
330
2
100
AcDbEntity
  8
0
100
AcDbLine
 10
2.606530618474201
 20
6.026147209151198
 30
0.0
 11
2.606530618474201
 21
5.426147209151196
 31
0.0
  0
ARC
  5
152
330
2
100
AcDbEntity
  8
0
100
AcDbCircle
 10
2.715481193209787
 20
5.030149427147828
 30
0.0
 40
0.2063360892647601
100
AcDbArc
 50
11.13575422006785
 51
76.74797083893331
  0
ARC
  5
153
330
2
100
AcDbEntity
  8
0
100
AcDbCircle
 10
2.8065306184742
 20
5.426147209151196
 30
0.0
 40
0.2
100
AcDbArc
 50
180.0
 51
257.3643749069813
  0
LINE
  5
154
330
2
100
AcDbEntity
  8
0
100
AcDbLine
 10
-2.917932455434624
 20
8.380087197514094
 30
0.0
 11
-2.917932455434624
 21
9.045517781083049
 31
0.0
  0
ARC
  5
155
330
2
100
AcDbEntity
  8
0
100
AcDbCircle
 10
-2.714569818713057
 20
8.42360481483065
 30
0.0
 40
0.2079666921198162
100
AcDbArc
 50
192.0785693394353
 51
256.595764522305
  0
ARC
  5
156
330
2
100
AcDbEntity
  8
0
100
AcDbCircle
 10
-2.715481193209858
 20
7.030149427147978
 30
0.0
 40
0.2063360892646641
100
AcDbArc
 50
103.2520291610575
 51
168.8642457799693
  0
ARC
  5
157
330
2
100
AcDbEntity
  8
0
100
AcDbCircle
 10
-2.71456981871306
 20
6.423604814830648
 30
0.0
 40
0.2079666921198121
100
AcDbArc
 50
192.0785693394348
 51
256.5957645223058
  0
LINE
  5
158
330
2
100
AcDbEntity
  8
0
100
AcDbLine
 10
-2.606530618474203
 20
8.026147209151198
 30
0.0
 11
-2.606530618474203
 21
7.426147209151196
 31
0.0
  0
LINE
  5
159
330
2
100
AcDbEntity
  8
0
100
AcDbLine
 10
-2.917932455434624
 20
6.380087197514094
 30
0.0
 11
-2.917932455434624
 21
7.07
 31
0.0
  0
CIRCLE
  5
15A
330
2
100
AcDbEntity
  8
0
100
AcDbCircle
 10
-2.605432455434624
 20
6.32
 30
0.0
 40
0.0855
  0
ARC
  5
15B
330
2
100
AcDbEntity
  8
0
100
AcDbCircle
 10
-2.806530618474202
 20
7.426147209151196
 30
0.0
 40
0.2
100
AcDbArc
 50
282.6356250930186
 51
0.0000000000000254
  0
ARC
  5
15C
330
2
100
AcDbEntity
  8
0
100
AcDbCircle
 10
-2.806530618474199
 20
8.026147209151198
 30
0.0
 40
0.2
100
AcDbArc
 50
0.0000000000000254
 51
77.36437490698125
  0
CIRCLE
  5
15D
330
2
100
AcDbEntity
  8
0
100
AcDbCircle
 10
-2.605432455434624
 20
8.32
 30
0.0
 40
0.0855
  0
ARC
  5
15F
330
2
100
AcDbEntity
  8
0
100
AcDbCircle
 10
-2.664556034143977
 20
9.037636766068296
 30
0.0
 40
0.2534989571255042
100
AcDbArc
 50
112.7974961009889
 51
178.21844762561
  0
LINE
  5
160
330
2
100
AcDbEntity
  8
0
100
AcDbLine
 10
-2.917932455434624
 20
10.08431549807086
 30
0.0
 11
-2.917932455434624
 21
10.6325
 31
0.0
  0
LINE
  5
161
330
2
100
AcDbEntity
  8
0
100
AcDbLine
 10
-2.606530618474203
 20
9.739208872686739
 30
0.0
 11
-2.606530618474203
 21
9.466488593821765
 31
0.0
  0
ARC
  5
162
330
2
100
AcDbEntity
  8
0
100
AcDbCircle
 10
-2.806530618474202
 20
9.466488593821765
 30
0.0
 40
0.2
100
AcDbArc
 50
282.6356250930186
 51
0.0000000000000254
  0
ARC
  5
163
330
2
100
AcDbEntity
  8
0
100
AcDbCircle
 10
-2.794030618474203
 20
9.739208872686739
 30
0.0
 40
0.1875
100
AcDbArc
 50
359.9999999999998
 51
50.50336447242521
  0
LINE
  5
164
330
2
100
AcDbEntity
  8
0
100
AcDbLine
 10
-2.917932455434624
 20
10.08431549807086
 30
0.0
 11
-2.674774448126648
 21
9.88389548517744
 31
0.0
  0
LINE
  5
166
330
2
100
AcDbEntity
  8
0
100
AcDbLine
 10
-1.79303435035224
 20
10.6325
 30
0.0
 11
-2.925534350352237
 21
10.6325
 31
0.0
  0
LINE
  5
167
330
2
100
AcDbEntity
  8
0
100
AcDbLine
 10
-1.785432455434627
 20
10.6325
 30
0.0
 11
-2.917932455434624
 21
10.6325
 31
0.0
  0
CIRCLE
  5
168
330
2
100
AcDbEntity
  8
0
100
AcDbCircle
 10
-2.605432455434624
 20
10.32
 30
0.0
 40
0.0855
  0
LINE
  5
169
330
2
100
AcDbEntity
  8
0
100
AcDbLine
 10
2.917932455434622
 20
8.380087197514094
 30
0.0
 11
2.91793245543462
 21
9.097106084037073
 31
0.0
  0
LINE
  5
16A
330
2
100
AcDbEntity
  8
0
100
AcDbLine
 10
2.606530618474201
 20
8.026147209151198
 30
0.0
 11
2.606530618474201
 21
7.426147209151196
 31
0.0
  0
CIRCLE
  5
16B
330
2
100
AcDbEntity
  8
0
100
AcDbCircle
 10
2.605432455434622
 20
6.32
 30
0.0
 40
0.0855
  0
LINE
  5
16C
330
2
100
AcDbEntity
  8
0
100
AcDbLine
 10
2.917932455434622
 20
6.380087197514094
 30
0.0
 11
2.917932455434622
 21
7.07
 31
0.0
  0
ARC
  5
16D
330
2
100
AcDbEntity
  8
0
100
AcDbCircle
 10
2.714569818713059
 20
6.423604814830648
 30
0.0
 40
0.2079666921198108
100
AcDbArc
 50
283.404235477694
 51
347.9214306605652
  0
ARC
  5
16E
330
2
100
AcDbEntity
  8
0
100
AcDbCircle
 10
2.715481193209787
 20
7.030149427147829
 30
0.0
 40
0.20633608926476
100
AcDbArc
 50
11.13575422006761
 51
76.74797083893327
  0
ARC
  5
16F
330
2
100
AcDbEntity
  8
0
100
AcDbCircle
 10
2.8065306184742
 20
7.426147209151196
 30
0.0
 40
0.2
100
AcDbArc
 50
180.0
 51
257.3643749069813
  0
CIRCLE
  5
170
330
2
100
AcDbEntity
  8
0
100
AcDbCircle
 10
2.605432455434622
 20
8.32
 30
0.0
 40
0.0855
  0
ARC
  5
172
330
2
100
AcDbEntity
  8
0
100
AcDbCircle
 10
2.806530618474197
 20
8.026147209151198
 30
0.0
 40
0.2
100
AcDbArc
 50
102.6356250930187
 51
180.0
  0
ARC
  5
173
330
2
100
AcDbEntity
  8
0
100
AcDbCircle
 10
2.714569818713054
 20
8.423604814830648
 30
0.0
 40
0.2079666921198128
100
AcDbArc
 50
283.4042354776952
 51
347.9214306605652
  0
LINE
  5
174
330
2
100
AcDbEntity
  8
0
100
AcDbLine
 10
2.91793245543462
 20
10.0666532325308
 30
0.0
 11
2.91793245543462
 21
10.6325
 31
0.0
  0
LINE
  5
176
330
2
100
AcDbEntity
  8
0
100
AcDbLine
 10
2.606530618474201
 20
9.75731445074706
 30
0.0
 11
2.606530618474201
 21
9.466488593821765
 31
0.0
  0
ARC
  5
177
330
2
100
AcDbEntity
  8
0
100
AcDbCircle
 10
2.719030618474316
 20
9.076176218921981
 30
0.0
 40
0.1999999999997986
100
AcDbArc
 50
6.006963088918903
 51
77.36437490700169
  0
ARC
  5
178
330
2
100
AcDbEntity
  8
0
100
AcDbCircle
 10
2.8065306184742
 20
9.466488593821765
 30
0.0
 40
0.2
100
AcDbArc
 50
180.0
 51
257.3643749069813
  0
ARC
  5
17A
330
2
100
AcDbEntity
  8
0
100
AcDbCircle
 10
2.688377476871241
 20
10.21607133156556
 30
0.0
 40
0.2739000848893526
100
AcDbArc
 50
285.7620802590197
 51
326.9397630925823
  0
ARC
  5
17B
330
2
100
AcDbEntity
  8
0
100
AcDbCircle
 10
2.806530618474197
 20
9.757314254469861
 30
0.0
 40
0.2
100
AcDbArc
 50
102.6356250930187
 51
180.0
  0
LINE
  5
17C
330
2
100
AcDbEntity
  8
0
100
AcDbLine
 10
1.785432455434624
 20
10.6325
 30
0.0
 11
2.917932455434622
 21
10.6325
 31
0.0
  0
CIRCLE
  5
17D
330
2
100
AcDbEntity
  8
0
100
AcDbCircle
 10
2.605432455434622
 20
10.32
 30
0.0
 40
0.0855
  0
LWPOLYLINE
  5
1DA
330
2
100
AcDbEntity
  8
0
100
AcDbPolyline
 90
        9
 70
     0
 43
0.0
 10
-1.855432455434619
 20
1.265928661397222
 42
-0.1432467981947568
 10
-1.880657106290076
 20
1.273306758268472
 42
-0.1071754848060475
 10
-1.905343272260661
 20
1.297857683413124
 42
-0.0783035184710328
 10
-1.920289939883022
 20
1.331478937763922
 42
-0.0656020556757086
 10
-1.926017009499129
 20
1.374941161397228
 42
-0.0656020556757101
 10
-1.920289939883022
 20
1.418403385030526
 42
-0.0783035184710357
 10
-1.905343272260661
 20
1.452024639381325
 42
-0.1071754848060445
 10
-1.880657106290076
 20
1.476575564525977
 42
-0.1432467981947535
 10
-1.855432455434619
 20
1.483953661397226
 42
-0.1432467981947515
  0
LINE
  5
1DB
330
2
100
AcDbEntity
  8
0
100
AcDbLine
 10
-1.855432455434619
 20
1.236603661397222
 30
0.0
 11
-1.855432455434619
 21
1.513278661397226
 31
0.0
  0
LWPOLYLINE
  5
1DC
330
2
100
AcDbEntity
  8
0
100
AcDbPolyline
 90
        9
 70
     0
 43
0.0
 10
-1.855432455434619
 20
1.295253661397222
 42
-0.147269582437036
 10
-1.87312887859716
 20
1.300581503085017
 42
-0.1071386913803464
 10
-1.890680772260661
 20
1.318593589771421
 42
-0.0765137470862007
 10
-1.90122268630743
 20
1.343098327805581
 42
-0.063469041210727
 10
-1.905281103140832
 20
1.374941161397228
 42
-0.0634690412107267
 10
-1.90122268630743
 20
1.406783994988867
 42
-0.0765137470862059
 10
-1.890680772260661
 20
1.431288733023028
 42
-0.1071386913803463
 10
-1.87312887859716
 20
1.449300819709432
 42
-0.1472695824370325
 10
-1.855432455434619
 20
1.454628661397226
 42
-0.1472695824370333
  0
LWPOLYLINE
  5
1DD
330
2
100
AcDbEntity
  8
0
100
AcDbPolyline
 90
        9
 70
     0
 43
0.0
 10
-1.855432455434626
 20
3.578428661397222
 42
-0.1432467981947568
 10
-1.880657106290083
 20
3.585806758268472
 42
-0.1071754848060475
 10
-1.905343272260669
 20
3.610357683413124
 42
-0.0783035184710328
 10
-1.92028993988303
 20
3.643978937763922
 42
-0.0656020556757086
 10
-1.926017009499137
 20
3.687441161397228
 42
-0.0656020556757101
 10
-1.92028993988303
 20
3.730903385030526
 42
-0.0783035184710357
 10
-1.905343272260669
 20
3.764524639381325
 42
-0.1071754848060445
 10
-1.880657106290083
 20
3.789075564525977
 42
-0.1432467981947535
 10
-1.855432455434626
 20
3.796453661397226
 42
-0.1432467981947515
  0
LINE
  5
1DE
330
2
100
AcDbEntity
  8
0
100
AcDbLine
 10
-1.855432455434626
 20
3.549103661397222
 30
0.0
 11
-1.855432455434626
 21
3.825778661397226
 31
0.0
  0
LWPOLYLINE
  5
1DF
330
2
100
AcDbEntity
  8
0
100
AcDbPolyline
 90
        9
 70
     0
 43
0.0
 10
-1.855432455434626
 20
3.607753661397222
 42
-0.147269582437036
 10
-1.873128878597167
 20
3.613081503085017
 42
-0.1071386913803464
 10
-1.890680772260668
 20
3.631093589771421
 42
-0.0765137470862007
 10
-1.901222686307437
 20
3.655598327805581
 42
-0.063469041210727
 10
-1.905281103140839
 20
3.687441161397228
 42
-0.0634690412107267
 10
-1.901222686307437
 20
3.719283994988867
 42
-0.0765137470862059
 10
-1.890680772260668
 20
3.743788733023028
 42
-0.1071386913803463
 10
-1.873128878597167
 20
3.761800819709432
 42
-0.1472695824370325
 10
-1.855432455434626
 20
3.767128661397226
 42
-0.1472695824370333
  0
LWPOLYLINE
  5
1E0
330
2
100
AcDbEntity
  8
0
100
AcDbPolyline
 90
        9
 70
     0
 43
0.0
 10
-1.855432455434626
 20
5.578428661397222
 42
-0.1432467981947568
 10
-1.880657106290083
 20
5.585806758268472
 42
-0.1071754848060475
 10
-1.905343272260669
 20
5.610357683413124
 42
-0.0783035184710328
 10
-1.92028993988303
 20
5.643978937763922
 42
-0.0656020556757086
 10
-1.926017009499137
 20
5.687441161397228
 42
-0.0656020556757101
 10
-1.92028993988303
 20
5.730903385030526
 42
-0.0783035184710357
 10
-1.905343272260669
 20
5.764524639381325
 42
-0.1071754848060445
 10
-1.880657106290083
 20
5.789075564525977
 42
-0.1432467981947535
 10
-1.855432455434626
 20
5.796453661397226
 42
-0.1432467981947515
  0
LINE
  5
1E1
330
2
100
AcDbEntity
  8
0
100
AcDbLine
 10
-1.855432455434626
 20
5.549103661397222
 30
0.0
 11
-1.855432455434626
 21
5.825778661397226
 31
0.0
  0
LWPOLYLINE
  5
1E2
330
2
100
AcDbEntity
  8
0
100
AcDbPolyline
 90
        9
 70
     0
 43
0.0
 10
-1.855432455434626
 20
5.607753661397222
 42
-0.147269582437036
 10
-1.873128878597167
 20
5.613081503085017
 42
-0.1071386913803464
 10
-1.890680772260668
 20
5.631093589771421
 42
-0.0765137470862007
 10
-1.901222686307437
 20
5.655598327805581
 42
-0.063469041210727
 10
-1.905281103140839
 20
5.687441161397228
 42
-0.0634690412107267
 10
-1.901222686307437
 20
5.719283994988867
 42
-0.0765137470862059
 10
-1.890680772260668
 20
5.743788733023028
 42
-0.1071386913803463
 10
-1.873128878597167
 20
5.761800819709432
 42
-0.1472695824370325
 10
-1.855432455434626
 20
5.767128661397226
 42
-0.1472695824370333
  0
LWPOLYLINE
  5
1E3
330
2
100
AcDbEntity
  8
0
100
AcDbPolyline
 90
        9
 70
     0
 43
0.0
 10
1.85543245543462
 20
0.7557919966590951
 42
0.1432467981947568
 10
1.880657106290077
 20
0.7631700935303449
 42
0.1071754848060475
 10
1.905343272260662
 20
0.787721018674997
 42
0.0783035184710328
 10
1.920289939883023
 20
0.8213422730257953
 42
0.0656020556757086
 10
1.92601700949913
 20
0.8648044966591009
 42
0.0656020556757101
 10
1.920289939883023
 20
0.9082667202923993
 42
0.0783035184710357
 10
1.905343272260662
 20
0.9418879746431976
 42
0.1071754848060445
 10
1.880657106290077
 20
0.9664388997878497
 42
0.1432467981947535
 10
1.85543245543462
 20
0.9738169966590995
 42
0.1432467981947515
  0
LINE
  5
1E4
330
2
100
AcDbEntity
  8
0
100
AcDbLine
 10
1.85543245543462
 20
0.7264669966590951
 30
0.0
 11
1.85543245543462
 21
1.0031419966591
 31
0.0
  0
LWPOLYLINE
  5
1E5
330
2
100
AcDbEntity
  8
0
100
AcDbPolyline
 90
        9
 70
     0
 43
0.0
 10
1.85543245543462
 20
0.7851169966590952
 42
0.147269582437036
 10
1.873128878597161
 20
0.7904448383468896
 42
0.1071386913803464
 10
1.890680772260662
 20
0.808456925033294
 42
0.0765137470862007
 10
1.901222686307431
 20
0.8329616630674543
 42
0.063469041210727
 10
1.905281103140833
 20
0.8648044966591009
 42
0.0634690412107267
 10
1.901222686307431
 20
0.8966473302507403
 42
0.0765137470862059
 10
1.890680772260662
 20
0.9211520682849006
 42
0.1071386913803463
 10
1.873128878597161
 20
0.939164154971305
 42
0.1472695824370325
 10
1.85543245543462
 20
0.9444919966590994
 42
0.1472695824370333
  0
LWPOLYLINE
  5
1E6
330
2
100
AcDbEntity
  8
0
100
AcDbPolyline
 90
        9
 70
     0
 43
0.0
 10
1.85543245543462
 20
3.697851133473151
 42
0.1432467981947568
 10
1.880657106290077
 20
3.705229230344401
 42
0.1071754848060475
 10
1.905343272260662
 20
3.729780155489053
 42
0.0783035184710328
 10
1.920289939883023
 20
3.763401409839851
 42
0.0656020556757086
 10
1.92601700949913
 20
3.806863633473157
 42
0.0656020556757101
 10
1.920289939883023
 20
3.850325857106455
 42
0.0783035184710357
 10
1.905343272260662
 20
3.883947111457253
 42
0.1071754848060445
 10
1.880657106290077
 20
3.908498036601905
 42
0.1432467981947535
 10
1.85543245543462
 20
3.915876133473155
 42
0.1432467981947515
  0
LINE
  5
1E7
330
2
100
AcDbEntity
  8
0
100
AcDbLine
 10
1.85543245543462
 20
3.668526133473151
 30
0.0
 11
1.85543245543462
 21
3.945201133473155
 31
0.0
  0
LWPOLYLINE
  5
1E8
330
2
100
AcDbEntity
  8
0
100
AcDbPolyline
 90
        9
 70
     0
 43
0.0
 10
1.85543245543462
 20
3.727176133473151
 42
0.147269582437036
 10
1.873128878597161
 20
3.732503975160945
 42
0.1071386913803464
 10
1.890680772260662
 20
3.75051606184735
 42
0.0765137470862007
 10
1.901222686307431
 20
3.77502079988151
 42
0.063469041210727
 10
1.905281103140833
 20
3.806863633473157
 42
0.0634690412107267
 10
1.901222686307431
 20
3.838706467064796
 42
0.0765137470862059
 10
1.890680772260662
 20
3.863211205098956
 42
0.1071386913803463
 10
1.873128878597161
 20
3.881223291785361
 42
0.1472695824370325
 10
1.85543245543462
 20
3.886551133473155
 42
0.1472695824370333
  0
LWPOLYLINE
  5
1E9
330
2
100
AcDbEntity
  8
0
100
AcDbPolyline
 90
        9
 70
     0
 43
0.0
 10
1.85543245543462
 20
5.697851133473151
 42
0.1432467981947568
 10
1.880657106290077
 20
5.705229230344401
 42
0.1071754848060475
 10
1.905343272260662
 20
5.729780155489053
 42
0.0783035184710328
 10
1.920289939883023
 20
5.763401409839851
 42
0.0656020556757086
 10
1.92601700949913
 20
5.806863633473157
 42
0.0656020556757101
 10
1.920289939883023
 20
5.850325857106455
 42
0.0783035184710357
 10
1.905343272260662
 20
5.883947111457253
 42
0.1071754848060445
 10
1.880657106290077
 20
5.908498036601905
 42
0.1432467981947535
 10
1.85543245543462
 20
5.915876133473155
 42
0.1432467981947515
  0
LINE
  5
1EA
330
2
100
AcDbEntity
  8
0
100
AcDbLine
 10
1.85543245543462
 20
5.668526133473151
 30
0.0
 11
1.85543245543462
 21
5.945201133473155
 31
0.0
  0
LWPOLYLINE
  5
1EB
330
2
100
AcDbEntity
  8
0
100
AcDbPolyline
 90
        9
 70
     0
 43
0.0
 10
1.85543245543462
 20
5.727176133473151
 42
0.147269582437036
 10
1.873128878597161
 20
5.732503975160945
 42
0.1071386913803464
 10
1.890680772260662
 20
5.75051606184735
 42
0.0765137470862007
 10
1.901222686307431
 20
5.77502079988151
 42
0.063469041210727
 10
1.905281103140833
 20
5.806863633473157
 42
0.0634690412107267
 10
1.901222686307431
 20
5.838706467064796
 42
0.0765137470862059
 10
1.890680772260662
 20
5.863211205098956
 42
0.1071386913803463
 10
1.873128878597161
 20
5.881223291785361
 42
0.1472695824370325
 10
1.85543245543462
 20
5.886551133473155
 42
0.1472695824370333
  0
LWPOLYLINE
  5
1EC
330
2
100
AcDbEntity
  8
0
100
AcDbPolyline
 90
        9
 70
     0
 43
0.0
 10
-1.855432455434626
 20
7.578428661397222
 42
-0.1432467981947568
 10
-1.880657106290083
 20
7.585806758268472
 42
-0.1071754848060475
 10
-1.905343272260669
 20
7.610357683413124
 42
-0.0783035184710328
 10
-1.92028993988303
 20
7.643978937763922
 42
-0.0656020556757086
 10
-1.926017009499137
 20
7.687441161397228
 42
-0.0656020556757101
 10
-1.92028993988303
 20
7.730903385030526
 42
-0.0783035184710357
 10
-1.905343272260669
 20
7.764524639381325
 42
-0.1071754848060445
 10
-1.880657106290083
 20
7.789075564525977
 42
-0.1432467981947535
 10
-1.855432455434626
 20
7.796453661397226
 42
-0.1432467981947515
  0
LINE
  5
1ED
330
2
100
AcDbEntity
  8
0
100
AcDbLine
 10
-1.855432455434626
 20
7.549103661397222
 30
0.0
 11
-1.855432455434626
 21
7.825778661397226
 31
0.0
  0
LWPOLYLINE
  5
1EE
330
2
100
AcDbEntity
  8
0
100
AcDbPolyline
 90
        9
 70
     0
 43
0.0
 10
-1.855432455434626
 20
7.607753661397222
 42
-0.147269582437036
 10
-1.873128878597167
 20
7.613081503085017
 42
-0.1071386913803464
 10
-1.890680772260668
 20
7.631093589771421
 42
-0.0765137470862007
 10
-1.901222686307437
 20
7.655598327805581
 42
-0.063469041210727
 10
-1.905281103140839
 20
7.687441161397228
 42
-0.0634690412107267
 10
-1.901222686307437
 20
7.719283994988867
 42
-0.0765137470862059
 10
-1.890680772260668
 20
7.743788733023028
 42
-0.1071386913803463
 10
-1.873128878597167
 20
7.761800819709432
 42
-0.1472695824370325
 10
-1.855432455434626
 20
7.767128661397226
 42
-0.1472695824370333
  0
LWPOLYLINE
  5
1EF
330
2
100
AcDbEntity
  8
0
100
AcDbPolyline
 90
        9
 70
     0
 43
0.0
 10
-1.855432455434626
 20
9.578428661397222
 42
-0.1432467981947568
 10
-1.880657106290083
 20
9.585806758268472
 42
-0.1071754848060475
 10
-1.905343272260669
 20
9.610357683413124
 42
-0.0783035184710328
 10
-1.92028993988303
 20
9.643978937763922
 42
-0.0656020556757086
 10
-1.926017009499137
 20
9.687441161397228
 42
-0.0656020556757101
 10
-1.92028993988303
 20
9.730903385030526
 42
-0.0783035184710357
 10
-1.905343272260669
 20
9.764524639381325
 42
-0.1071754848060445
 10
-1.880657106290083
 20
9.789075564525977
 42
-0.1432467981947535
 10
-1.855432455434626
 20
9.796453661397226
 42
-0.1432467981947515
  0
LINE
  5
1F0
330
2
100
AcDbEntity
  8
0
100
AcDbLine
 10
-1.855432455434626
 20
9.549103661397222
 30
0.0
 11
-1.855432455434626
 21
9.825778661397226
 31
0.0
  0
LWPOLYLINE
  5
1F1
330
2
100
AcDbEntity
  8
0
100
AcDbPolyline
 90
        9
 70
     0
 43
0.0
 10
-1.855432455434626
 20
9.607753661397222
 42
-0.147269582437036
 10
-1.873128878597167
 20
9.613081503085017
 42
-0.1071386913803464
 10
-1.890680772260668
 20
9.631093589771421
 42
-0.0765137470862007
 10
-1.901222686307437
 20
9.655598327805581
 42
-0.063469041210727
 10
-1.905281103140839
 20
9.687441161397228
 42
-0.0634690412107267
 10
-1.901222686307437
 20
9.719283994988867
 42
-0.0765137470862059
 10
-1.890680772260668
 20
9.743788733023028
 42
-0.1071386913803463
 10
-1.873128878597167
 20
9.761800819709432
 42
-0.1472695824370325
 10
-1.855432455434626
 20
9.767128661397226
 42
-0.1472695824370333
  0
LWPOLYLINE
  5
1F2
330
2
100
AcDbEntity
  8
0
100
AcDbPolyline
 90
        9
 70
     0
 43
0.0
 10
1.85543245543462
 20
7.697851133473151
 42
0.1432467981947568
 10
1.880657106290077
 20
7.705229230344401
 42
0.1071754848060475
 10
1.905343272260662
 20
7.729780155489053
 42
0.0783035184710328
 10
1.920289939883023
 20
7.763401409839851
 42
0.0656020556757086
 10
1.92601700949913
 20
7.806863633473157
 42
0.0656020556757101
 10
1.920289939883023
 20
7.850325857106455
 42
0.0783035184710357
 10
1.905343272260662
 20
7.883947111457253
 42
0.1071754848060445
 10
1.880657106290077
 20
7.908498036601905
 42
0.1432467981947535
 10
1.85543245543462
 20
7.915876133473155
 42
0.1432467981947515
  0
LINE
  5
1F3
330
2
100
AcDbEntity
  8
0
100
AcDbLine
 10
1.85543245543462
 20
7.668526133473151
 30
0.0
 11
1.85543245543462
 21
7.945201133473155
 31
0.0
  0
LWPOLYLINE
  5
1F4
330
2
100
AcDbEntity
  8
0
100
AcDbPolyline
 90
        9
 70
     0
 43
0.0
 10
1.85543245543462
 20
7.727176133473151
 42
0.147269582437036
 10
1.873128878597161
 20
7.732503975160945
 42
0.1071386913803464
 10
1.890680772260662
 20
7.75051606184735
 42
0.0765137470862007
 10
1.901222686307431
 20
7.77502079988151
 42
0.063469041210727
 10
1.905281103140833
 20
7.806863633473157
 42
0.0634690412107267
 10
1.901222686307431
 20
7.838706467064796
 42
0.0765137470862059
 10
1.890680772260662
 20
7.863211205098956
 42
0.1071386913803463
 10
1.873128878597161
 20
7.881223291785361
 42
0.1472695824370325
 10
1.85543245543462
 20
7.886551133473155
 42
0.1472695824370333
  0
LWPOLYLINE
  5
1F5
330
2
100
AcDbEntity
  8
0
100
AcDbPolyline
 90
        9
 70
     0
 43
0.0
 10
1.85543245543462
 20
9.697851133473151
 42
0.1432467981947568
 10
1.880657106290077
 20
9.705229230344401
 42
0.1071754848060475
 10
1.905343272260662
 20
9.729780155489053
 42
0.0783035184710328
 10
1.920289939883023
 20
9.763401409839851
 42
0.0656020556757086
 10
1.92601700949913
 20
9.806863633473157
 42
0.0656020556757101
 10
1.920289939883023
 20
9.850325857106455
 42
0.0783035184710357
 10
1.905343272260662
 20
9.883947111457253
 42
0.1071754848060445
 10
1.880657106290077
 20
9.908498036601905
 42
0.1432467981947535
 10
1.85543245543462
 20
9.915876133473155
 42
0.1432467981947515
  0
LINE
  5
1F6
330
2
100
AcDbEntity
  8
0
100
AcDbLine
 10
1.85543245543462
 20
9.668526133473151
 30
0.0
 11
1.85543245543462
 21
9.945201133473155
 31
0.0
  0
LWPOLYLINE
  5
1F7
330
2
100
AcDbEntity
  8
0
100
AcDbPolyline
 90
        9
 70
     0
 43
0.0
 10
1.85543245543462
 20
9.727176133473151
 42
0.147269582437036
 10
1.873128878597161
 20
9.732503975160945
 42
0.1071386913803464
 10
1.890680772260662
 20
9.75051606184735
 42
0.0765137470862007
 10
1.901222686307431
 20
9.77502079988151
 42
0.063469041210727
 10
1.905281103140833
 20
9.806863633473157
 42
0.0634690412107267
 10
1.901222686307431
 20
9.838706467064796
 42
0.0765137470862059
 10
1.890680772260662
 20
9.863211205098956
 42
0.1071386913803463
 10
1.873128878597161
 20
9.881223291785361
 42
0.1472695824370325
 10
1.85543245543462
 20
9.886551133473155
 42
0.1472695824370333
  0
ENDSEC
  0
SECTION
  2
OBJECTS
  0
DICTIONARY
  5
9
330
0
100
AcDbDictionary
281
     1
  3
ACAD_COLOR
350
259
  3
ACAD_GROUP
350
23
  3
ACAD_LAYOUT
350
D
  3
ACAD_MATERIAL
350
258
  3
ACAD_MLINESTYLE
350
24
  3
ACAD_PLOTSETTINGS
350
25
  3
ACAD_PLOTSTYLENAME
350
8
  3
ACAD_TABLESTYLE
350
25A
  3
ACDBHEADERROUNDTRIPXREC
350
309
  3
AcDbVariableDictionary
350
113
  0
DICTIONARY
  5
259
102
{ACAD_REACTORS
330
9
102
}
330
9
100
AcDbDictionary
281
     1
  0
DICTIONARY
  5
23
102
{ACAD_REACTORS
330
9
102
}
330
9
100
AcDbDictionary
281
     1
  0
DICTIONARY
  5
D
102
{ACAD_REACTORS
330
9
102
}
330
9
100
AcDbDictionary
281
     1
  3
Layout1
350
13
  3
Model
350
C
  0
DICTIONARY
  5
258
102
{ACAD_REACTORS
330
9
102
}
330
9
100
AcDbDictionary
281
     1
  0
DICTIONARY
  5
24
102
{ACAD_REACTORS
330
9
102
}
330
9
100
AcDbDictionary
281
     1
  3
STANDARD
350
27
  0
DICTIONARY
  5
25
102
{ACAD_REACTORS
330
9
102
}
330
9
100
AcDbDictionary
281
     1
  0
ACDBDICTIONARYWDFLT
  5
8
102
{ACAD_REACTORS
330
9
102
}
330
9
100
AcDbDictionary
281
     1
  3
Normal
350
7
100
AcDbDictionaryWithDefault
340
7
  0
DICTIONARY
  5
25A
102
{ACAD_REACTORS
330
9
102
}
330
9
100
AcDbDictionary
281
     1
  3
Standard
350
25B
  0
DICTIONARY
  5
309
102
{ACAD_REACTORS
330
9
102
}
330
9
100
AcDbDictionary
281
     1
  3
COLORDICT
350
30A
  3
MATERIALDICT
350
30B
  0
DICTIONARY
  5
113
102
{ACAD_REACTORS
330
9
102
}
330
9
100
AcDbDictionary
281
     1
  3
CTABLESTYLE
350
2F4
  3
HIDETEXT
350
308
  0
LAYOUT
  5
13
102
{ACAD_REACTORS
330
D
102
}
102
{ACAD_XDICTIONARY
360
30C
102
}
330
D
100
AcDbPlotSettings
  1

  2
C:\ACAD2000\plotters\HP LaserJet 2100 Series PS.pc3
  4

  6

 40
0.0
 41
0.0
 42
0.0
 43
0.0
 44
0.0
 45
0.0
 46
0.0
 47
0.0
 48
0.0
 49
0.0
140
0.0
141
0.0
142
1.0
143
1.0
 70
   688
 72
     0
 73
     0
 74
     5
  7

 75
    16
147
1.0
148
0.0
149
0.0
100
AcDbLayout
  1
Layout1
 70
     0
 71
     1
 10
0.0
 20
0.0
 11
12.0
 21
9.0
 12
0.0
 22
0.0
 32
0.0
 14
1.000000000000000E+20
 24
1.000000000000000E+20
 34
1.000000000000000E+20
 15
-1.000000000000000E+20
 25
-1.000000000000000E+20
 35
-1.000000000000000E+20
146
0.0
 13
0.0
 23
0.0
 33
0.0
 16
1.0
 26
0.0
 36
0.0
 17
0.0
 27
1.0
 37
0.0
 76
     0
330
E
  0
LAYOUT
  5
C
102
{ACAD_REACTORS
330
D
102
}
102
{ACAD_XDICTIONARY
360
30E
102
}
330
D
100
AcDbPlotSettings
  1

  2
HP LaserJet 2100 Series PS
  4
Letter
  6

 40
3.174999952316284
 41
3.174999952316284
 42
3.175003051757813
 43
3.17498779296875
 44
215.9000091552734
 45
279.3999938964844
 46
0.0
 47
0.0
 48
0.0
 49
0.0
140
0.0
141
0.0
142
1.0
143
3.255781322003443
 70
 28336
 72
     0
 73
     1
 74
     2
  7

 75
     0
147
0.3071459355214467
148
0.0
149
0.0
100
AcDbLayout
  1
Model
 70
     1
 71
     0
 10
0.0
 20
0.0
 11
12.0
 21
9.0
 12
0.0
 22
0.0
 32
0.0
 14
0.0
 24
0.0
 34
0.0
 15
0.0
 25
0.0
 35
0.0
146
0.0
 13
0.0
 23
0.0
 33
0.0
 16
1.0
 26
0.0
 36
0.0
 17
0.0
 27
1.0
 37
0.0
 76
     0
330
2
  0
MLINESTYLE
  5
27
102
{ACAD_REACTORS
330
24
102
}
330
24
100
AcDbMlineStyle
  2
STANDARD
 70
     0
  3

 62
   256
 51
90.0
 52
90.0
 71
     2
 49
0.5
 62
   256
  6
BYLAYER
 49
-0.5
 62
   256
  6
BYLAYER
  0
ACDBPLACEHOLDER
  5
7
102
{ACAD_REACTORS
330
8
102
}
330
8
  0
ACAD_PROXY_OBJECT
  5
25B
102
{ACAD_REACTORS
330
25A
102
}
330
25A
100
AcDbProxyObject
 90
      499
 91
      517
 95
   983063
 70
     0
 93
     1841
310
4214DD185B99185C9928B81E85EB51B8AE3F2E07A17AD46E2B8FC02B5E8DC0F42B1CFD028000000C1008070000C3001FDFF8000000C1003FBFF000000182007F7FE00000030400FEFFC00000060801FDFF8000000C1003FBFF00000018200000000000000681FA0B0000001820100E000186003FBFF000000182007F7FE000
310
00030400FEFFC00000060801FDFF8000000C1003FBFF000000182007F7FE000000304000AD7A3703D0AC73F4160000003040201C00030C007F7FE00000030400FEFFC00000060801FDFF8000000C1003FBFF000000182007F7FE00000030400FEFFC000000608000
340
16
340
16
340
16
 94
        0
  0
XRECORD
  5
30A
102
{ACAD_REACTORS
330
309
102
}
330
309
100
AcDbXrecord
340
259
  0
XRECORD
  5
30B
102
{ACAD_REACTORS
330
309
102
}
330
309
100
AcDbXrecord
340
258
  0
DICTIONARYVAR
  5
2F4
102
{ACAD_REACTORS
330
113
102
}
330
113
100
DictionaryVariables
280
     0
  1
STANDARD
  0
DICTIONARYVAR
  5
308
102
{ACAD_REACTORS
330
113
102
}
330
113
100
DictionaryVariables
280
     0
  1
0
  0
DICTIONARY
  5
30C
330
13
100
AcDbDictionary
280
     1
281
     1
  3
ACAD_XREC_ROUNDTRIP
360
30D
  0
DICTIONARY
  5
30E
330
C
100
AcDbDictionary
280
     1
281
     1
  3
ACAD_XREC_ROUNDTRIP
360
30F
  0
XRECORD
  5
30D
102
{ACAD_REACTORS
330
30C
102
}
330
30C
100
AcDbXrecord
102
SHADEPLOT
 70
     0
102
SHADEPLOTRESLEVEL
 70
     2
102
SHADEPLOTCUSTOMDPI
 70
   300
  0
XRECORD
  5
30F
102
{ACAD_REACTORS
330
30E
102
}
330
30E
100
AcDbXrecord
102
SHADEPLOT
 70
     0
102
SHADEPLOTRESLEVEL
 70
     2
102
SHADEPLOTCUSTOMDPI
 70
   300
  0
ENDSEC
  0
EOF
