  0
SECTION
  2
HEADER
  9
$ACADVER
  1
AC1015
  9
$ACADMAINTVER
 70
     6
  9
$DWGCODEPAGE
  3
ANSI_1252
  9
$INSBASE
 10
0.0
 20
0.0
 30
0.0
  9
$EXTMIN
 10
-8.747296597641407
 20
-0.0289949493661161
 30
0.0
  9
$EXTMAX
 10
8.747296597641403
 20
19.10561646275355
 30
0.0
  9
$LIMMIN
 10
0.0
 20
0.0
  9
$LIMMAX
 10
26.6664
 20
34.99965
  9
$ORTHOMODE
 70
     1
  9
$REGENMODE
 70
     1
  9
$FILLMODE
 70
     1
  9
$QTEXTMODE
 70
     0
  9
$MIRRTEXT
 70
     0
  9
$LTSCALE
 40
1.0
  9
$ATTMODE
 70
     1
  9
$TEXTSIZE
 40
0.299997
  9
$TRACEWID
 40
0.05
  9
$TEXTSTYLE
  7
STANDARD
  9
$CLAYER
  8
0
  9
$CELTYPE
  6
BYLAYER
  9
$CECOLOR
 62
   256
  9
$CELTSCALE
 40
1.0
  9
$DISPSILH
 70
     0
  9
$DIMSCALE
 40
3.3333
  9
$DIMASZ
 40
0.125
  9
$DIMEXO
 40
0.062
  9
$DIMDLI
 40
0.375
  9
$DIMRND
 40
0.0
  9
$DIMDLE
 40
0.0
  9
$DIMEXE
 40
0.08
  9
$DIMTP
 40
0.0
  9
$DIMTM
 40
0.0
  9
$DIMTXT
 40
0.09
  9
$DIMCEN
 40
-0.03125
  9
$DIMTSZ
 40
0.0
  9
$DIMTOL
 70
     0
  9
$DIMLIM
 70
     0
  9
$DIMTIH
 70
     1
  9
$DIMTOH
 70
     1
  9
$DIMSE1
 70
     0
  9
$DIMSE2
 70
     0
  9
$DIMTAD
 70
     0
  9
$DIMZIN
 70
     0
  9
$DIMBLK
  1

  9
$DIMASO
 70
     0
  9
$DIMSHO
 70
     0
  9
$DIMPOST
  1

  9
$DIMAPOST
  1

  9
$DIMALT
 70
     0
  9
$DIMALTD
 70
     2
  9
$DIMALTF
 40
25.4
  9
$DIMLFAC
 40
1.0
  9
$DIMTOFL
 70
     0
  9
$DIMTVP
 40
0.0
  9
$DIMTIX
 70
     0
  9
$DIMSOXD
 70
     0
  9
$DIMSAH
 70
     0
  9
$DIMBLK1
  1

  9
$DIMBLK2
  1

  9
$DIMSTYLE
  2
STANDARD
  9
$DIMCLRD
 70
     0
  9
$DIMCLRE
 70
     0
  9
$DIMCLRT
 70
     0
  9
$DIMTFAC
 40
1.0
  9
$DIMGAP
 40
0.08984375
  9
$DIMJUST
 70
     0
  9
$DIMSD1
 70
     0
  9
$DIMSD2
 70
     0
  9
$DIMTOLJ
 70
     1
  9
$DIMTZIN
 70
     0
  9
$DIMALTZ
 70
     0
  9
$DIMALTTZ
 70
     0
  9
$DIMUPT
 70
     0
  9
$DIMDEC
 70
     5
  9
$DIMTDEC
 70
     6
  9
$DIMALTU
 70
     5
  9
$DIMALTTD
 70
     2
  9
$DIMTXSTY
  7
STANDARD
  9
$DIMAUNIT
 70
     0
  9
$DIMADEC
 70
     0
  9
$DIMALTRND
 40
0.0
  9
$DIMAZIN
 70
     0
  9
$DIMDSEP
 70
    46
  9
$DIMATFIT
 70
     3
  9
$DIMFRAC
 70
     2
  9
$DIMLDRBLK
  1

  9
$DIMLUNIT
 70
     5
  9
$DIMLWD
 70
    -2
  9
$DIMLWE
 70
    -2
  9
$DIMTMOVE
 70
     2
  9
$LUNITS
 70
     5
  9
$LUPREC
 70
     6
  9
$SKETCHINC
 40
0.1
  9
$FILLETRAD
 40
0.0
  9
$AUNITS
 70
     0
  9
$AUPREC
 70
     0
  9
$MENU
  1
acad
  9
$ELEVATION
 40
0.0
  9
$PELEVATION
 40
0.0
  9
$THICKNESS
 40
0.0
  9
$LIMCHECK
 70
     0
  9
$CHAMFERA
 40
0.0
  9
$CHAMFERB
 40
0.0
  9
$CHAMFERC
 40
0.0
  9
$CHAMFERD
 40
0.0
  9
$SKPOLY
 70
     0
  9
$TDCREATE
 40
2449882.96078287
  9
$TDUCREATE
 40
2449883.294116204
  9
$TDUPDATE
 40
2454166.807054236
  9
$TDUUPDATE
 40
2454167.14038757
  9
$TDINDWG
 40
0.0873872917
  9
$TDUSRTIMER
 40
0.0873872917
  9
$USRTIMER
 70
     1
  9
$ANGBASE
 50
0.0
  9
$ANGDIR
 70
     0
  9
$PDMODE
 70
     0
  9
$PDSIZE
 40
0.0
  9
$PLINEWID
 40
0.0
  9
$SPLFRAME
 70
     0
  9
$SPLINETYPE
 70
     6
  9
$SPLINESEGS
 70
     8
  9
$HANDSEED
  5
30D
  9
$SURFTAB1
 70
     6
  9
$SURFTAB2
 70
     6
  9
$SURFTYPE
 70
     6
  9
$SURFU
 70
     6
  9
$SURFV
 70
     6
  9
$UCSBASE
  2

  9
$UCSNAME
  2

  9
$UCSORG
 10
0.0
 20
0.0
 30
0.0
  9
$UCSXDIR
 10
1.0
 20
0.0
 30
0.0
  9
$UCSYDIR
 10
0.0
 20
1.0
 30
0.0
  9
$UCSORTHOREF
  2

  9
$UCSORTHOVIEW
 70
     0
  9
$UCSORGTOP
 10
0.0
 20
0.0
 30
0.0
  9
$UCSORGBOTTOM
 10
0.0
 20
0.0
 30
0.0
  9
$UCSORGLEFT
 10
0.0
 20
0.0
 30
0.0
  9
$UCSORGRIGHT
 10
0.0
 20
0.0
 30
0.0
  9
$UCSORGFRONT
 10
0.0
 20
0.0
 30
0.0
  9
$UCSORGBACK
 10
0.0
 20
0.0
 30
0.0
  9
$PUCSBASE
  2

  9
$PUCSNAME
  2

  9
$PUCSORG
 10
0.0
 20
0.0
 30
0.0
  9
$PUCSXDIR
 10
1.0
 20
0.0
 30
0.0
  9
$PUCSYDIR
 10
0.0
 20
1.0
 30
0.0
  9
$PUCSORTHOREF
  2

  9
$PUCSORTHOVIEW
 70
     0
  9
$PUCSORGTOP
 10
0.0
 20
0.0
 30
0.0
  9
$PUCSORGBOTTOM
 10
0.0
 20
0.0
 30
0.0
  9
$PUCSORGLEFT
 10
0.0
 20
0.0
 30
0.0
  9
$PUCSORGRIGHT
 10
0.0
 20
0.0
 30
0.0
  9
$PUCSORGFRONT
 10
0.0
 20
0.0
 30
0.0
  9
$PUCSORGBACK
 10
0.0
 20
0.0
 30
0.0
  9
$USERI1
 70
     0
  9
$USERI2
 70
     0
  9
$USERI3
 70
     0
  9
$USERI4
 70
     0
  9
$USERI5
 70
     0
  9
$USERR1
 40
0.0
  9
$USERR2
 40
0.0
  9
$USERR3
 40
0.0
  9
$USERR4
 40
0.0
  9
$USERR5
 40
0.0
  9
$WORLDVIEW
 70
     1
  9
$SHADEDGE
 70
     3
  9
$SHADEDIF
 70
    70
  9
$TILEMODE
 70
     1
  9
$MAXACTVP
 70
    16
  9
$PINSBASE
 10
0.0
 20
0.0
 30
0.0
  9
$PLIMCHECK
 70
     0
  9
$PEXTMIN
 10
1.000000000000000E+20
 20
1.000000000000000E+20
 30
1.000000000000000E+20
  9
$PEXTMAX
 10
-1.000000000000000E+20
 20
-1.000000000000000E+20
 30
-1.000000000000000E+20
  9
$PLIMMIN
 10
0.0
 20
0.0
  9
$PLIMMAX
 10
12.0
 20
9.0
  9
$UNITMODE
 70
     0
  9
$VISRETAIN
 70
     0
  9
$PLINEGEN
 70
     1
  9
$PSLTSCALE
 70
     0
  9
$TREEDEPTH
 70
  3020
  9
$CMLSTYLE
  2
STANDARD
  9
$CMLJUST
 70
     0
  9
$CMLSCALE
 40
1.0
  9
$PROXYGRAPHICS
 70
     1
  9
$MEASUREMENT
 70
     0
  9
$CELWEIGHT
370
    -1
  9
$ENDCAPS
280
     0
  9
$JOINSTYLE
280
     0
  9
$LWDISPLAY
290
     0
  9
$INSUNITS
 70
     0
  9
$HYPERLINKBASE
  1

  9
$STYLESHEET
  1

  9
$XEDIT
290
     1
  9
$CEPSNTYPE
380
     0
  9
$PSTYLEMODE
290
     1
  9
$FINGERPRINTGUID
  2
{9E3C033F-2033-44E3-97CF-61E3321883E3}
  9
$VERSIONGUID
  2
{DBC6B8DE-6113-402F-9F15-0A5E3D7A3DE6}
  9
$EXTNAMES
290
     1
  9
$PSVPSCALE
 40
0.0
  9
$OLESTARTUP
290
     0
  0
ENDSEC
  0
SECTION
  2
CLASSES
  0
CLASS
  1
DICTIONARYVAR
  2
AcDbDictionaryVar
  3
AutoCAD 2000
 90
        0
280
     0
281
     0
  0
CLASS
  1
LWPOLYLINE
  2
AcDbPolyline
  3
AutoCAD 2000
 90
        0
280
     0
281
     1
  0
CLASS
  1
ACDBDICTIONARYWDFLT
  2
AcDbDictionaryWithDefault
  3
AutoCAD 2000
 90
        0
280
     0
281
     0
  0
CLASS
  1
ACDBPLACEHOLDER
  2
AcDbPlaceHolder
  3
ObjectDBX Classes
 90
        0
280
     0
281
     0
  0
CLASS
  1
LAYOUT
  2
AcDbLayout
  3
ObjectDBX Classes
 90
        0
280
     0
281
     0
  0
CLASS
  1
LONG_TRANSACTION
  2
AcDbLongTransaction
  3
ObjectDBX Classes
 90
   -65536
280
     1
281
     0
  0
CLASS
  1
LWPOLYLINE
  2
AcDbPolyline
  3
AutoCAD 2000
 90
        0
280
     0
281
     1
  0
CLASS
  1
HATCH
  2
AcDbHatch
  3
AutoCAD 2000
 90
        0
280
     0
281
     1
  0
CLASS
  1
XRECORD
  2
AcDbXrecord
  3
AutoCAD 2000
 90
        0
280
     0
281
     0
  0
CLASS
  1
LONG_TRANSACTION
  2
AcDbLongTransaction
  3
ObjectDBX Classes
 90
   -65536
280
     1
281
     0
  0
CLASS
  1
LWPOLYLINE
  2
AcDbPolyline
  3
AutoCAD 2000
 90
        0
280
     0
281
     1
  0
CLASS
  1
HATCH
  2
AcDbHatch
  3
AutoCAD 2000
 90
        0
280
     0
281
     1
  0
CLASS
  1
XRECORD
  2
AcDbXrecord
  3
AutoCAD 2000
 90
        0
280
     0
281
     0
  0
CLASS
  1
LONG_TRANSACTION
  2
AcDbLongTransaction
  3
ObjectDBX Classes
 90
   -65536
280
     1
281
     0
  0
CLASS
  1
LWPOLYLINE
  2
AcDbPolyline
  3
AutoCAD 2000
 90
        0
280
     0
281
     1
  0
CLASS
  1
HATCH
  2
AcDbHatch
  3
AutoCAD 2000
 90
        0
280
     0
281
     1
  0
CLASS
  1
XRECORD
  2
AcDbXrecord
  3
AutoCAD 2000
 90
        0
280
     0
281
     0
  0
CLASS
  1
TABLESTYLE
  2
AcDbTableStyle
  3
ObjectDBX Classes
 90
     2047
280
     1
281
     0
  0
ENDSEC
  0
SECTION
  2
TABLES
  0
TABLE
  2
VPORT
  5
1D
330
0
100
AcDbSymbolTable
 70
     3
  0
VPORT
  5
2FF
330
1D
100
AcDbSymbolTableRecord
100
AcDbViewportTableRecord
  2
*Active
 70
     0
 10
0.0
 20
0.0
 11
1.0
 21
1.0
 12
9.106613541329452
 22
13.64266611941217
 13
0.0
 23
0.0
 14
0.063
 24
0.063
 15
0.25
 25
0.25
 16
0.0
 26
0.0
 36
1.0
 17
0.0
 27
0.0
 37
0.0
 40
35.46651527358915
 41
1.814583333333333
 42
50.0
 43
0.0
 44
0.0
 50
0.0
 51
0.0
 71
     0
 72
   100
 73
     1
 74
     0
 75
     0
 76
     0
 77
     0
 78
     0
281
     0
 65
     1
110
0.0
120
0.0
130
0.0
111
1.0
121
0.0
131
0.0
112
0.0
122
1.0
132
0.0
 79
     0
146
0.0
  0
ENDTAB
  0
TABLE
  2
LTYPE
  5
18
330
0
100
AcDbSymbolTable
 70
     1
  0
LTYPE
  5
19
330
18
100
AcDbSymbolTableRecord
100
AcDbLinetypeTableRecord
  2
BYBLOCK
 70
     0
  3

 72
    65
 73
     0
 40
0.0
  0
LTYPE
  5
1A
330
18
100
AcDbSymbolTableRecord
100
AcDbLinetypeTableRecord
  2
BYLAYER
 70
     0
  3

 72
    65
 73
     0
 40
0.0
  0
LTYPE
  5
A
330
18
100
AcDbSymbolTableRecord
100
AcDbLinetypeTableRecord
  2
CONTINUOUS
 70
     0
  3
Solid line
 72
    65
 73
     0
 40
0.0
  0
ENDTAB
  0
TABLE
  2
LAYER
  5
14
330
0
100
AcDbSymbolTable
 70
     1
  0
LAYER
  5
6
330
14
100
AcDbSymbolTableRecord
100
AcDbLayerTableRecord
  2
0
 70
     0
 62
     7
  6
CONTINUOUS
370
    -3
390
7
  0
ENDTAB
  0
TABLE
  2
STYLE
  5
15
330
0
100
AcDbSymbolTable
 70
     1
  0
STYLE
  5
16
330
15
100
AcDbSymbolTableRecord
100
AcDbTextStyleTableRecord
  2
STANDARD
 70
     0
 40
0.0
 41
1.0
 50
0.0
 71
     0
 42
0.299997
  3
TXT
  4

  0
ENDTAB
  0
TABLE
  2
VIEW
  5
1B
330
0
100
AcDbSymbolTable
 70
     0
  0
ENDTAB
  0
TABLE
  2
UCS
  5
1C
330
0
100
AcDbSymbolTable
 70
     0
  0
ENDTAB
  0
TABLE
  2
APPID
  5
1F
330
0
100
AcDbSymbolTable
 70
     1
  0
APPID
  5
20
330
1F
100
AcDbSymbolTableRecord
100
AcDbRegAppTableRecord
  2
ACAD
 70
     0
  0
ENDTAB
  0
TABLE
  2
DIMSTYLE
  5
21
330
0
100
AcDbSymbolTable
 70
     1
100
AcDbDimStyleTable
  0
DIMSTYLE
105
28
330
21
100
AcDbSymbolTableRecord
100
AcDbDimStyleTableRecord
  2
STANDARD
 70
     0
  3

  4

340
16
  0
ENDTAB
  0
TABLE
  2
BLOCK_RECORD
  5
1
330
0
100
AcDbSymbolTable
 70
     0
  0
BLOCK_RECORD
  5
2
330
1
100
AcDbSymbolTableRecord
100
AcDbBlockTableRecord
  2
*MODEL_SPACE
340
C
  0
BLOCK_RECORD
  5
E
330
1
100
AcDbSymbolTableRecord
100
AcDbBlockTableRecord
  2
*PAPER_SPACE
340
13
  0
ENDTAB
  0
ENDSEC
  0
SECTION
  2
BLOCKS
  0
BLOCK
  5
5
330
2
100
AcDbEntity
  8
0
100
AcDbBlockBegin
  2
*MODEL_SPACE
 70
     0
 10
0.0
 20
0.0
 30
0.0
  3
*MODEL_SPACE
  1

  4

  0
ENDBLK
  5
B
330
2
100
AcDbEntity
  8
0
100
AcDbBlockEnd
  0
BLOCK
  5
11
330
E
100
AcDbEntity
 67
     1
  8
0
100
AcDbBlockBegin
  2
*PAPER_SPACE
 70
     0
 10
0.0
 20
0.0
 30
0.0
  3
*PAPER_SPACE
  1

  4

  0
ENDBLK
  5
12
330
E
100
AcDbEntity
 67
     1
  8
0
100
AcDbBlockEnd
  0
ENDSEC
  0
SECTION
  2
ENTITIES
  0
LINE
  5
21A
330
2
100
AcDbEntity
  8
0
100
AcDbLine
 10
0.3424566979464494
 20
0.9866495771775306
 30
0.0
 11
0.3424566979464565
 21
10.65364997269876
 31
0.0
  0
LINE
  5
21B
330
2
100
AcDbEntity
  8
0
100
AcDbLine
 10
0.4124566979464568
 20
0.9137371702128583
 30
0.0
 11
0.4124566979464497
 21
10.65364997269876
 31
0.0
  0
LINE
  5
21C
330
2
100
AcDbEntity
  8
0
100
AcDbLine
 10
1.344105455868256
 20
6.401237170212852
 30
0.0
 11
1.344105455868256
 21
7.091149972698759
 31
0.0
  0
LINE
  5
21D
330
2
100
AcDbEntity
  8
0
100
AcDbLine
 10
2.56503172379772
 20
0.6318531975975077
 30
0.0
 11
1.379030430016993
 21
2.292255008890518
 31
0.0
  0
LINE
  5
21E
330
2
100
AcDbEntity
  8
0
100
AcDbLine
 10
0.5999566979464461
 20
-0.0075588386027761
 30
0.0
 11
2.59995669794645
 21
-0.0075588386027761
 31
0.0
  0
LINE
  5
21F
330
2
100
AcDbEntity
  8
0
100
AcDbLine
 10
0.5999566979464568
 20
-0.0075588386027761
 30
0.0
 11
2.599956697946457
 21
-0.0075588386027761
 31
0.0
  0
LINE
  5
220
330
2
100
AcDbEntity
  8
0
100
AcDbLine
 10
0.5999566979464568
 20
0.0624411613972242
 30
0.0
 11
2.599956697946457
 21
0.0624411613972242
 31
0.0
  0
LINE
  5
221
330
2
100
AcDbEntity
  8
0
100
AcDbLine
 10
2.59995669794645
 20
-0.0075588386027761
 30
0.0
 11
2.599956697946457
 21
0.5829582337892774
 31
0.0
  0
LINE
  5
222
330
2
100
AcDbEntity
  8
0
100
AcDbLine
 10
2.599956697946457
 20
0.0624411613972242
 30
0.0
 11
2.599956697946457
 21
0.522871036275177
 31
0.0
  0
ARC
  5
223
330
2
100
AcDbEntity
  8
0
100
AcDbCircle
 10
2.412456697946457
 20
0.522871036275177
 30
0.0
 40
0.1875
100
AcDbArc
 50
359.9999999999999
 51
35.53767779197438
  0
LINE
  5
224
330
2
100
AcDbEntity
  8
0
100
AcDbLine
 10
1.349956697946465
 20
1.251258560119519
 30
0.0
 11
1.349956697946465
 21
1.516866560119523
 31
0.0
  0
LWPOLYLINE
  5
225
330
2
100
AcDbEntity
  8
0
100
AcDbPolyline
 90
        9
 70
     0
 43
0.0
 10
1.349956697946465
 20
1.307562560119518
 42
-0.147269582437036
 10
1.332968131710428
 20
1.312677288139801
 42
-0.1071386913803464
 10
1.316118313793464
 20
1.32996889135875
 42
-0.0765137470862007
 10
1.305998076308566
 20
1.353493439871542
 42
-0.063469041210727
 10
1.302101996148502
 20
1.384062560119524
 42
-0.0634690412107267
 10
1.305998076308566
 20
1.414631680367497
 42
-0.0765137470862059
 10
1.316118313793464
 20
1.438156228880292
 42
-0.1071386913803463
 10
1.332968131710428
 20
1.455447832099239
 42
-0.1472695824370325
 10
1.349956697946465
 20
1.460562560119522
 42
-0.1472695824370333
  0
LWPOLYLINE
  5
226
330
2
100
AcDbEntity
  8
0
100
AcDbPolyline
 90
        9
 70
     0
 43
0.0
 10
1.349956697946465
 20
1.279410560119517
 42
-0.1432467981947568
 10
1.325741033125227
 20
1.286493533115918
 42
-0.1071754848060475
 10
1.302042313793465
 20
1.310062421254784
 42
-0.0783035184710328
 10
1.287693512875998
 20
1.342338825431551
 42
-0.0656020556757086
 10
1.282195526044537
 20
1.384062560119524
 42
-0.0656020556757101
 10
1.287693512875998
 20
1.425786294807491
 42
-0.0783035184710357
 10
1.302042313793465
 20
1.458062698984257
 42
-0.1071754848060445
 10
1.325741033125227
 20
1.481631587123122
 42
-0.1432467981947535
 10
1.349956697946465
 20
1.488714560119522
 42
-0.1432467981947515
  0
LINE
  5
227
330
2
100
AcDbEntity
  8
0
100
AcDbLine
 10
0.5650317237977198
 20
0.6400449365069889
 30
0.0
 11
0.4473816720951938
 21
0.8047550088905275
 31
0.0
  0
LINE
  5
228
330
2
100
AcDbEntity
  8
0
100
AcDbLine
 10
0.5999566979464568
 20
-0.0075588386027761
 30
0.0
 11
0.5999566979464568
 21
0.5280664087769864
 31
0.0
  0
LINE
  5
229
330
2
100
AcDbEntity
  8
0
100
AcDbLine
 10
0.5999566979464568
 20
0.0624411613972242
 30
0.0
 11
0.5999566979464568
 21
0.5310627751846582
 31
0.0
  0
ARC
  5
22A
330
2
100
AcDbEntity
  8
0
100
AcDbCircle
 10
0.4124566979464568
 20
0.5310627751846582
 30
0.0
 40
0.1875
100
AcDbArc
 50
359.9999999999999
 51
35.53767779197444
  0
ARC
  5
22B
330
2
100
AcDbEntity
  8
0
100
AcDbCircle
 10
0.5299566979464494
 20
0.9866495771775306
 30
0.0
 40
0.1875
100
AcDbArc
 50
180.0
 51
222.4987496522948
  0
LINE
  5
22C
330
2
100
AcDbEntity
  8
0
100
AcDbLine
 10
0.3917144329790112
 20
0.8599794300367307
 30
0.0
 11
0.4501555240876307
 21
0.7961993762167623
 31
0.0
  0
ARC
  5
22D
330
2
100
AcDbEntity
  8
0
100
AcDbCircle
 10
0.5999566979464568
 20
0.9137371702128583
 30
0.0
 40
0.1875
100
AcDbArc
 50
180.0
 51
215.5376777919742
  0
LINE
  5
22E
330
2
100
AcDbEntity
  8
0
100
AcDbLine
 10
1.645813873900064
 20
3.430078753830507
 30
0.0
 11
1.645813873900064
 21
4.030078753830509
 31
0.0
  0
LINE
  5
22F
330
2
100
AcDbEntity
  8
0
100
AcDbLine
 10
1.349956697946458
 20
3.560214689321294
 30
0.0
 11
1.349956697946458
 21
3.825822689321297
 31
0.0
  0
LWPOLYLINE
  5
230
330
2
100
AcDbEntity
  8
0
100
AcDbPolyline
 90
        9
 70
     0
 43
0.0
 10
1.349956697946458
 20
3.616518689321293
 42
-0.147269582437036
 10
1.332968131710421
 20
3.621633417341576
 42
-0.1071386913803464
 10
1.316118313793457
 20
3.638925020560524
 42
-0.0765137470862007
 10
1.305998076308559
 20
3.662449569073317
 42
-0.063469041210727
 10
1.302101996148495
 20
3.693018689321299
 42
-0.0634690412107267
 10
1.305998076308559
 20
3.723587809569272
 42
-0.0765137470862059
 10
1.316118313793457
 20
3.747112358082067
 42
-0.1071386913803463
 10
1.332968131710421
 20
3.764403961301014
 42
-0.1472695824370325
 10
1.349956697946458
 20
3.769518689321297
 42
-0.1472695824370333
  0
LWPOLYLINE
  5
231
330
2
100
AcDbEntity
  8
0
100
AcDbPolyline
 90
        9
 70
     0
 43
0.0
 10
1.349956697946458
 20
3.588366689321292
 42
-0.1432467981947568
 10
1.32574103312522
 20
3.595449662317693
 42
-0.1071754848060475
 10
1.302042313793458
 20
3.619018550456559
 42
-0.0783035184710328
 10
1.287693512875991
 20
3.651294954633325
 42
-0.0656020556757086
 10
1.28219552604453
 20
3.693018689321299
 42
-0.0656020556757101
 10
1.287693512875991
 20
3.734742424009266
 42
-0.0783035184710357
 10
1.302042313793458
 20
3.767018828186032
 42
-0.1071754848060445
 10
1.32574103312522
 20
3.790587716324897
 42
-0.1432467981947535
 10
1.349956697946458
 20
3.797670689321297
 42
-0.1432467981947515
  0
LINE
  5
232
330
2
100
AcDbEntity
  8
0
100
AcDbLine
 10
1.344105455868256
 20
2.401237170212848
 30
0.0
 11
1.344105455868256
 21
3.091149972698759
 31
0.0
  0
ARC
  5
233
330
2
100
AcDbEntity
  8
0
100
AcDbCircle
 10
1.531605455868256
 20
2.401237170212848
 30
0.0
 40
0.1875
100
AcDbArc
 50
180.0
 51
215.5376777919744
  0
ARC
  5
234
330
2
100
AcDbEntity
  8
0
100
AcDbCircle
 10
1.52189596758468
 20
3.056906188664574
 30
0.0
 40
0.181058285646825
100
AcDbArc
 50
100.517472385753
 51
169.0979093723186
  0
ARC
  5
235
330
2
100
AcDbEntity
  8
0
100
AcDbCircle
 10
1.445096428007442
 20
3.430078753830507
 30
0.0
 40
0.2
100
AcDbArc
 50
282.6356250930187
 51
359.9999999999999
  0
ARC
  5
236
330
2
100
AcDbEntity
  8
0
100
AcDbCircle
 10
1.521895967584679
 20
5.056906188664573
 30
0.0
 40
0.1810582856468253
100
AcDbArc
 50
100.5174723857526
 51
169.0979093723184
  0
ARC
  5
237
330
2
100
AcDbEntity
  8
0
100
AcDbCircle
 10
1.445813873900061
 20
4.030078753830509
 30
0.0
 40
0.2
100
AcDbArc
 50
359.9999999999999
 51
77.36437490698127
  0
LINE
  5
238
330
2
100
AcDbEntity
  8
0
100
AcDbLine
 10
1.344105455868256
 20
4.401237170212852
 30
0.0
 11
1.344105455868256
 21
5.091149972698759
 31
0.0
  0
ARC
  5
239
330
2
100
AcDbEntity
  8
0
100
AcDbCircle
 10
1.537385993742682
 20
4.412866643914537
 30
0.0
 40
0.1936300880018533
100
AcDbArc
 50
183.4432717298261
 51
255.701319394104
  0
ARC
  5
23A
330
2
100
AcDbEntity
  8
0
100
AcDbCircle
 10
1.445813873900061
 20
6.030078753830509
 30
0.0
 40
0.2
100
AcDbArc
 50
359.9999999999999
 51
77.36437490698127
  0
LINE
  5
23B
330
2
100
AcDbEntity
  8
0
100
AcDbLine
 10
1.645813873900064
 20
5.430078753830507
 30
0.0
 11
1.645813873900064
 21
6.030078753830509
 31
0.0
  0
LINE
  5
23C
330
2
100
AcDbEntity
  8
0
100
AcDbLine
 10
1.349956697946458
 20
5.560214689321292
 30
0.0
 11
1.349956697946458
 21
5.825822689321296
 31
0.0
  0
LWPOLYLINE
  5
23D
330
2
100
AcDbEntity
  8
0
100
AcDbPolyline
 90
        9
 70
     0
 43
0.0
 10
1.349956697946458
 20
5.616518689321293
 42
-0.147269582437036
 10
1.332968131710421
 20
5.621633417341577
 42
-0.1071386913803464
 10
1.316118313793457
 20
5.638925020560524
 42
-0.0765137470862007
 10
1.305998076308559
 20
5.662449569073317
 42
-0.063469041210727
 10
1.302101996148495
 20
5.693018689321299
 42
-0.0634690412107267
 10
1.305998076308559
 20
5.723587809569274
 42
-0.0765137470862059
 10
1.316118313793457
 20
5.747112358082067
 42
-0.1071386913803463
 10
1.332968131710421
 20
5.764403961301014
 42
-0.1472695824370325
 10
1.349956697946458
 20
5.769518689321298
 42
-0.1472695824370333
  0
LWPOLYLINE
  5
23E
330
2
100
AcDbEntity
  8
0
100
AcDbPolyline
 90
        9
 70
     0
 43
0.0
 10
1.349956697946458
 20
5.588366689321294
 42
-0.1432467981947568
 10
1.32574103312522
 20
5.595449662317694
 42
-0.1071754848060475
 10
1.302042313793458
 20
5.619018550456559
 42
-0.0783035184710328
 10
1.287693512875991
 20
5.651294954633325
 42
-0.0656020556757086
 10
1.28219552604453
 20
5.693018689321299
 42
-0.0656020556757101
 10
1.287693512875991
 20
5.734742424009266
 42
-0.0783035184710357
 10
1.302042313793458
 20
5.767018828186032
 42
-0.1071754848060445
 10
1.32574103312522
 20
5.790587716324897
 42
-0.1432467981947535
 10
1.349956697946458
 20
5.797670689321297
 42
-0.1432467981947515
  0
ARC
  5
23F
330
2
100
AcDbEntity
  8
0
100
AcDbCircle
 10
1.445096428007442
 20
5.430078753830507
 30
0.0
 40
0.2
100
AcDbArc
 50
282.6356250930187
 51
359.9999999999999
  0
ARC
  5
240
330
2
100
AcDbEntity
  8
0
100
AcDbCircle
 10
1.537385993742676
 20
6.412866643914533
 30
0.0
 40
0.1936300880018477
100
AcDbArc
 50
183.4432717298252
 51
255.7013193941054
  0
ARC
  5
241
330
2
100
AcDbEntity
  8
0
100
AcDbCircle
 10
0.3800134058087146
 20
4.1325
 30
0.0
 40
0.25
100
AcDbArc
 50
278.8271506836117
 51
81.17284931638828
  0
ARC
  5
242
330
2
100
AcDbEntity
  8
0
100
AcDbCircle
 10
1.531459033386674
 20
9.087561871016227
 30
0.0
 40
0.1873879331297343
100
AcDbArc
 50
101.2762860939508
 51
178.9028341142668
  0
ARC
  5
243
330
2
100
AcDbEntity
  8
0
100
AcDbCircle
 10
1.451067147275591
 20
9.466488593821765
 30
0.0
 40
0.2
100
AcDbArc
 50
282.6356250930186
 51
0.0000000000000325
  0
LINE
  5
244
330
2
100
AcDbEntity
  8
0
100
AcDbLine
 10
1.645813873900064
 20
7.430078753830507
 30
0.0
 11
1.645813873900064
 21
8.030078753830509
 31
0.0
  0
LINE
  5
245
330
2
100
AcDbEntity
  8
0
100
AcDbLine
 10
1.349956697946458
 20
7.560214689321292
 30
0.0
 11
1.349956697946458
 21
7.825822689321296
 31
0.0
  0
LWPOLYLINE
  5
246
330
2
100
AcDbEntity
  8
0
100
AcDbPolyline
 90
        9
 70
     0
 43
0.0
 10
1.349956697946458
 20
7.588366689321294
 42
-0.1432467981947568
 10
1.32574103312522
 20
7.595449662317694
 42
-0.1071754848060475
 10
1.302042313793458
 20
7.619018550456559
 42
-0.0783035184710328
 10
1.287693512875991
 20
7.651294954633325
 42
-0.0656020556757086
 10
1.28219552604453
 20
7.693018689321299
 42
-0.0656020556757101
 10
1.287693512875991
 20
7.734742424009266
 42
-0.0783035184710357
 10
1.302042313793458
 20
7.767018828186032
 42
-0.1071754848060445
 10
1.32574103312522
 20
7.790587716324897
 42
-0.1432467981947535
 10
1.349956697946458
 20
7.797670689321297
 42
-0.1432467981947515
  0
ARC
  5
247
330
2
100
AcDbEntity
  8
0
100
AcDbCircle
 10
1.521895967584679
 20
7.056906188664573
 30
0.0
 40
0.1810582856468253
100
AcDbArc
 50
100.5174723857526
 51
169.0979093723184
  0
ARC
  5
248
330
2
100
AcDbEntity
  8
0
100
AcDbCircle
 10
1.445096428007442
 20
7.430078753830507
 30
0.0
 40
0.2
100
AcDbArc
 50
282.6356250930187
 51
359.9999999999999
  0
LWPOLYLINE
  5
249
330
2
100
AcDbEntity
  8
0
100
AcDbPolyline
 90
        9
 70
     0
 43
0.0
 10
1.349956697946458
 20
7.616518689321293
 42
-0.147269582437036
 10
1.332968131710421
 20
7.621633417341577
 42
-0.1071386913803464
 10
1.316118313793457
 20
7.638925020560524
 42
-0.0765137470862007
 10
1.305998076308559
 20
7.662449569073317
 42
-0.063469041210727
 10
1.302101996148495
 20
7.693018689321299
 42
-0.0634690412107267
 10
1.305998076308559
 20
7.723587809569274
 42
-0.0765137470862059
 10
1.316118313793457
 20
7.747112358082067
 42
-0.1071386913803463
 10
1.332968131710421
 20
7.764403961301014
 42
-0.1472695824370325
 10
1.349956697946458
 20
7.769518689321298
 42
-0.1472695824370333
  0
ARC
  5
24A
330
2
100
AcDbEntity
  8
0
100
AcDbCircle
 10
1.445813873900061
 20
8.030078753830509
 30
0.0
 40
0.2
100
AcDbArc
 50
359.9999999999999
 51
77.36437490698127
  0
LINE
  5
24B
330
2
100
AcDbEntity
  8
0
100
AcDbLine
 10
1.344105455868256
 20
8.401237170212852
 30
0.0
 11
1.344105455868256
 21
9.091149972698759
 31
0.0
  0
ARC
  5
24C
330
2
100
AcDbEntity
  8
0
100
AcDbCircle
 10
1.537385993742683
 20
8.412866643914533
 30
0.0
 40
0.1936300880018548
100
AcDbArc
 50
183.4432717298251
 51
255.7013193941035
  0
LINE
  5
24D
330
2
100
AcDbEntity
  8
0
100
AcDbLine
 10
1.344105455868256
 20
10.65364997269876
 30
0.0
 11
0.3424566979464565
 21
10.65364997269876
 31
0.0
  0
LINE
  5
24E
330
2
100
AcDbEntity
  8
0
100
AcDbLine
 10
1.344105455868256
 20
10.65364997269876
 30
0.0
 11
1.344105455868256
 21
10.07735970125511
 31
0.0
  0
ARC
  5
24F
330
2
100
AcDbEntity
  8
0
100
AcDbCircle
 10
1.451067147275591
 20
9.757314254469861
 30
0.0
 40
0.2
100
AcDbArc
 50
0.0000000000000325
 51
77.36437490698127
  0
ARC
  5
250
330
2
100
AcDbEntity
  8
0
100
AcDbCircle
 10
1.574311901122185
 20
10.20178298879564
 30
0.0
 40
0.2616795022901974
100
AcDbArc
 50
208.3905869190505
 51
252.3148159187087
  0
LINE
  5
251
330
2
100
AcDbEntity
  8
0
100
AcDbLine
 10
1.651067147275587
 20
9.75731445074706
 30
0.0
 11
1.651067147275587
 21
9.466488593821765
 31
0.0
  0
LINE
  5
252
330
2
100
AcDbEntity
  8
0
100
AcDbLine
 10
1.34995669794646
 20
9.559659998238271
 30
0.0
 11
1.34995669794646
 21
9.825267998238275
 31
0.0
  0
LWPOLYLINE
  5
253
330
2
100
AcDbEntity
  8
0
100
AcDbPolyline
 90
        9
 70
     0
 43
0.0
 10
1.34995669794646
 20
9.615963998238271
 42
-0.147269582437036
 10
1.332968131710423
 20
9.621078726258556
 42
-0.1071386913803464
 10
1.31611831379346
 20
9.638370329477503
 42
-0.0765137470862007
 10
1.305998076308562
 20
9.661894877990296
 42
-0.063469041210727
 10
1.302101996148497
 20
9.692463998238278
 42
-0.0634690412107267
 10
1.305998076308562
 20
9.723033118486253
 42
-0.0765137470862059
 10
1.31611831379346
 20
9.746557666999046
 42
-0.1071386913803463
 10
1.332968131710423
 20
9.763849270217992
 42
-0.1472695824370325
 10
1.34995669794646
 20
9.768963998238277
 42
-0.1472695824370333
  0
LWPOLYLINE
  5
254
330
2
100
AcDbEntity
  8
0
100
AcDbPolyline
 90
        9
 70
     0
 43
0.0
 10
1.349956697946458
 20
9.588366689321294
 42
-0.1432467981947568
 10
1.32574103312522
 20
9.595449662317694
 42
-0.1071754848060475
 10
1.302042313793458
 20
9.619018550456559
 42
-0.0783035184710328
 10
1.287693512875991
 20
9.651294954633325
 42
-0.0656020556757086
 10
1.28219552604453
 20
9.693018689321299
 42
-0.0656020556757101
 10
1.287693512875991
 20
9.734742424009266
 42
-0.0783035184710357
 10
1.302042313793458
 20
9.767018828186032
 42
-0.1071754848060445
 10
1.32574103312522
 20
9.790587716324897
 42
-0.1432467981947535
 10
1.349956697946458
 20
9.797670689321297
 42
-0.1432467981947515
  0
ARC
  5
29E
330
2
100
AcDbEntity
  8
0
100
AcDbCircle
 10
1.297018457090243
 20
9.721615072834297
 30
0.0
 40
0.1545284259354844
100
AcDbArc
 50
210.8424709887116
 51
235.2517244545657
  0
ARC
  5
29F
330
2
100
AcDbEntity
  8
0
100
AcDbCircle
 10
1.297018457090235
 20
9.663312923642245
 30
0.0
 40
0.1545284259354811
100
AcDbArc
 50
124.7482755454322
 51
149.1575290112859
  0
ARC
  5
2A0
330
2
100
AcDbEntity
  8
0
100
AcDbCircle
 10
1.349956697946467
 20
9.840624798475425
 30
0.0
 40
0.2864983002371524
100
AcDbArc
 50
253.9689634222568
 51
269.9999999999986
  0
ARC
  5
2A1
330
2
100
AcDbEntity
  8
0
100
AcDbCircle
 10
1.329014713859927
 20
9.767740450538341
 30
0.0
 40
0.2106649640867842
100
AcDbArc
 50
235.2517244545688
 51
253.9689634222602
  0
ARC
  5
2A2
330
2
100
AcDbEntity
  8
0
100
AcDbCircle
 10
1.329014713859941
 20
9.617187545938201
 30
0.0
 40
0.2106649640867918
100
AcDbArc
 50
106.0310365777432
 51
124.7482755454343
  0
ARC
  5
2A3
330
2
100
AcDbEntity
  8
0
100
AcDbCircle
 10
1.349956697946467
 20
9.544303198001124
 30
0.0
 40
0.2864983002371495
100
AcDbArc
 50
90.00000000000142
 51
106.0310365777434
  0
ARC
  5
2A4
330
2
100
AcDbEntity
  8
0
100
AcDbCircle
 10
1.248199388200455
 20
9.692463998238271
 30
0.0
 40
0.0976681881821226
100
AcDbArc
 50
180.0
 51
210.8424709887126
  0
ARC
  5
2A5
330
2
100
AcDbEntity
  8
0
100
AcDbCircle
 10
1.248199388200462
 20
9.692463998238274
 30
0.0
 40
0.09766818818213
100
AcDbArc
 50
149.1575290112896
 51
180.0000000000021
  0
ARC
  5
2A6
330
2
100
AcDbEntity
  8
0
100
AcDbCircle
 10
1.29701845709024
 20
7.722169763917318
 30
0.0
 40
0.1545284259354844
100
AcDbArc
 50
210.8424709887116
 51
235.2517244545657
  0
ARC
  5
2A7
330
2
100
AcDbEntity
  8
0
100
AcDbCircle
 10
1.297018457090233
 20
7.663867614725266
 30
0.0
 40
0.1545284259354811
100
AcDbArc
 50
124.7482755454322
 51
149.1575290112859
  0
ARC
  5
2A8
330
2
100
AcDbEntity
  8
0
100
AcDbCircle
 10
1.349956697946465
 20
7.841179489558446
 30
0.0
 40
0.2864983002371524
100
AcDbArc
 50
253.9689634222568
 51
269.9999999999986
  0
ARC
  5
2A9
330
2
100
AcDbEntity
  8
0
100
AcDbCircle
 10
1.329014713859924
 20
7.768295141621362
 30
0.0
 40
0.2106649640867842
100
AcDbArc
 50
235.2517244545688
 51
253.9689634222602
  0
ARC
  5
2AA
330
2
100
AcDbEntity
  8
0
100
AcDbCircle
 10
1.329014713859938
 20
7.617742237021222
 30
0.0
 40
0.2106649640867918
100
AcDbArc
 50
106.0310365777432
 51
124.7482755454343
  0
ARC
  5
2AB
330
2
100
AcDbEntity
  8
0
100
AcDbCircle
 10
1.349956697946465
 20
7.544857889084145
 30
0.0
 40
0.2864983002371495
100
AcDbArc
 50
90.00000000000142
 51
106.0310365777434
  0
ARC
  5
2AC
330
2
100
AcDbEntity
  8
0
100
AcDbCircle
 10
1.248199388200452
 20
7.693018689321292
 30
0.0
 40
0.0976681881821226
100
AcDbArc
 50
180.0
 51
210.8424709887126
  0
ARC
  5
2AD
330
2
100
AcDbEntity
  8
0
100
AcDbCircle
 10
1.248199388200459
 20
7.693018689321296
 30
0.0
 40
0.09766818818213
100
AcDbArc
 50
149.1575290112896
 51
180.0000000000021
  0
ARC
  5
2AE
330
2
100
AcDbEntity
  8
0
100
AcDbCircle
 10
1.29701845709024
 20
5.722169763917318
 30
0.0
 40
0.1545284259354844
100
AcDbArc
 50
210.8424709887116
 51
235.2517244545657
  0
ARC
  5
2AF
330
2
100
AcDbEntity
  8
0
100
AcDbCircle
 10
1.297018457090233
 20
5.663867614725266
 30
0.0
 40
0.1545284259354811
100
AcDbArc
 50
124.7482755454322
 51
149.1575290112859
  0
ARC
  5
2B0
330
2
100
AcDbEntity
  8
0
100
AcDbCircle
 10
1.349956697946465
 20
5.841179489558446
 30
0.0
 40
0.2864983002371524
100
AcDbArc
 50
253.9689634222568
 51
269.9999999999986
  0
ARC
  5
2B1
330
2
100
AcDbEntity
  8
0
100
AcDbCircle
 10
1.329014713859924
 20
5.768295141621362
 30
0.0
 40
0.2106649640867842
100
AcDbArc
 50
235.2517244545688
 51
253.9689634222602
  0
ARC
  5
2B2
330
2
100
AcDbEntity
  8
0
100
AcDbCircle
 10
1.329014713859938
 20
5.617742237021222
 30
0.0
 40
0.2106649640867918
100
AcDbArc
 50
106.0310365777432
 51
124.7482755454343
  0
ARC
  5
2B3
330
2
100
AcDbEntity
  8
0
100
AcDbCircle
 10
1.349956697946465
 20
5.544857889084145
 30
0.0
 40
0.2864983002371495
100
AcDbArc
 50
90.00000000000142
 51
106.0310365777434
  0
ARC
  5
2B4
330
2
100
AcDbEntity
  8
0
100
AcDbCircle
 10
1.248199388200452
 20
5.693018689321292
 30
0.0
 40
0.0976681881821226
100
AcDbArc
 50
180.0
 51
210.8424709887126
  0
ARC
  5
2B5
330
2
100
AcDbEntity
  8
0
100
AcDbCircle
 10
1.248199388200459
 20
5.693018689321296
 30
0.0
 40
0.09766818818213
100
AcDbArc
 50
149.1575290112896
 51
180.0000000000021
  0
ARC
  5
2B6
330
2
100
AcDbEntity
  8
0
100
AcDbCircle
 10
1.29701845709024
 20
3.72216976391732
 30
0.0
 40
0.1545284259354844
100
AcDbArc
 50
210.8424709887116
 51
235.2517244545657
  0
ARC
  5
2B7
330
2
100
AcDbEntity
  8
0
100
AcDbCircle
 10
1.297018457090233
 20
3.663867614725268
 30
0.0
 40
0.1545284259354811
100
AcDbArc
 50
124.7482755454322
 51
149.1575290112859
  0
ARC
  5
2B8
330
2
100
AcDbEntity
  8
0
100
AcDbCircle
 10
1.349956697946465
 20
3.841179489558448
 30
0.0
 40
0.2864983002371524
100
AcDbArc
 50
253.9689634222568
 51
269.9999999999986
  0
ARC
  5
2B9
330
2
100
AcDbEntity
  8
0
100
AcDbCircle
 10
1.329014713859924
 20
3.768295141621364
 30
0.0
 40
0.2106649640867842
100
AcDbArc
 50
235.2517244545688
 51
253.9689634222602
  0
ARC
  5
2BA
330
2
100
AcDbEntity
  8
0
100
AcDbCircle
 10
1.329014713859938
 20
3.617742237021224
 30
0.0
 40
0.2106649640867918
100
AcDbArc
 50
106.0310365777432
 51
124.7482755454343
  0
ARC
  5
2BB
330
2
100
AcDbEntity
  8
0
100
AcDbCircle
 10
1.349956697946465
 20
3.544857889084147
 30
0.0
 40
0.2864983002371495
100
AcDbArc
 50
90.00000000000142
 51
106.0310365777434
  0
ARC
  5
2BC
330
2
100
AcDbEntity
  8
0
100
AcDbCircle
 10
1.248199388200452
 20
3.693018689321294
 30
0.0
 40
0.0976681881821226
100
AcDbArc
 50
180.0
 51
210.8424709887126
  0
ARC
  5
2BD
330
2
100
AcDbEntity
  8
0
100
AcDbCircle
 10
1.248199388200459
 20
3.693018689321297
 30
0.0
 40
0.09766818818213
100
AcDbArc
 50
149.1575290112896
 51
180.0000000000021
  0
ARC
  5
2BE
330
2
100
AcDbEntity
  8
0
100
AcDbCircle
 10
1.297018457090247
 20
1.413213634715545
 30
0.0
 40
0.1545284259354844
100
AcDbArc
 50
210.8424709887116
 51
235.2517244545657
  0
ARC
  5
2BF
330
2
100
AcDbEntity
  8
0
100
AcDbCircle
 10
1.29701845709024
 20
1.354911485523493
 30
0.0
 40
0.1545284259354811
100
AcDbArc
 50
124.7482755454322
 51
149.1575290112859
  0
ARC
  5
2C0
330
2
100
AcDbEntity
  8
0
100
AcDbCircle
 10
1.349956697946472
 20
1.532223360356673
 30
0.0
 40
0.2864983002371524
100
AcDbArc
 50
253.9689634222568
 51
269.9999999999986
  0
ARC
  5
2C1
330
2
100
AcDbEntity
  8
0
100
AcDbCircle
 10
1.329014713859931
 20
1.459339012419589
 30
0.0
 40
0.2106649640867842
100
AcDbArc
 50
235.2517244545688
 51
253.9689634222602
  0
ARC
  5
2C2
330
2
100
AcDbEntity
  8
0
100
AcDbCircle
 10
1.329014713859945
 20
1.308786107819449
 30
0.0
 40
0.2106649640867918
100
AcDbArc
 50
106.0310365777432
 51
124.7482755454343
  0
ARC
  5
2C3
330
2
100
AcDbEntity
  8
0
100
AcDbCircle
 10
1.349956697946472
 20
1.235901759882372
 30
0.0
 40
0.2864983002371495
100
AcDbArc
 50
90.00000000000142
 51
106.0310365777434
  0
ARC
  5
2C4
330
2
100
AcDbEntity
  8
0
100
AcDbCircle
 10
1.248199388200459
 20
1.384062560119519
 30
0.0
 40
0.0976681881821226
100
AcDbArc
 50
180.0
 51
210.8424709887126
  0
ARC
  5
2C5
330
2
100
AcDbEntity
  8
0
100
AcDbCircle
 10
1.248199388200466
 20
1.384062560119522
 30
0.0
 40
0.09766818818213
100
AcDbArc
 50
149.1575290112896
 51
180.0000000000021
  0
ENDSEC
  0
SECTION
  2
OBJECTS
  0
DICTIONARY
  5
9
330
0
100
AcDbDictionary
281
     1
  3
ACAD_COLOR
350
259
  3
ACAD_GROUP
350
23
  3
ACAD_LAYOUT
350
D
  3
ACAD_MATERIAL
350
258
  3
ACAD_MLINESTYLE
350
24
  3
ACAD_PLOTSETTINGS
350
25
  3
ACAD_PLOTSTYLENAME
350
8
  3
ACAD_TABLESTYLE
350
25A
  3
ACDBHEADERROUNDTRIPXREC
350
306
  3
AcDbVariableDictionary
350
113
  0
DICTIONARY
  5
259
102
{ACAD_REACTORS
330
9
102
}
330
9
100
AcDbDictionary
281
     1
  0
DICTIONARY
  5
23
102
{ACAD_REACTORS
330
9
102
}
330
9
100
AcDbDictionary
281
     1
  0
DICTIONARY
  5
D
102
{ACAD_REACTORS
330
9
102
}
330
9
100
AcDbDictionary
281
     1
  3
Layout1
350
13
  3
Model
350
C
  0
DICTIONARY
  5
258
102
{ACAD_REACTORS
330
9
102
}
330
9
100
AcDbDictionary
281
     1
  0
DICTIONARY
  5
24
102
{ACAD_REACTORS
330
9
102
}
330
9
100
AcDbDictionary
281
     1
  3
STANDARD
350
27
  0
DICTIONARY
  5
25
102
{ACAD_REACTORS
330
9
102
}
330
9
100
AcDbDictionary
281
     1
  0
ACDBDICTIONARYWDFLT
  5
8
102
{ACAD_REACTORS
330
9
102
}
330
9
100
AcDbDictionary
281
     1
  3
Normal
350
7
100
AcDbDictionaryWithDefault
340
7
  0
DICTIONARY
  5
25A
102
{ACAD_REACTORS
330
9
102
}
330
9
100
AcDbDictionary
281
     1
  3
Standard
350
25B
  0
DICTIONARY
  5
306
102
{ACAD_REACTORS
330
9
102
}
330
9
100
AcDbDictionary
281
     1
  3
COLORDICT
350
307
  3
MATERIALDICT
350
308
  0
DICTIONARY
  5
113
102
{ACAD_REACTORS
330
9
102
}
330
9
100
AcDbDictionary
281
     1
  3
CTABLESTYLE
350
2F4
  3
HIDETEXT
350
305
  0
LAYOUT
  5
13
102
{ACAD_REACTORS
330
D
102
}
102
{ACAD_XDICTIONARY
360
309
102
}
330
D
100
AcDbPlotSettings
  1

  2
C:\ACAD2000\plotters\HP LaserJet 2100 Series PS.pc3
  4

  6

 40
0.0
 41
0.0
 42
0.0
 43
0.0
 44
0.0
 45
0.0
 46
0.0
 47
0.0
 48
0.0
 49
0.0
140
0.0
141
0.0
142
1.0
143
1.0
 70
   688
 72
     0
 73
     0
 74
     5
  7

 75
    16
147
1.0
148
0.0
149
0.0
100
AcDbLayout
  1
Layout1
 70
     0
 71
     1
 10
0.0
 20
0.0
 11
12.0
 21
9.0
 12
0.0
 22
0.0
 32
0.0
 14
1.000000000000000E+20
 24
1.000000000000000E+20
 34
1.000000000000000E+20
 15
-1.000000000000000E+20
 25
-1.000000000000000E+20
 35
-1.000000000000000E+20
146
0.0
 13
0.0
 23
0.0
 33
0.0
 16
1.0
 26
0.0
 36
0.0
 17
0.0
 27
1.0
 37
0.0
 76
     0
330
E
  0
LAYOUT
  5
C
102
{ACAD_REACTORS
330
D
102
}
102
{ACAD_XDICTIONARY
360
30B
102
}
330
D
100
AcDbPlotSettings
  1

  2
HP LaserJet 2100 Series PS
  4
Letter
  6

 40
3.174999952316284
 41
3.174999952316284
 42
3.175003051757813
 43
3.17498779296875
 44
215.9000091552734
 45
279.3999938964844
 46
0.0
 47
0.0
 48
0.0
 49
0.0
140
0.0
141
0.0
142
1.0
143
3.255781322003443
 70
 28336
 72
     0
 73
     1
 74
     2
  7

 75
     0
147
0.3071459355214467
148
0.0
149
0.0
100
AcDbLayout
  1
Model
 70
     1
 71
     0
 10
0.0
 20
0.0
 11
12.0
 21
9.0
 12
0.0
 22
0.0
 32
0.0
 14
0.0
 24
0.0
 34
0.0
 15
0.0
 25
0.0
 35
0.0
146
0.0
 13
0.0
 23
0.0
 33
0.0
 16
1.0
 26
0.0
 36
0.0
 17
0.0
 27
1.0
 37
0.0
 76
     0
330
2
  0
MLINESTYLE
  5
27
102
{ACAD_REACTORS
330
24
102
}
330
24
100
AcDbMlineStyle
  2
STANDARD
 70
     0
  3

 62
   256
 51
90.0
 52
90.0
 71
     2
 49
0.5
 62
   256
  6
BYLAYER
 49
-0.5
 62
   256
  6
BYLAYER
  0
ACDBPLACEHOLDER
  5
7
102
{ACAD_REACTORS
330
8
102
}
330
8
  0
ACAD_PROXY_OBJECT
  5
25B
102
{ACAD_REACTORS
330
25A
102
}
330
25A
100
AcDbProxyObject
 90
      499
 91
      517
 95
   983063
 70
     0
 93
     1841
310
4214DD185B99185C9928B81E85EB51B8AE3F2E07A17AD46E2B8FC02B5E8DC0F42B1CFD028000000C1008070000C3001FDFF8000000C1003FBFF000000182007F7FE00000030400FEFFC00000060801FDFF8000000C1003FBFF00000018200000000000000681FA0B0000001820100E000186003FBFF000000182007F7FE000
310
00030400FEFFC00000060801FDFF8000000C1003FBFF000000182007F7FE000000304000AD7A3703D0AC73F4160000003040201C00030C007F7FE00000030400FEFFC00000060801FDFF8000000C1003FBFF000000182007F7FE00000030400FEFFC000000608000
340
16
340
16
340
16
 94
        0
  0
XRECORD
  5
307
102
{ACAD_REACTORS
330
306
102
}
330
306
100
AcDbXrecord
340
259
  0
XRECORD
  5
308
102
{ACAD_REACTORS
330
306
102
}
330
306
100
AcDbXrecord
340
258
  0
DICTIONARYVAR
  5
2F4
102
{ACAD_REACTORS
330
113
102
}
330
113
100
DictionaryVariables
280
     0
  1
STANDARD
  0
DICTIONARYVAR
  5
305
102
{ACAD_REACTORS
330
113
102
}
330
113
100
DictionaryVariables
280
     0
  1
0
  0
DICTIONARY
  5
309
330
13
100
AcDbDictionary
280
     1
281
     1
  3
ACAD_XREC_ROUNDTRIP
360
30A
  0
DICTIONARY
  5
30B
330
C
100
AcDbDictionary
280
     1
281
     1
  3
ACAD_XREC_ROUNDTRIP
360
30C
  0
XRECORD
  5
30A
102
{ACAD_REACTORS
330
309
102
}
330
309
100
AcDbXrecord
102
SHADEPLOT
 70
     0
102
SHADEPLOTRESLEVEL
 70
     2
102
SHADEPLOTCUSTOMDPI
 70
   300
  0
XRECORD
  5
30C
102
{ACAD_REACTORS
330
30B
102
}
330
30B
100
AcDbXrecord
102
SHADEPLOT
 70
     0
102
SHADEPLOTRESLEVEL
 70
     2
102
SHADEPLOTCUSTOMDPI
 70
   300
  0
ENDSEC
  0
EOF
