  0
SECTION
  2
HEADER
  9
$ACADVER
  1
AC1015
  9
$ACADMAINTVER
 70
     6
  9
$DWGCODEPAGE
  3
ANSI_1252
  9
$INSBASE
 10
0.0
 20
0.0
 30
0.0
  9
$EXTMIN
 10
-8.747296597641407
 20
-0.0289949493661161
 30
0.0
  9
$EXTMAX
 10
8.747296597641403
 20
19.10561646275355
 30
0.0
  9
$LIMMIN
 10
0.0
 20
0.0
  9
$LIMMAX
 10
26.6664
 20
34.99965
  9
$ORTHOMODE
 70
     1
  9
$REGENMODE
 70
     1
  9
$FILLMODE
 70
     1
  9
$QTEXTMODE
 70
     0
  9
$MIRRTEXT
 70
     0
  9
$LTSCALE
 40
1.0
  9
$ATTMODE
 70
     1
  9
$TEXTSIZE
 40
0.299997
  9
$TRACEWID
 40
0.05
  9
$TEXTSTYLE
  7
STANDARD
  9
$CLAYER
  8
0
  9
$CELTYPE
  6
BYLAYER
  9
$CECOLOR
 62
   256
  9
$CELTSCALE
 40
1.0
  9
$DISPSILH
 70
     0
  9
$DIMSCALE
 40
3.3333
  9
$DIMASZ
 40
0.125
  9
$DIMEXO
 40
0.062
  9
$DIMDLI
 40
0.375
  9
$DIMRND
 40
0.0
  9
$DIMDLE
 40
0.0
  9
$DIMEXE
 40
0.08
  9
$DIMTP
 40
0.0
  9
$DIMTM
 40
0.0
  9
$DIMTXT
 40
0.09
  9
$DIMCEN
 40
-0.03125
  9
$DIMTSZ
 40
0.0
  9
$DIMTOL
 70
     0
  9
$DIMLIM
 70
     0
  9
$DIMTIH
 70
     1
  9
$DIMTOH
 70
     1
  9
$DIMSE1
 70
     0
  9
$DIMSE2
 70
     0
  9
$DIMTAD
 70
     0
  9
$DIMZIN
 70
     0
  9
$DIMBLK
  1

  9
$DIMASO
 70
     0
  9
$DIMSHO
 70
     0
  9
$DIMPOST
  1

  9
$DIMAPOST
  1

  9
$DIMALT
 70
     0
  9
$DIMALTD
 70
     2
  9
$DIMALTF
 40
25.4
  9
$DIMLFAC
 40
1.0
  9
$DIMTOFL
 70
     0
  9
$DIMTVP
 40
0.0
  9
$DIMTIX
 70
     0
  9
$DIMSOXD
 70
     0
  9
$DIMSAH
 70
     0
  9
$DIMBLK1
  1

  9
$DIMBLK2
  1

  9
$DIMSTYLE
  2
STANDARD
  9
$DIMCLRD
 70
     0
  9
$DIMCLRE
 70
     0
  9
$DIMCLRT
 70
     0
  9
$DIMTFAC
 40
1.0
  9
$DIMGAP
 40
0.08984375
  9
$DIMJUST
 70
     0
  9
$DIMSD1
 70
     0
  9
$DIMSD2
 70
     0
  9
$DIMTOLJ
 70
     1
  9
$DIMTZIN
 70
     0
  9
$DIMALTZ
 70
     0
  9
$DIMALTTZ
 70
     0
  9
$DIMUPT
 70
     0
  9
$DIMDEC
 70
     5
  9
$DIMTDEC
 70
     6
  9
$DIMALTU
 70
     5
  9
$DIMALTTD
 70
     2
  9
$DIMTXSTY
  7
STANDARD
  9
$DIMAUNIT
 70
     0
  9
$DIMADEC
 70
     0
  9
$DIMALTRND
 40
0.0
  9
$DIMAZIN
 70
     0
  9
$DIMDSEP
 70
    46
  9
$DIMATFIT
 70
     3
  9
$DIMFRAC
 70
     2
  9
$DIMLDRBLK
  1

  9
$DIMLUNIT
 70
     5
  9
$DIMLWD
 70
    -2
  9
$DIMLWE
 70
    -2
  9
$DIMTMOVE
 70
     2
  9
$LUNITS
 70
     5
  9
$LUPREC
 70
     6
  9
$SKETCHINC
 40
0.1
  9
$FILLETRAD
 40
0.0
  9
$AUNITS
 70
     0
  9
$AUPREC
 70
     0
  9
$MENU
  1
acad
  9
$ELEVATION
 40
0.0
  9
$PELEVATION
 40
0.0
  9
$THICKNESS
 40
0.0
  9
$LIMCHECK
 70
     0
  9
$CHAMFERA
 40
0.0
  9
$CHAMFERB
 40
0.0
  9
$CHAMFERC
 40
0.0
  9
$CHAMFERD
 40
0.0
  9
$SKPOLY
 70
     0
  9
$TDCREATE
 40
2449882.96078287
  9
$TDUCREATE
 40
2449883.294116204
  9
$TDUPDATE
 40
2454166.807236528
  9
$TDUUPDATE
 40
2454167.140569861
  9
$TDINDWG
 40
0.0873843981
  9
$TDUSRTIMER
 40
0.0873843981
  9
$USRTIMER
 70
     1
  9
$ANGBASE
 50
0.0
  9
$ANGDIR
 70
     0
  9
$PDMODE
 70
     0
  9
$PDSIZE
 40
0.0
  9
$PLINEWID
 40
0.0
  9
$SPLFRAME
 70
     0
  9
$SPLINETYPE
 70
     6
  9
$SPLINESEGS
 70
     8
  9
$HANDSEED
  5
30D
  9
$SURFTAB1
 70
     6
  9
$SURFTAB2
 70
     6
  9
$SURFTYPE
 70
     6
  9
$SURFU
 70
     6
  9
$SURFV
 70
     6
  9
$UCSBASE
  2

  9
$UCSNAME
  2

  9
$UCSORG
 10
0.0
 20
0.0
 30
0.0
  9
$UCSXDIR
 10
1.0
 20
0.0
 30
0.0
  9
$UCSYDIR
 10
0.0
 20
1.0
 30
0.0
  9
$UCSORTHOREF
  2

  9
$UCSORTHOVIEW
 70
     0
  9
$UCSORGTOP
 10
0.0
 20
0.0
 30
0.0
  9
$UCSORGBOTTOM
 10
0.0
 20
0.0
 30
0.0
  9
$UCSORGLEFT
 10
0.0
 20
0.0
 30
0.0
  9
$UCSORGRIGHT
 10
0.0
 20
0.0
 30
0.0
  9
$UCSORGFRONT
 10
0.0
 20
0.0
 30
0.0
  9
$UCSORGBACK
 10
0.0
 20
0.0
 30
0.0
  9
$PUCSBASE
  2

  9
$PUCSNAME
  2

  9
$PUCSORG
 10
0.0
 20
0.0
 30
0.0
  9
$PUCSXDIR
 10
1.0
 20
0.0
 30
0.0
  9
$PUCSYDIR
 10
0.0
 20
1.0
 30
0.0
  9
$PUCSORTHOREF
  2

  9
$PUCSORTHOVIEW
 70
     0
  9
$PUCSORGTOP
 10
0.0
 20
0.0
 30
0.0
  9
$PUCSORGBOTTOM
 10
0.0
 20
0.0
 30
0.0
  9
$PUCSORGLEFT
 10
0.0
 20
0.0
 30
0.0
  9
$PUCSORGRIGHT
 10
0.0
 20
0.0
 30
0.0
  9
$PUCSORGFRONT
 10
0.0
 20
0.0
 30
0.0
  9
$PUCSORGBACK
 10
0.0
 20
0.0
 30
0.0
  9
$USERI1
 70
     0
  9
$USERI2
 70
     0
  9
$USERI3
 70
     0
  9
$USERI4
 70
     0
  9
$USERI5
 70
     0
  9
$USERR1
 40
0.0
  9
$USERR2
 40
0.0
  9
$USERR3
 40
0.0
  9
$USERR4
 40
0.0
  9
$USERR5
 40
0.0
  9
$WORLDVIEW
 70
     1
  9
$SHADEDGE
 70
     3
  9
$SHADEDIF
 70
    70
  9
$TILEMODE
 70
     1
  9
$MAXACTVP
 70
    16
  9
$PINSBASE
 10
0.0
 20
0.0
 30
0.0
  9
$PLIMCHECK
 70
     0
  9
$PEXTMIN
 10
1.000000000000000E+20
 20
1.000000000000000E+20
 30
1.000000000000000E+20
  9
$PEXTMAX
 10
-1.000000000000000E+20
 20
-1.000000000000000E+20
 30
-1.000000000000000E+20
  9
$PLIMMIN
 10
0.0
 20
0.0
  9
$PLIMMAX
 10
12.0
 20
9.0
  9
$UNITMODE
 70
     0
  9
$VISRETAIN
 70
     0
  9
$PLINEGEN
 70
     1
  9
$PSLTSCALE
 70
     0
  9
$TREEDEPTH
 70
  3020
  9
$CMLSTYLE
  2
STANDARD
  9
$CMLJUST
 70
     0
  9
$CMLSCALE
 40
1.0
  9
$PROXYGRAPHICS
 70
     1
  9
$MEASUREMENT
 70
     0
  9
$CELWEIGHT
370
    -1
  9
$ENDCAPS
280
     0
  9
$JOINSTYLE
280
     0
  9
$LWDISPLAY
290
     0
  9
$INSUNITS
 70
     0
  9
$HYPERLINKBASE
  1

  9
$STYLESHEET
  1

  9
$XEDIT
290
     1
  9
$CEPSNTYPE
380
     0
  9
$PSTYLEMODE
290
     1
  9
$FINGERPRINTGUID
  2
{9E3C033F-2033-44E3-97CF-61E3321883E3}
  9
$VERSIONGUID
  2
{1D9910FC-15A7-4D44-88A2-5B15DD536026}
  9
$EXTNAMES
290
     1
  9
$PSVPSCALE
 40
0.0
  9
$OLESTARTUP
290
     0
  0
ENDSEC
  0
SECTION
  2
CLASSES
  0
CLASS
  1
DICTIONARYVAR
  2
AcDbDictionaryVar
  3
AutoCAD 2000
 90
        0
280
     0
281
     0
  0
CLASS
  1
LWPOLYLINE
  2
AcDbPolyline
  3
AutoCAD 2000
 90
        0
280
     0
281
     1
  0
CLASS
  1
ACDBDICTIONARYWDFLT
  2
AcDbDictionaryWithDefault
  3
AutoCAD 2000
 90
        0
280
     0
281
     0
  0
CLASS
  1
ACDBPLACEHOLDER
  2
AcDbPlaceHolder
  3
ObjectDBX Classes
 90
        0
280
     0
281
     0
  0
CLASS
  1
LAYOUT
  2
AcDbLayout
  3
ObjectDBX Classes
 90
        0
280
     0
281
     0
  0
CLASS
  1
LONG_TRANSACTION
  2
AcDbLongTransaction
  3
ObjectDBX Classes
 90
   -65536
280
     1
281
     0
  0
CLASS
  1
LWPOLYLINE
  2
AcDbPolyline
  3
AutoCAD 2000
 90
        0
280
     0
281
     1
  0
CLASS
  1
HATCH
  2
AcDbHatch
  3
AutoCAD 2000
 90
        0
280
     0
281
     1
  0
CLASS
  1
XRECORD
  2
AcDbXrecord
  3
AutoCAD 2000
 90
        0
280
     0
281
     0
  0
CLASS
  1
LONG_TRANSACTION
  2
AcDbLongTransaction
  3
ObjectDBX Classes
 90
   -65536
280
     1
281
     0
  0
CLASS
  1
LWPOLYLINE
  2
AcDbPolyline
  3
AutoCAD 2000
 90
        0
280
     0
281
     1
  0
CLASS
  1
HATCH
  2
AcDbHatch
  3
AutoCAD 2000
 90
        0
280
     0
281
     1
  0
CLASS
  1
XRECORD
  2
AcDbXrecord
  3
AutoCAD 2000
 90
        0
280
     0
281
     0
  0
CLASS
  1
LONG_TRANSACTION
  2
AcDbLongTransaction
  3
ObjectDBX Classes
 90
   -65536
280
     1
281
     0
  0
CLASS
  1
LWPOLYLINE
  2
AcDbPolyline
  3
AutoCAD 2000
 90
        0
280
     0
281
     1
  0
CLASS
  1
HATCH
  2
AcDbHatch
  3
AutoCAD 2000
 90
        0
280
     0
281
     1
  0
CLASS
  1
XRECORD
  2
AcDbXrecord
  3
AutoCAD 2000
 90
        0
280
     0
281
     0
  0
CLASS
  1
TABLESTYLE
  2
AcDbTableStyle
  3
ObjectDBX Classes
 90
     2047
280
     1
281
     0
  0
ENDSEC
  0
SECTION
  2
TABLES
  0
TABLE
  2
VPORT
  5
1D
330
0
100
AcDbSymbolTable
 70
     3
  0
VPORT
  5
2FF
330
1D
100
AcDbSymbolTableRecord
100
AcDbViewportTableRecord
  2
*Active
 70
     0
 10
0.0
 20
0.0
 11
1.0
 21
1.0
 12
8.73717068198188
 22
12.23878323882114
 13
0.0
 23
0.0
 14
0.063
 24
0.063
 15
0.25
 25
0.25
 16
0.0
 26
0.0
 36
1.0
 17
0.0
 27
0.0
 37
0.0
 40
35.46651527358915
 41
1.814583333333333
 42
50.0
 43
0.0
 44
0.0
 50
0.0
 51
0.0
 71
     0
 72
   100
 73
     1
 74
     0
 75
     0
 76
     0
 77
     0
 78
     0
281
     0
 65
     1
110
0.0
120
0.0
130
0.0
111
1.0
121
0.0
131
0.0
112
0.0
122
1.0
132
0.0
 79
     0
146
0.0
  0
ENDTAB
  0
TABLE
  2
LTYPE
  5
18
330
0
100
AcDbSymbolTable
 70
     1
  0
LTYPE
  5
19
330
18
100
AcDbSymbolTableRecord
100
AcDbLinetypeTableRecord
  2
BYBLOCK
 70
     0
  3

 72
    65
 73
     0
 40
0.0
  0
LTYPE
  5
1A
330
18
100
AcDbSymbolTableRecord
100
AcDbLinetypeTableRecord
  2
BYLAYER
 70
     0
  3

 72
    65
 73
     0
 40
0.0
  0
LTYPE
  5
A
330
18
100
AcDbSymbolTableRecord
100
AcDbLinetypeTableRecord
  2
CONTINUOUS
 70
     0
  3
Solid line
 72
    65
 73
     0
 40
0.0
  0
ENDTAB
  0
TABLE
  2
LAYER
  5
14
330
0
100
AcDbSymbolTable
 70
     1
  0
LAYER
  5
6
330
14
100
AcDbSymbolTableRecord
100
AcDbLayerTableRecord
  2
0
 70
     0
 62
     7
  6
CONTINUOUS
370
    -3
390
7
  0
ENDTAB
  0
TABLE
  2
STYLE
  5
15
330
0
100
AcDbSymbolTable
 70
     1
  0
STYLE
  5
16
330
15
100
AcDbSymbolTableRecord
100
AcDbTextStyleTableRecord
  2
STANDARD
 70
     0
 40
0.0
 41
1.0
 50
0.0
 71
     0
 42
0.299997
  3
TXT
  4

  0
ENDTAB
  0
TABLE
  2
VIEW
  5
1B
330
0
100
AcDbSymbolTable
 70
     0
  0
ENDTAB
  0
TABLE
  2
UCS
  5
1C
330
0
100
AcDbSymbolTable
 70
     0
  0
ENDTAB
  0
TABLE
  2
APPID
  5
1F
330
0
100
AcDbSymbolTable
 70
     1
  0
APPID
  5
20
330
1F
100
AcDbSymbolTableRecord
100
AcDbRegAppTableRecord
  2
ACAD
 70
     0
  0
ENDTAB
  0
TABLE
  2
DIMSTYLE
  5
21
330
0
100
AcDbSymbolTable
 70
     1
100
AcDbDimStyleTable
  0
DIMSTYLE
105
28
330
21
100
AcDbSymbolTableRecord
100
AcDbDimStyleTableRecord
  2
STANDARD
 70
     0
  3

  4

340
16
  0
ENDTAB
  0
TABLE
  2
BLOCK_RECORD
  5
1
330
0
100
AcDbSymbolTable
 70
     0
  0
BLOCK_RECORD
  5
2
330
1
100
AcDbSymbolTableRecord
100
AcDbBlockTableRecord
  2
*MODEL_SPACE
340
C
  0
BLOCK_RECORD
  5
E
330
1
100
AcDbSymbolTableRecord
100
AcDbBlockTableRecord
  2
*PAPER_SPACE
340
13
  0
ENDTAB
  0
ENDSEC
  0
SECTION
  2
BLOCKS
  0
BLOCK
  5
5
330
2
100
AcDbEntity
  8
0
100
AcDbBlockBegin
  2
*MODEL_SPACE
 70
     0
 10
0.0
 20
0.0
 30
0.0
  3
*MODEL_SPACE
  1

  4

  0
ENDBLK
  5
B
330
2
100
AcDbEntity
  8
0
100
AcDbBlockEnd
  0
BLOCK
  5
11
330
E
100
AcDbEntity
 67
     1
  8
0
100
AcDbBlockBegin
  2
*PAPER_SPACE
 70
     0
 10
0.0
 20
0.0
 30
0.0
  3
*PAPER_SPACE
  1

  4

  0
ENDBLK
  5
12
330
E
100
AcDbEntity
 67
     1
  8
0
100
AcDbBlockEnd
  0
ENDSEC
  0
SECTION
  2
ENTITIES
  0
LINE
  5
1A8
330
2
100
AcDbEntity
  8
0
100
AcDbLine
 10
-0.1571337729002345
 20
-0.0075588386027761
 30
0.0
 11
-2.157133772900238
 21
-0.0075588386027761
 31
0.0
  0
LINE
  5
1A9
330
2
100
AcDbEntity
  8
0
100
AcDbLine
 10
-0.1571337729002451
 20
-0.0075588386027761
 30
0.0
 11
-2.157133772900245
 21
-0.0075588386027761
 31
0.0
  0
LINE
  5
1AA
330
2
100
AcDbEntity
  8
0
100
AcDbLine
 10
-2.122208798751508
 20
0.6318531975975077
 30
0.0
 11
-0.9362075049707812
 21
2.292255008890518
 31
0.0
  0
LINE
  5
1AB
330
2
100
AcDbEntity
  8
0
100
AcDbLine
 10
-0.1571337729002451
 20
0.0624411613972242
 30
0.0
 11
-2.157133772900245
 21
0.0624411613972242
 31
0.0
  0
LINE
  5
1AC
330
2
100
AcDbEntity
  8
0
100
AcDbLine
 10
-2.157133772900238
 20
-0.0075588386027761
 30
0.0
 11
-2.157133772900245
 21
0.5829582337892774
 31
0.0
  0
LINE
  5
1AD
330
2
100
AcDbEntity
  8
0
100
AcDbLine
 10
-2.157133772900245
 20
0.0624411613972242
 30
0.0
 11
-2.157133772900245
 21
0.522871036275177
 31
0.0
  0
ARC
  5
1AE
330
2
100
AcDbEntity
  8
0
100
AcDbCircle
 10
-1.969633772900245
 20
0.522871036275177
 30
0.0
 40
0.1875
100
AcDbArc
 50
144.4623222080256
 51
180.0000000000001
  0
ARC
  5
1AF
330
2
100
AcDbEntity
  8
0
100
AcDbCircle
 10
-1.002990948853849
 20
6.030078753830509
 30
0.0
 40
0.2
100
AcDbArc
 50
102.6356250930187
 51
180.0000000000001
  0
LINE
  5
1B0
330
2
100
AcDbEntity
  8
0
100
AcDbLine
 10
0.1003662270997623
 20
0.9866495771775306
 30
0.0
 11
0.1003662270997552
 21
10.65364997269876
 31
0.0
  0
LINE
  5
1B1
330
2
100
AcDbEntity
  8
0
100
AcDbLine
 10
0.0303662270997549
 20
0.9137371702128583
 30
0.0
 11
0.030366227099762
 21
10.65364997269876
 31
0.0
  0
LINE
  5
1B2
330
2
100
AcDbEntity
  8
0
100
AcDbLine
 10
-0.1222087987515081
 20
0.6400449365069889
 30
0.0
 11
-0.0045587470489821
 21
0.8047550088905275
 31
0.0
  0
LINE
  5
1B3
330
2
100
AcDbEntity
  8
0
100
AcDbLine
 10
-0.1571337729002451
 20
-0.0075588386027761
 30
0.0
 11
-0.1571337729002451
 21
0.5280664087769864
 31
0.0
  0
LINE
  5
1B4
330
2
100
AcDbEntity
  8
0
100
AcDbLine
 10
-0.1571337729002451
 20
0.0624411613972242
 30
0.0
 11
-0.1571337729002451
 21
0.5310627751846582
 31
0.0
  0
ARC
  5
1B5
330
2
100
AcDbEntity
  8
0
100
AcDbCircle
 10
0.0303662270997549
 20
0.5310627751846582
 30
0.0
 40
0.1875
100
AcDbArc
 50
144.4623222080256
 51
180.0000000000001
  0
ARC
  5
1B6
330
2
100
AcDbEntity
  8
0
100
AcDbCircle
 10
-1.002273502961231
 20
3.430078753830507
 30
0.0
 40
0.2
100
AcDbArc
 50
180.0000000000001
 51
257.3643749069813
  0
ARC
  5
1B8
330
2
100
AcDbEntity
  8
0
100
AcDbCircle
 10
-0.0871337729002377
 20
0.9866495771775306
 30
0.0
 40
0.1875
100
AcDbArc
 50
317.5012503477052
 51
0.0
  0
LINE
  5
1B9
330
2
100
AcDbEntity
  8
0
100
AcDbLine
 10
0.0511084920672005
 20
0.8599794300367307
 30
0.0
 11
-0.007332599041419
 21
0.7961993762167623
 31
0.0
  0
ARC
  5
1BA
330
2
100
AcDbEntity
  8
0
100
AcDbCircle
 10
-0.1571337729002451
 20
0.9137371702128583
 30
0.0
 40
0.1875
100
AcDbArc
 50
324.4623222080258
 51
0.0000000000000254
  0
LINE
  5
1BB
330
2
100
AcDbEntity
  8
0
100
AcDbLine
 10
-0.9012825308220442
 20
2.401237170212848
 30
0.0
 11
-0.9012825308220442
 21
3.091149972698759
 31
0.0
  0
ARC
  5
1BC
330
2
100
AcDbEntity
  8
0
100
AcDbCircle
 10
-1.088782530822044
 20
2.401237170212848
 30
0.0
 40
0.1875
100
AcDbArc
 50
324.4623222080256
 51
0.0000000000000254
  0
ARC
  5
1BD
330
2
100
AcDbEntity
  8
0
100
AcDbCircle
 10
-1.079073042538466
 20
3.056906188664573
 30
0.0
 40
0.1810582856468244
100
AcDbArc
 50
10.90209062768146
 51
79.48252761424762
  0
LINE
  5
1BE
330
2
100
AcDbEntity
  8
0
100
AcDbLine
 10
-0.9012825308220442
 20
4.401237170212852
 30
0.0
 11
-0.9012825308220442
 21
5.091149972698759
 31
0.0
  0
ARC
  5
1BF
330
2
100
AcDbEntity
  8
0
100
AcDbCircle
 10
-1.002990948853849
 20
4.030078753830509
 30
0.0
 40
0.2
100
AcDbArc
 50
102.6356250930187
 51
180.0000000000001
  0
LINE
  5
1C1
330
2
100
AcDbEntity
  8
0
100
AcDbLine
 10
-1.202990948853852
 20
3.430078753830507
 30
0.0
 11
-1.202990948853852
 21
4.030078753830509
 31
0.0
  0
ARC
  5
1C2
330
2
100
AcDbEntity
  8
0
100
AcDbCircle
 10
-1.094822497050297
 20
4.413081050505692
 30
0.0
 40
0.1939020268796215
100
AcDbArc
 50
284.3573167815786
 51
356.4980920944897
  0
ARC
  5
1C3
330
2
100
AcDbEntity
  8
0
100
AcDbCircle
 10
0.0628095192374971
 20
4.1325
 30
0.0
 40
0.25
100
AcDbArc
 50
98.82715068361172
 51
261.1728493163883
  0
LINE
  5
1C4
330
2
100
AcDbEntity
  8
0
100
AcDbLine
 10
-1.202990948853852
 20
5.430078753830507
 30
0.0
 11
-1.202990948853852
 21
6.030078753830509
 31
0.0
  0
ARC
  5
1C5
330
2
100
AcDbEntity
  8
0
100
AcDbCircle
 10
-1.079073042538466
 20
5.056906188664573
 30
0.0
 40
0.1810582856468246
100
AcDbArc
 50
10.9020906276816
 51
79.48252761424763
  0
ARC
  5
1C6
330
2
100
AcDbEntity
  8
0
100
AcDbCircle
 10
-1.002273502961231
 20
5.430078753830507
 30
0.0
 40
0.2
100
AcDbArc
 50
180.0000000000001
 51
257.3643749069813
  0
LINE
  5
1C8
330
2
100
AcDbEntity
  8
0
100
AcDbLine
 10
-0.9012825308220442
 20
8.401237170212852
 30
0.0
 11
-0.9012825308220442
 21
9.091149972698759
 31
0.0
  0
LINE
  5
1C9
330
2
100
AcDbEntity
  8
0
100
AcDbLine
 10
-1.202990948853852
 20
7.430078753830507
 30
0.0
 11
-1.202990948853852
 21
8.030078753830509
 31
0.0
  0
LINE
  5
1CA
330
2
100
AcDbEntity
  8
0
100
AcDbLine
 10
-0.9012825308220442
 20
6.401237170212852
 30
0.0
 11
-0.9012825308220442
 21
7.091149972698759
 31
0.0
  0
ARC
  5
1CB
330
2
100
AcDbEntity
  8
0
100
AcDbCircle
 10
-1.094563068696466
 20
6.412866643914533
 30
0.0
 40
0.1936300880018495
100
AcDbArc
 50
284.2986806058951
 51
356.5567282701746
  0
ARC
  5
1CC
330
2
100
AcDbEntity
  8
0
100
AcDbCircle
 10
-1.079073042538466
 20
7.056906188664573
 30
0.0
 40
0.1810582856468246
100
AcDbArc
 50
10.9020906276816
 51
79.48252761424763
  0
ARC
  5
1CD
330
2
100
AcDbEntity
  8
0
100
AcDbCircle
 10
-1.002273502961231
 20
7.430078753830507
 30
0.0
 40
0.2
100
AcDbArc
 50
180.0000000000001
 51
257.3643749069813
  0
ARC
  5
1CE
330
2
100
AcDbEntity
  8
0
100
AcDbCircle
 10
-1.002990948853849
 20
8.030078753830509
 30
0.0
 40
0.2
100
AcDbArc
 50
102.6356250930187
 51
180.0000000000001
  0
ARC
  5
1D0
330
2
100
AcDbEntity
  8
0
100
AcDbCircle
 10
-1.094563068696475
 20
8.412866643914546
 30
0.0
 40
0.1936300880018629
100
AcDbArc
 50
284.2986806058968
 51
356.5567282701713
  0
LINE
  5
1D1
330
2
100
AcDbEntity
  8
0
100
AcDbLine
 10
-0.9012825308220442
 20
10.65364997269876
 30
0.0
 11
-0.9012825308220442
 21
10.07735970125511
 31
0.0
  0
LINE
  5
1D2
330
2
100
AcDbEntity
  8
0
100
AcDbLine
 10
-1.208244222229375
 20
9.75731445074706
 30
0.0
 11
-1.208244222229375
 21
9.466488593821765
 31
0.0
  0
ARC
  5
1D3
330
2
100
AcDbEntity
  8
0
100
AcDbCircle
 10
-1.088636108340465
 20
9.087561871016224
 30
0.0
 40
0.1873879331297376
100
AcDbArc
 50
1.097165885734239
 51
78.72371390604866
  0
ARC
  5
1D4
330
2
100
AcDbEntity
  8
0
100
AcDbCircle
 10
-1.008244222229379
 20
9.466488593821765
 30
0.0
 40
0.2
100
AcDbArc
 50
180.0
 51
257.3643749069813
  0
ARC
  5
1D7
330
2
100
AcDbEntity
  8
0
100
AcDbCircle
 10
-1.008244222229379
 20
9.757314254469861
 30
0.0
 40
0.2
100
AcDbArc
 50
102.6356250930187
 51
180.0
  0
ARC
  5
1D8
330
2
100
AcDbEntity
  8
0
100
AcDbCircle
 10
-1.088030275574957
 20
10.14933865295978
 30
0.0
 40
0.2001391757223059
100
AcDbArc
 50
280.3729616867897
 51
338.9216354754495
  0
LINE
  5
1D9
330
2
100
AcDbEntity
  8
0
100
AcDbLine
 10
-0.9012825308220442
 20
10.65364997269876
 30
0.0
 11
0.1003662270997552
 21
10.65364997269876
 31
0.0
  0
LINE
  5
1F8
330
2
100
AcDbEntity
  8
0
100
AcDbLine
 10
-0.9071337729002487
 20
0.7411218953813918
 30
0.0
 11
-0.9071337729002487
 21
1.006729895381396
 31
0.0
  0
LWPOLYLINE
  5
1F9
330
2
100
AcDbEntity
  8
0
100
AcDbPolyline
 90
        9
 70
     0
 43
0.0
 10
-0.9071337729002487
 20
0.7692738953813905
 42
0.1432467981947568
 10
-0.8829181080790107
 20
0.7763568683777908
 42
0.1071754848060475
 10
-0.859219388747249
 20
0.7999257565166573
 42
0.0783035184710328
 10
-0.8448705878297815
 20
0.8322021606934236
 42
0.0656020556757086
 10
-0.8393726009983205
 20
0.8739258953813973
 42
0.0656020556757101
 10
-0.8448705878297815
 20
0.915649630069364
 42
0.0783035184710357
 10
-0.859219388747249
 20
0.9479260342461302
 42
0.1071754848060445
 10
-0.8829181080790107
 20
0.9714949223849949
 42
0.1432467981947535
 10
-0.9071337729002487
 20
0.9785778953813953
 42
0.1432467981947515
  0
LWPOLYLINE
  5
1FB
330
2
100
AcDbEntity
  8
0
100
AcDbPolyline
 90
        9
 70
     0
 43
0.0
 10
-0.9071337729002487
 20
0.7974258953813909
 42
0.147269582437036
 10
-0.8901452066642115
 20
0.8025406234016739
 42
0.1071386913803464
 10
-0.8732953887472483
 20
0.8198322266206226
 42
0.0765137470862007
 10
-0.8631751512623502
 20
0.8433567751334152
 42
0.063469041210727
 10
-0.8592790711022857
 20
0.8739258953813973
 42
0.0634690412107267
 10
-0.8631751512623502
 20
0.9044950156293705
 42
0.0765137470862059
 10
-0.8732953887472483
 20
0.9280195641421649
 42
0.1071386913803463
 10
-0.8901452066642115
 20
0.9453111673611119
 42
0.1472695824370325
 10
-0.9071337729002487
 20
0.9504258953813949
 42
0.1472695824370333
  0
LINE
  5
1FC
330
2
100
AcDbEntity
  8
0
100
AcDbLine
 10
-0.9071337729002487
 20
3.679637161397222
 30
0.0
 11
-0.9071337729002487
 21
3.945245161397226
 31
0.0
  0
LWPOLYLINE
  5
1FD
330
2
100
AcDbEntity
  8
0
100
AcDbPolyline
 90
        9
 70
     0
 43
0.0
 10
-0.9071337729002487
 20
3.707789161397221
 42
0.1432467981947568
 10
-0.8829181080790107
 20
3.714872134393621
 42
0.1071754848060475
 10
-0.859219388747249
 20
3.738441022532488
 42
0.0783035184710328
 10
-0.8448705878297815
 20
3.770717426709254
 42
0.0656020556757086
 10
-0.8393726009983205
 20
3.812441161397228
 42
0.0656020556757101
 10
-0.8448705878297815
 20
3.854164896085194
 42
0.0783035184710357
 10
-0.859219388747249
 20
3.886441300261961
 42
0.1071754848060445
 10
-0.8829181080790107
 20
3.910010188400825
 42
0.1432467981947535
 10
-0.9071337729002487
 20
3.917093161397226
 42
0.1432467981947515
  0
LWPOLYLINE
  5
1FF
330
2
100
AcDbEntity
  8
0
100
AcDbPolyline
 90
        9
 70
     0
 43
0.0
 10
-0.9071337729002487
 20
3.735941161397221
 42
0.147269582437036
 10
-0.8901452066642115
 20
3.741055889417504
 42
0.1071386913803464
 10
-0.8732953887472483
 20
3.758347492636453
 42
0.0765137470862007
 10
-0.8631751512623502
 20
3.781872041149246
 42
0.063469041210727
 10
-0.8592790711022857
 20
3.812441161397228
 42
0.0634690412107267
 10
-0.8631751512623502
 20
3.843010281645201
 42
0.0765137470862059
 10
-0.8732953887472483
 20
3.866534830157995
 42
0.1071386913803463
 10
-0.8901452066642115
 20
3.883826433376942
 42
0.1472695824370325
 10
-0.9071337729002487
 20
3.888941161397225
 42
0.1472695824370333
  0
LINE
  5
200
330
2
100
AcDbEntity
  8
0
100
AcDbLine
 10
-0.9071337729002487
 20
5.679637161397221
 30
0.0
 11
-0.9071337729002487
 21
5.945245161397224
 31
0.0
  0
LWPOLYLINE
  5
201
330
2
100
AcDbEntity
  8
0
100
AcDbPolyline
 90
        9
 70
     0
 43
0.0
 10
-0.9071337729002487
 20
5.707789161397223
 42
0.1432467981947568
 10
-0.8829181080790107
 20
5.714872134393623
 42
0.1071754848060475
 10
-0.859219388747249
 20
5.738441022532488
 42
0.0783035184710328
 10
-0.8448705878297815
 20
5.770717426709254
 42
0.0656020556757086
 10
-0.8393726009983205
 20
5.812441161397228
 42
0.0656020556757101
 10
-0.8448705878297815
 20
5.854164896085194
 42
0.0783035184710357
 10
-0.859219388747249
 20
5.886441300261961
 42
0.1071754848060445
 10
-0.8829181080790107
 20
5.910010188400825
 42
0.1432467981947535
 10
-0.9071337729002487
 20
5.917093161397226
 42
0.1432467981947515
  0
LWPOLYLINE
  5
203
330
2
100
AcDbEntity
  8
0
100
AcDbPolyline
 90
        9
 70
     0
 43
0.0
 10
-0.9071337729002487
 20
5.735941161397221
 42
0.147269582437036
 10
-0.8901452066642115
 20
5.741055889417506
 42
0.1071386913803464
 10
-0.8732953887472483
 20
5.758347492636453
 42
0.0765137470862007
 10
-0.8631751512623502
 20
5.781872041149246
 42
0.063469041210727
 10
-0.8592790711022857
 20
5.812441161397228
 42
0.0634690412107267
 10
-0.8631751512623502
 20
5.843010281645203
 42
0.0765137470862059
 10
-0.8732953887472483
 20
5.866534830157995
 42
0.1071386913803463
 10
-0.8901452066642115
 20
5.883826433376942
 42
0.1472695824370325
 10
-0.9071337729002487
 20
5.888941161397227
 42
0.1472695824370333
  0
LINE
  5
204
330
2
100
AcDbEntity
  8
0
100
AcDbLine
 10
-0.9071337729002487
 20
7.679637161397221
 30
0.0
 11
-0.9071337729002487
 21
7.945245161397224
 31
0.0
  0
LWPOLYLINE
  5
205
330
2
100
AcDbEntity
  8
0
100
AcDbPolyline
 90
        9
 70
     0
 43
0.0
 10
-0.9071337729002487
 20
7.707789161397223
 42
0.1432467981947568
 10
-0.8829181080790107
 20
7.714872134393623
 42
0.1071754848060475
 10
-0.859219388747249
 20
7.738441022532488
 42
0.0783035184710328
 10
-0.8448705878297815
 20
7.770717426709254
 42
0.0656020556757086
 10
-0.8393726009983205
 20
7.812441161397228
 42
0.0656020556757101
 10
-0.8448705878297815
 20
7.854164896085194
 42
0.0783035184710357
 10
-0.859219388747249
 20
7.886441300261961
 42
0.1071754848060445
 10
-0.8829181080790107
 20
7.910010188400825
 42
0.1432467981947535
 10
-0.9071337729002487
 20
7.917093161397226
 42
0.1432467981947515
  0
LWPOLYLINE
  5
207
330
2
100
AcDbEntity
  8
0
100
AcDbPolyline
 90
        9
 70
     0
 43
0.0
 10
-0.9071337729002487
 20
7.735941161397221
 42
0.147269582437036
 10
-0.8901452066642115
 20
7.741055889417506
 42
0.1071386913803464
 10
-0.8732953887472483
 20
7.758347492636453
 42
0.0765137470862007
 10
-0.8631751512623502
 20
7.781872041149246
 42
0.063469041210727
 10
-0.8592790711022857
 20
7.812441161397228
 42
0.0634690412107267
 10
-0.8631751512623502
 20
7.843010281645203
 42
0.0765137470862059
 10
-0.8732953887472483
 20
7.866534830157995
 42
0.1071386913803463
 10
-0.8901452066642115
 20
7.883826433376942
 42
0.1472695824370325
 10
-0.9071337729002487
 20
7.888941161397227
 42
0.1472695824370333
  0
LINE
  5
208
330
2
100
AcDbEntity
  8
0
100
AcDbLine
 10
-0.9071337729002487
 20
9.679637161397221
 30
0.0
 11
-0.9071337729002487
 21
9.945245161397224
 31
0.0
  0
LWPOLYLINE
  5
209
330
2
100
AcDbEntity
  8
0
100
AcDbPolyline
 90
        9
 70
     0
 43
0.0
 10
-0.9071337729002487
 20
9.707789161397223
 42
0.1432467981947568
 10
-0.8829181080790107
 20
9.714872134393623
 42
0.1071754848060475
 10
-0.859219388747249
 20
9.738441022532488
 42
0.0783035184710328
 10
-0.8448705878297815
 20
9.770717426709254
 42
0.0656020556757086
 10
-0.8393726009983205
 20
9.812441161397228
 42
0.0656020556757101
 10
-0.8448705878297815
 20
9.854164896085194
 42
0.0783035184710357
 10
-0.859219388747249
 20
9.886441300261961
 42
0.1071754848060445
 10
-0.8829181080790107
 20
9.910010188400825
 42
0.1432467981947535
 10
-0.9071337729002487
 20
9.917093161397226
 42
0.1432467981947515
  0
LWPOLYLINE
  5
20B
330
2
100
AcDbEntity
  8
0
100
AcDbPolyline
 90
        9
 70
     0
 43
0.0
 10
-0.9071337729002487
 20
9.735941161397221
 42
0.147269582437036
 10
-0.8901452066642115
 20
9.741055889417506
 42
0.1071386913803464
 10
-0.8732953887472483
 20
9.758347492636453
 42
0.0765137470862007
 10
-0.8631751512623502
 20
9.781872041149246
 42
0.063469041210727
 10
-0.8592790711022857
 20
9.812441161397228
 42
0.0634690412107267
 10
-0.8631751512623502
 20
9.843010281645203
 42
0.0765137470862059
 10
-0.8732953887472483
 20
9.866534830157995
 42
0.1071386913803463
 10
-0.8901452066642115
 20
9.883826433376942
 42
0.1472695824370325
 10
-0.9071337729002487
 20
9.888941161397227
 42
0.1472695824370333
  0
ARC
  5
2C6
330
2
100
AcDbEntity
  8
0
100
AcDbCircle
 10
-0.8541955320440309
 20
9.841592235993247
 30
0.0
 40
0.1545284259354844
100
AcDbArc
 50
304.7482755454344
 51
329.1575290112884
  0
ARC
  5
2C7
330
2
100
AcDbEntity
  8
0
100
AcDbCircle
 10
-0.8541955320440238
 20
9.783290086801195
 30
0.0
 40
0.1545284259354811
100
AcDbArc
 50
30.84247098871409
 51
55.25172445456781
  0
ARC
  5
2C8
330
2
100
AcDbEntity
  8
0
100
AcDbCircle
 10
-0.9071337729002558
 20
9.960601961634374
 30
0.0
 40
0.2864983002371524
100
AcDbArc
 50
270.0000000000014
 51
286.0310365777432
  0
ARC
  5
2C9
330
2
100
AcDbEntity
  8
0
100
AcDbCircle
 10
-0.886191788813715
 20
9.887717613697291
 30
0.0
 40
0.2106649640867842
100
AcDbArc
 50
286.0310365777398
 51
304.7482755454312
  0
ARC
  5
2CA
330
2
100
AcDbEntity
  8
0
100
AcDbCircle
 10
-0.8861917888137292
 20
9.737164709097151
 30
0.0
 40
0.2106649640867918
100
AcDbArc
 50
55.25172445456567
 51
73.96896342225678
  0
ARC
  5
2CB
330
2
100
AcDbEntity
  8
0
100
AcDbCircle
 10
-0.9071337729002558
 20
9.664280361160074
 30
0.0
 40
0.2864983002371495
100
AcDbArc
 50
73.96896342225659
 51
89.99999999999859
  0
ARC
  5
2CC
330
2
100
AcDbEntity
  8
0
100
AcDbCircle
 10
-0.8053764631542428
 20
9.812441161397221
 30
0.0
 40
0.0976681881821226
100
AcDbArc
 50
329.1575290112875
 51
0.000000000000007
  0
ARC
  5
2CD
330
2
100
AcDbEntity
  8
0
100
AcDbCircle
 10
-0.8053764631542499
 20
9.812441161397224
 30
0.0
 40
0.09766818818213
100
AcDbArc
 50
359.9999999999978
 51
30.84247098871043
  0
ARC
  5
2CE
330
2
100
AcDbEntity
  8
0
100
AcDbCircle
 10
-0.8541955320440309
 20
7.841592235993247
 30
0.0
 40
0.1545284259354844
100
AcDbArc
 50
304.7482755454344
 51
329.1575290112884
  0
ARC
  5
2CF
330
2
100
AcDbEntity
  8
0
100
AcDbCircle
 10
-0.8541955320440238
 20
7.783290086801195
 30
0.0
 40
0.1545284259354811
100
AcDbArc
 50
30.84247098871409
 51
55.25172445456781
  0
ARC
  5
2D0
330
2
100
AcDbEntity
  8
0
100
AcDbCircle
 10
-0.9071337729002558
 20
7.960601961634374
 30
0.0
 40
0.2864983002371524
100
AcDbArc
 50
270.0000000000014
 51
286.0310365777432
  0
ARC
  5
2D1
330
2
100
AcDbEntity
  8
0
100
AcDbCircle
 10
-0.886191788813715
 20
7.887717613697291
 30
0.0
 40
0.2106649640867842
100
AcDbArc
 50
286.0310365777398
 51
304.7482755454312
  0
ARC
  5
2D2
330
2
100
AcDbEntity
  8
0
100
AcDbCircle
 10
-0.8861917888137292
 20
7.737164709097151
 30
0.0
 40
0.2106649640867918
100
AcDbArc
 50
55.25172445456567
 51
73.96896342225678
  0
ARC
  5
2D3
330
2
100
AcDbEntity
  8
0
100
AcDbCircle
 10
-0.9071337729002558
 20
7.664280361160074
 30
0.0
 40
0.2864983002371495
100
AcDbArc
 50
73.96896342225659
 51
89.99999999999859
  0
ARC
  5
2D4
330
2
100
AcDbEntity
  8
0
100
AcDbCircle
 10
-0.8053764631542428
 20
7.812441161397221
 30
0.0
 40
0.0976681881821226
100
AcDbArc
 50
329.1575290112875
 51
0.000000000000007
  0
ARC
  5
2D5
330
2
100
AcDbEntity
  8
0
100
AcDbCircle
 10
-0.8053764631542499
 20
7.812441161397224
 30
0.0
 40
0.09766818818213
100
AcDbArc
 50
359.9999999999978
 51
30.84247098871043
  0
ARC
  5
2D6
330
2
100
AcDbEntity
  8
0
100
AcDbCircle
 10
-0.8541955320440309
 20
5.841592235993247
 30
0.0
 40
0.1545284259354844
100
AcDbArc
 50
304.7482755454344
 51
329.1575290112884
  0
ARC
  5
2D7
330
2
100
AcDbEntity
  8
0
100
AcDbCircle
 10
-0.8541955320440238
 20
5.783290086801195
 30
0.0
 40
0.1545284259354811
100
AcDbArc
 50
30.84247098871409
 51
55.25172445456781
  0
ARC
  5
2D8
330
2
100
AcDbEntity
  8
0
100
AcDbCircle
 10
-0.9071337729002558
 20
5.960601961634374
 30
0.0
 40
0.2864983002371524
100
AcDbArc
 50
270.0000000000014
 51
286.0310365777432
  0
ARC
  5
2D9
330
2
100
AcDbEntity
  8
0
100
AcDbCircle
 10
-0.886191788813715
 20
5.887717613697291
 30
0.0
 40
0.2106649640867842
100
AcDbArc
 50
286.0310365777398
 51
304.7482755454312
  0
ARC
  5
2DA
330
2
100
AcDbEntity
  8
0
100
AcDbCircle
 10
-0.8861917888137292
 20
5.737164709097151
 30
0.0
 40
0.2106649640867918
100
AcDbArc
 50
55.25172445456567
 51
73.96896342225678
  0
ARC
  5
2DB
330
2
100
AcDbEntity
  8
0
100
AcDbCircle
 10
-0.9071337729002558
 20
5.664280361160074
 30
0.0
 40
0.2864983002371495
100
AcDbArc
 50
73.96896342225659
 51
89.99999999999859
  0
ARC
  5
2DC
330
2
100
AcDbEntity
  8
0
100
AcDbCircle
 10
-0.8053764631542428
 20
5.812441161397221
 30
0.0
 40
0.0976681881821226
100
AcDbArc
 50
329.1575290112875
 51
0.000000000000007
  0
ARC
  5
2DD
330
2
100
AcDbEntity
  8
0
100
AcDbCircle
 10
-0.8053764631542499
 20
5.812441161397224
 30
0.0
 40
0.09766818818213
100
AcDbArc
 50
359.9999999999978
 51
30.84247098871043
  0
ARC
  5
2DE
330
2
100
AcDbEntity
  8
0
100
AcDbCircle
 10
-0.8541955320440309
 20
3.841592235993248
 30
0.0
 40
0.1545284259354844
100
AcDbArc
 50
304.7482755454344
 51
329.1575290112884
  0
ARC
  5
2DF
330
2
100
AcDbEntity
  8
0
100
AcDbCircle
 10
-0.8541955320440238
 20
3.783290086801197
 30
0.0
 40
0.1545284259354811
100
AcDbArc
 50
30.84247098871409
 51
55.25172445456781
  0
ARC
  5
2E0
330
2
100
AcDbEntity
  8
0
100
AcDbCircle
 10
-0.9071337729002558
 20
3.960601961634376
 30
0.0
 40
0.2864983002371524
100
AcDbArc
 50
270.0000000000014
 51
286.0310365777432
  0
ARC
  5
2E1
330
2
100
AcDbEntity
  8
0
100
AcDbCircle
 10
-0.886191788813715
 20
3.887717613697292
 30
0.0
 40
0.2106649640867842
100
AcDbArc
 50
286.0310365777398
 51
304.7482755454312
  0
ARC
  5
2E2
330
2
100
AcDbEntity
  8
0
100
AcDbCircle
 10
-0.8861917888137292
 20
3.737164709097153
 30
0.0
 40
0.2106649640867918
100
AcDbArc
 50
55.25172445456567
 51
73.96896342225678
  0
ARC
  5
2E3
330
2
100
AcDbEntity
  8
0
100
AcDbCircle
 10
-0.9071337729002558
 20
3.664280361160076
 30
0.0
 40
0.2864983002371495
100
AcDbArc
 50
73.96896342225659
 51
89.99999999999859
  0
ARC
  5
2E4
330
2
100
AcDbEntity
  8
0
100
AcDbCircle
 10
-0.8053764631542428
 20
3.812441161397222
 30
0.0
 40
0.0976681881821226
100
AcDbArc
 50
329.1575290112875
 51
0.000000000000007
  0
ARC
  5
2E5
330
2
100
AcDbEntity
  8
0
100
AcDbCircle
 10
-0.8053764631542499
 20
3.812441161397226
 30
0.0
 40
0.09766818818213
100
AcDbArc
 50
359.9999999999978
 51
30.84247098871043
  0
ARC
  5
2E6
330
2
100
AcDbEntity
  8
0
100
AcDbCircle
 10
-0.8541955320440309
 20
0.9030769699774179
 30
0.0
 40
0.1545284259354844
100
AcDbArc
 50
304.7482755454344
 51
329.1575290112884
  0
ARC
  5
2E7
330
2
100
AcDbEntity
  8
0
100
AcDbCircle
 10
-0.8541955320440238
 20
0.844774820785366
 30
0.0
 40
0.1545284259354811
100
AcDbArc
 50
30.84247098871409
 51
55.25172445456781
  0
ARC
  5
2E8
330
2
100
AcDbEntity
  8
0
100
AcDbCircle
 10
-0.9071337729002558
 20
1.022086695618546
 30
0.0
 40
0.2864983002371524
100
AcDbArc
 50
270.0000000000014
 51
286.0310365777432
  0
ARC
  5
2E9
330
2
100
AcDbEntity
  8
0
100
AcDbCircle
 10
-0.886191788813715
 20
0.9492023476814619
 30
0.0
 40
0.2106649640867842
100
AcDbArc
 50
286.0310365777398
 51
304.7482755454312
  0
ARC
  5
2EA
330
2
100
AcDbEntity
  8
0
100
AcDbCircle
 10
-0.8861917888137292
 20
0.798649443081322
 30
0.0
 40
0.2106649640867918
100
AcDbArc
 50
55.25172445456567
 51
73.96896342225678
  0
ARC
  5
2EB
330
2
100
AcDbEntity
  8
0
100
AcDbCircle
 10
-0.9071337729002558
 20
0.7257650951442454
 30
0.0
 40
0.2864983002371495
100
AcDbArc
 50
73.96896342225659
 51
89.99999999999859
  0
ARC
  5
2EC
330
2
100
AcDbEntity
  8
0
100
AcDbCircle
 10
-0.8053764631542428
 20
0.873925895381392
 30
0.0
 40
0.0976681881821226
100
AcDbArc
 50
329.1575290112875
 51
0.000000000000007
  0
ARC
  5
2ED
330
2
100
AcDbEntity
  8
0
100
AcDbCircle
 10
-0.8053764631542499
 20
0.8739258953813955
 30
0.0
 40
0.09766818818213
100
AcDbArc
 50
359.9999999999978
 51
30.84247098871043
  0
ENDSEC
  0
SECTION
  2
OBJECTS
  0
DICTIONARY
  5
9
330
0
100
AcDbDictionary
281
     1
  3
ACAD_COLOR
350
259
  3
ACAD_GROUP
350
23
  3
ACAD_LAYOUT
350
D
  3
ACAD_MATERIAL
350
258
  3
ACAD_MLINESTYLE
350
24
  3
ACAD_PLOTSETTINGS
350
25
  3
ACAD_PLOTSTYLENAME
350
8
  3
ACAD_TABLESTYLE
350
25A
  3
ACDBHEADERROUNDTRIPXREC
350
306
  3
AcDbVariableDictionary
350
113
  0
DICTIONARY
  5
259
102
{ACAD_REACTORS
330
9
102
}
330
9
100
AcDbDictionary
281
     1
  0
DICTIONARY
  5
23
102
{ACAD_REACTORS
330
9
102
}
330
9
100
AcDbDictionary
281
     1
  0
DICTIONARY
  5
D
102
{ACAD_REACTORS
330
9
102
}
330
9
100
AcDbDictionary
281
     1
  3
Layout1
350
13
  3
Model
350
C
  0
DICTIONARY
  5
258
102
{ACAD_REACTORS
330
9
102
}
330
9
100
AcDbDictionary
281
     1
  0
DICTIONARY
  5
24
102
{ACAD_REACTORS
330
9
102
}
330
9
100
AcDbDictionary
281
     1
  3
STANDARD
350
27
  0
DICTIONARY
  5
25
102
{ACAD_REACTORS
330
9
102
}
330
9
100
AcDbDictionary
281
     1
  0
ACDBDICTIONARYWDFLT
  5
8
102
{ACAD_REACTORS
330
9
102
}
330
9
100
AcDbDictionary
281
     1
  3
Normal
350
7
100
AcDbDictionaryWithDefault
340
7
  0
DICTIONARY
  5
25A
102
{ACAD_REACTORS
330
9
102
}
330
9
100
AcDbDictionary
281
     1
  3
Standard
350
25B
  0
DICTIONARY
  5
306
102
{ACAD_REACTORS
330
9
102
}
330
9
100
AcDbDictionary
281
     1
  3
COLORDICT
350
307
  3
MATERIALDICT
350
308
  0
DICTIONARY
  5
113
102
{ACAD_REACTORS
330
9
102
}
330
9
100
AcDbDictionary
281
     1
  3
CTABLESTYLE
350
2F4
  3
HIDETEXT
350
305
  0
LAYOUT
  5
13
102
{ACAD_REACTORS
330
D
102
}
102
{ACAD_XDICTIONARY
360
309
102
}
330
D
100
AcDbPlotSettings
  1

  2
C:\ACAD2000\plotters\HP LaserJet 2100 Series PS.pc3
  4

  6

 40
0.0
 41
0.0
 42
0.0
 43
0.0
 44
0.0
 45
0.0
 46
0.0
 47
0.0
 48
0.0
 49
0.0
140
0.0
141
0.0
142
1.0
143
1.0
 70
   688
 72
     0
 73
     0
 74
     5
  7

 75
    16
147
1.0
148
0.0
149
0.0
100
AcDbLayout
  1
Layout1
 70
     0
 71
     1
 10
0.0
 20
0.0
 11
12.0
 21
9.0
 12
0.0
 22
0.0
 32
0.0
 14
1.000000000000000E+20
 24
1.000000000000000E+20
 34
1.000000000000000E+20
 15
-1.000000000000000E+20
 25
-1.000000000000000E+20
 35
-1.000000000000000E+20
146
0.0
 13
0.0
 23
0.0
 33
0.0
 16
1.0
 26
0.0
 36
0.0
 17
0.0
 27
1.0
 37
0.0
 76
     0
330
E
  0
LAYOUT
  5
C
102
{ACAD_REACTORS
330
D
102
}
102
{ACAD_XDICTIONARY
360
30B
102
}
330
D
100
AcDbPlotSettings
  1

  2
HP LaserJet 2100 Series PS
  4
Letter
  6

 40
3.174999952316284
 41
3.174999952316284
 42
3.175003051757813
 43
3.17498779296875
 44
215.9000091552734
 45
279.3999938964844
 46
0.0
 47
0.0
 48
0.0
 49
0.0
140
0.0
141
0.0
142
1.0
143
3.255781322003443
 70
 28336
 72
     0
 73
     1
 74
     2
  7

 75
     0
147
0.3071459355214467
148
0.0
149
0.0
100
AcDbLayout
  1
Model
 70
     1
 71
     0
 10
0.0
 20
0.0
 11
12.0
 21
9.0
 12
0.0
 22
0.0
 32
0.0
 14
0.0
 24
0.0
 34
0.0
 15
0.0
 25
0.0
 35
0.0
146
0.0
 13
0.0
 23
0.0
 33
0.0
 16
1.0
 26
0.0
 36
0.0
 17
0.0
 27
1.0
 37
0.0
 76
     0
330
2
  0
MLINESTYLE
  5
27
102
{ACAD_REACTORS
330
24
102
}
330
24
100
AcDbMlineStyle
  2
STANDARD
 70
     0
  3

 62
   256
 51
90.0
 52
90.0
 71
     2
 49
0.5
 62
   256
  6
BYLAYER
 49
-0.5
 62
   256
  6
BYLAYER
  0
ACDBPLACEHOLDER
  5
7
102
{ACAD_REACTORS
330
8
102
}
330
8
  0
ACAD_PROXY_OBJECT
  5
25B
102
{ACAD_REACTORS
330
25A
102
}
330
25A
100
AcDbProxyObject
 90
      499
 91
      517
 95
   983063
 70
     0
 93
     1841
310
4214DD185B99185C9928B81E85EB51B8AE3F2E07A17AD46E2B8FC02B5E8DC0F42B1CFD028000000C1008070000C3001FDFF8000000C1003FBFF000000182007F7FE00000030400FEFFC00000060801FDFF8000000C1003FBFF00000018200000000000000681FA0B0000001820100E000186003FBFF000000182007F7FE000
310
00030400FEFFC00000060801FDFF8000000C1003FBFF000000182007F7FE000000304000AD7A3703D0AC73F4160000003040201C00030C007F7FE00000030400FEFFC00000060801FDFF8000000C1003FBFF000000182007F7FE00000030400FEFFC000000608000
340
16
340
16
340
16
 94
        0
  0
XRECORD
  5
307
102
{ACAD_REACTORS
330
306
102
}
330
306
100
AcDbXrecord
340
259
  0
XRECORD
  5
308
102
{ACAD_REACTORS
330
306
102
}
330
306
100
AcDbXrecord
340
258
  0
DICTIONARYVAR
  5
2F4
102
{ACAD_REACTORS
330
113
102
}
330
113
100
DictionaryVariables
280
     0
  1
STANDARD
  0
DICTIONARYVAR
  5
305
102
{ACAD_REACTORS
330
113
102
}
330
113
100
DictionaryVariables
280
     0
  1
0
  0
DICTIONARY
  5
309
330
13
100
AcDbDictionary
280
     1
281
     1
  3
ACAD_XREC_ROUNDTRIP
360
30A
  0
DICTIONARY
  5
30B
330
C
100
AcDbDictionary
280
     1
281
     1
  3
ACAD_XREC_ROUNDTRIP
360
30C
  0
XRECORD
  5
30A
102
{ACAD_REACTORS
330
309
102
}
330
309
100
AcDbXrecord
102
SHADEPLOT
 70
     0
102
SHADEPLOTRESLEVEL
 70
     2
102
SHADEPLOTCUSTOMDPI
 70
   300
  0
XRECORD
  5
30C
102
{ACAD_REACTORS
330
30B
102
}
330
30B
100
AcDbXrecord
102
SHADEPLOT
 70
     0
102
SHADEPLOTRESLEVEL
 70
     2
102
SHADEPLOTCUSTOMDPI
 70
   300
  0
ENDSEC
  0
EOF
