  0
SECTION
  2
HEADER
  9
$ACADVER
  1
AC1015
  9
$ACADMAINTVER
 70
     6
  9
$DWGCODEPAGE
  3
ANSI_1252
  9
$INSBASE
 10
0.0
 20
0.0
 30
0.0
  9
$EXTMIN
 10
-8.748727144882068
 20
-0.0299061694871057
 30
-0.0000000000112498
  9
$EXTMAX
 10
8.74863039203008
 20
19.10637803198458
 30
0.0000000000002956
  9
$LIMMIN
 10
0.0
 20
0.0
  9
$LIMMAX
 10
26.6664
 20
34.99965
  9
$ORTHOMODE
 70
     1
  9
$REGENMODE
 70
     1
  9
$FILLMODE
 70
     1
  9
$QTEXTMODE
 70
     0
  9
$MIRRTEXT
 70
     0
  9
$LTSCALE
 40
1.0
  9
$ATTMODE
 70
     1
  9
$TEXTSIZE
 40
0.299997
  9
$TRACEWID
 40
0.05
  9
$TEXTSTYLE
  7
STANDARD
  9
$CLAYER
  8
0
  9
$CELTYPE
  6
BYLAYER
  9
$CECOLOR
 62
   256
  9
$CELTSCALE
 40
1.0
  9
$DISPSILH
 70
     0
  9
$DIMSCALE
 40
3.3333
  9
$DIMASZ
 40
0.125
  9
$DIMEXO
 40
0.062
  9
$DIMDLI
 40
0.375
  9
$DIMRND
 40
0.0
  9
$DIMDLE
 40
0.0
  9
$DIMEXE
 40
0.08
  9
$DIMTP
 40
0.0
  9
$DIMTM
 40
0.0
  9
$DIMTXT
 40
0.09
  9
$DIMCEN
 40
-0.03125
  9
$DIMTSZ
 40
0.0
  9
$DIMTOL
 70
     0
  9
$DIMLIM
 70
     0
  9
$DIMTIH
 70
     1
  9
$DIMTOH
 70
     1
  9
$DIMSE1
 70
     0
  9
$DIMSE2
 70
     0
  9
$DIMTAD
 70
     0
  9
$DIMZIN
 70
     0
  9
$DIMBLK
  1

  9
$DIMASO
 70
     0
  9
$DIMSHO
 70
     0
  9
$DIMPOST
  1

  9
$DIMAPOST
  1

  9
$DIMALT
 70
     0
  9
$DIMALTD
 70
     2
  9
$DIMALTF
 40
25.4
  9
$DIMLFAC
 40
1.0
  9
$DIMTOFL
 70
     0
  9
$DIMTVP
 40
0.0
  9
$DIMTIX
 70
     0
  9
$DIMSOXD
 70
     0
  9
$DIMSAH
 70
     0
  9
$DIMBLK1
  1

  9
$DIMBLK2
  1

  9
$DIMSTYLE
  2
STANDARD
  9
$DIMCLRD
 70
     0
  9
$DIMCLRE
 70
     0
  9
$DIMCLRT
 70
     0
  9
$DIMTFAC
 40
1.0
  9
$DIMGAP
 40
0.08984375
  9
$DIMJUST
 70
     0
  9
$DIMSD1
 70
     0
  9
$DIMSD2
 70
     0
  9
$DIMTOLJ
 70
     1
  9
$DIMTZIN
 70
     0
  9
$DIMALTZ
 70
     0
  9
$DIMALTTZ
 70
     0
  9
$DIMUPT
 70
     0
  9
$DIMDEC
 70
     5
  9
$DIMTDEC
 70
     6
  9
$DIMALTU
 70
     5
  9
$DIMALTTD
 70
     2
  9
$DIMTXSTY
  7
STANDARD
  9
$DIMAUNIT
 70
     0
  9
$DIMADEC
 70
     0
  9
$DIMALTRND
 40
0.0
  9
$DIMAZIN
 70
     0
  9
$DIMDSEP
 70
    46
  9
$DIMATFIT
 70
     3
  9
$DIMFRAC
 70
     2
  9
$DIMLDRBLK
  1

  9
$DIMLUNIT
 70
     5
  9
$DIMLWD
 70
    -2
  9
$DIMLWE
 70
    -2
  9
$DIMTMOVE
 70
     2
  9
$LUNITS
 70
     5
  9
$LUPREC
 70
     6
  9
$SKETCHINC
 40
0.1
  9
$FILLETRAD
 40
0.0
  9
$AUNITS
 70
     0
  9
$AUPREC
 70
     0
  9
$MENU
  1
acad
  9
$ELEVATION
 40
0.0
  9
$PELEVATION
 40
0.0
  9
$THICKNESS
 40
0.0
  9
$LIMCHECK
 70
     0
  9
$CHAMFERA
 40
0.0
  9
$CHAMFERB
 40
0.0
  9
$CHAMFERC
 40
0.0
  9
$CHAMFERD
 40
0.0
  9
$SKPOLY
 70
     0
  9
$TDCREATE
 40
2449882.96078287
  9
$TDUCREATE
 40
2449883.294116204
  9
$TDUPDATE
 40
2454166.806378055
  9
$TDUUPDATE
 40
2454167.139711389
  9
$TDINDWG
 40
0.0872308565
  9
$TDUSRTIMER
 40
0.0872308565
  9
$USRTIMER
 70
     1
  9
$ANGBASE
 50
0.0
  9
$ANGDIR
 70
     0
  9
$PDMODE
 70
     0
  9
$PDSIZE
 40
0.0
  9
$PLINEWID
 40
0.0
  9
$SPLFRAME
 70
     0
  9
$SPLINETYPE
 70
     6
  9
$SPLINESEGS
 70
     8
  9
$HANDSEED
  5
2FE
  9
$SURFTAB1
 70
     6
  9
$SURFTAB2
 70
     6
  9
$SURFTYPE
 70
     6
  9
$SURFU
 70
     6
  9
$SURFV
 70
     6
  9
$UCSBASE
  2

  9
$UCSNAME
  2

  9
$UCSORG
 10
0.0
 20
0.0
 30
0.0
  9
$UCSXDIR
 10
1.0
 20
0.0
 30
0.0
  9
$UCSYDIR
 10
0.0
 20
1.0
 30
0.0
  9
$UCSORTHOREF
  2

  9
$UCSORTHOVIEW
 70
     0
  9
$UCSORGTOP
 10
0.0
 20
0.0
 30
0.0
  9
$UCSORGBOTTOM
 10
0.0
 20
0.0
 30
0.0
  9
$UCSORGLEFT
 10
0.0
 20
0.0
 30
0.0
  9
$UCSORGRIGHT
 10
0.0
 20
0.0
 30
0.0
  9
$UCSORGFRONT
 10
0.0
 20
0.0
 30
0.0
  9
$UCSORGBACK
 10
0.0
 20
0.0
 30
0.0
  9
$PUCSBASE
  2

  9
$PUCSNAME
  2

  9
$PUCSORG
 10
0.0
 20
0.0
 30
0.0
  9
$PUCSXDIR
 10
1.0
 20
0.0
 30
0.0
  9
$PUCSYDIR
 10
0.0
 20
1.0
 30
0.0
  9
$PUCSORTHOREF
  2

  9
$PUCSORTHOVIEW
 70
     0
  9
$PUCSORGTOP
 10
0.0
 20
0.0
 30
0.0
  9
$PUCSORGBOTTOM
 10
0.0
 20
0.0
 30
0.0
  9
$PUCSORGLEFT
 10
0.0
 20
0.0
 30
0.0
  9
$PUCSORGRIGHT
 10
0.0
 20
0.0
 30
0.0
  9
$PUCSORGFRONT
 10
0.0
 20
0.0
 30
0.0
  9
$PUCSORGBACK
 10
0.0
 20
0.0
 30
0.0
  9
$USERI1
 70
     0
  9
$USERI2
 70
     0
  9
$USERI3
 70
     0
  9
$USERI4
 70
     0
  9
$USERI5
 70
     0
  9
$USERR1
 40
0.0
  9
$USERR2
 40
0.0
  9
$USERR3
 40
0.0
  9
$USERR4
 40
0.0
  9
$USERR5
 40
0.0
  9
$WORLDVIEW
 70
     1
  9
$SHADEDGE
 70
     3
  9
$SHADEDIF
 70
    70
  9
$TILEMODE
 70
     1
  9
$MAXACTVP
 70
    16
  9
$PINSBASE
 10
0.0
 20
0.0
 30
0.0
  9
$PLIMCHECK
 70
     0
  9
$PEXTMIN
 10
1.000000000000000E+20
 20
1.000000000000000E+20
 30
1.000000000000000E+20
  9
$PEXTMAX
 10
-1.000000000000000E+20
 20
-1.000000000000000E+20
 30
-1.000000000000000E+20
  9
$PLIMMIN
 10
0.0
 20
0.0
  9
$PLIMMAX
 10
12.0
 20
9.0
  9
$UNITMODE
 70
     0
  9
$VISRETAIN
 70
     0
  9
$PLINEGEN
 70
     1
  9
$PSLTSCALE
 70
     0
  9
$TREEDEPTH
 70
  3020
  9
$CMLSTYLE
  2
STANDARD
  9
$CMLJUST
 70
     0
  9
$CMLSCALE
 40
1.0
  9
$PROXYGRAPHICS
 70
     1
  9
$MEASUREMENT
 70
     0
  9
$CELWEIGHT
370
    -1
  9
$ENDCAPS
280
     0
  9
$JOINSTYLE
280
     0
  9
$LWDISPLAY
290
     0
  9
$INSUNITS
 70
     0
  9
$HYPERLINKBASE
  1

  9
$STYLESHEET
  1

  9
$XEDIT
290
     1
  9
$CEPSNTYPE
380
     0
  9
$PSTYLEMODE
290
     1
  9
$FINGERPRINTGUID
  2
{9E3C033F-2033-44E3-97CF-61E3321883E3}
  9
$VERSIONGUID
  2
{7D96DFD2-E777-436C-8F27-89C6AE9529D9}
  9
$EXTNAMES
290
     1
  9
$PSVPSCALE
 40
0.0
  9
$OLESTARTUP
290
     0
  0
ENDSEC
  0
SECTION
  2
CLASSES
  0
CLASS
  1
DICTIONARYVAR
  2
AcDbDictionaryVar
  3
AutoCAD 2000
 90
        0
280
     0
281
     0
  0
CLASS
  1
LWPOLYLINE
  2
AcDbPolyline
  3
AutoCAD 2000
 90
        0
280
     0
281
     1
  0
CLASS
  1
ACDBDICTIONARYWDFLT
  2
AcDbDictionaryWithDefault
  3
AutoCAD 2000
 90
        0
280
     0
281
     0
  0
CLASS
  1
ACDBPLACEHOLDER
  2
AcDbPlaceHolder
  3
ObjectDBX Classes
 90
        0
280
     0
281
     0
  0
CLASS
  1
LAYOUT
  2
AcDbLayout
  3
ObjectDBX Classes
 90
        0
280
     0
281
     0
  0
CLASS
  1
LONG_TRANSACTION
  2
AcDbLongTransaction
  3
ObjectDBX Classes
 90
   -65536
280
     1
281
     0
  0
CLASS
  1
LWPOLYLINE
  2
AcDbPolyline
  3
AutoCAD 2000
 90
        0
280
     0
281
     1
  0
CLASS
  1
HATCH
  2
AcDbHatch
  3
AutoCAD 2000
 90
        0
280
     0
281
     1
  0
CLASS
  1
XRECORD
  2
AcDbXrecord
  3
AutoCAD 2000
 90
        0
280
     0
281
     0
  0
CLASS
  1
LONG_TRANSACTION
  2
AcDbLongTransaction
  3
ObjectDBX Classes
 90
   -65536
280
     1
281
     0
  0
CLASS
  1
LWPOLYLINE
  2
AcDbPolyline
  3
AutoCAD 2000
 90
        0
280
     0
281
     1
  0
CLASS
  1
HATCH
  2
AcDbHatch
  3
AutoCAD 2000
 90
        0
280
     0
281
     1
  0
CLASS
  1
XRECORD
  2
AcDbXrecord
  3
AutoCAD 2000
 90
        0
280
     0
281
     0
  0
CLASS
  1
LONG_TRANSACTION
  2
AcDbLongTransaction
  3
ObjectDBX Classes
 90
   -65536
280
     1
281
     0
  0
CLASS
  1
LWPOLYLINE
  2
AcDbPolyline
  3
AutoCAD 2000
 90
        0
280
     0
281
     1
  0
CLASS
  1
HATCH
  2
AcDbHatch
  3
AutoCAD 2000
 90
        0
280
     0
281
     1
  0
CLASS
  1
XRECORD
  2
AcDbXrecord
  3
AutoCAD 2000
 90
        0
280
     0
281
     0
  0
CLASS
  1
TABLESTYLE
  2
AcDbTableStyle
  3
ObjectDBX Classes
 90
     2047
280
     1
281
     0
  0
ENDSEC
  0
SECTION
  2
TABLES
  0
TABLE
  2
VPORT
  5
1D
330
0
100
AcDbSymbolTable
 70
     2
  0
VPORT
  5
2EE
330
1D
100
AcDbSymbolTableRecord
100
AcDbViewportTableRecord
  2
*Active
 70
     0
 10
0.0
 20
0.0
 11
1.0
 21
1.0
 12
8.958836427558962
 22
17.48487191525645
 13
0.0
 23
0.0
 14
0.063
 24
0.063
 15
0.25
 25
0.25
 16
0.0
 26
0.0
 36
1.0
 17
0.0
 27
0.0
 37
0.0
 40
35.46651529010441
 41
1.814583333333333
 42
50.0
 43
0.0
 44
0.0
 50
0.0
 51
0.0
 71
     0
 72
   100
 73
     1
 74
     0
 75
     0
 76
     0
 77
     0
 78
     0
281
     0
 65
     1
110
0.0
120
0.0
130
0.0
111
1.0
121
0.0
131
0.0
112
0.0
122
1.0
132
0.0
 79
     0
146
0.0
  0
ENDTAB
  0
TABLE
  2
LTYPE
  5
18
330
0
100
AcDbSymbolTable
 70
     1
  0
LTYPE
  5
19
330
18
100
AcDbSymbolTableRecord
100
AcDbLinetypeTableRecord
  2
BYBLOCK
 70
     0
  3

 72
    65
 73
     0
 40
0.0
  0
LTYPE
  5
1A
330
18
100
AcDbSymbolTableRecord
100
AcDbLinetypeTableRecord
  2
BYLAYER
 70
     0
  3

 72
    65
 73
     0
 40
0.0
  0
LTYPE
  5
A
330
18
100
AcDbSymbolTableRecord
100
AcDbLinetypeTableRecord
  2
CONTINUOUS
 70
     0
  3
Solid line
 72
    65
 73
     0
 40
0.0
  0
ENDTAB
  0
TABLE
  2
LAYER
  5
14
330
0
100
AcDbSymbolTable
 70
     2
  0
LAYER
  5
6
330
14
100
AcDbSymbolTableRecord
100
AcDbLayerTableRecord
  2
0
 70
     0
 62
     7
  6
CONTINUOUS
370
    -3
390
7
  0
ENDTAB
  0
TABLE
  2
STYLE
  5
15
330
0
100
AcDbSymbolTable
 70
     1
  0
STYLE
  5
16
330
15
100
AcDbSymbolTableRecord
100
AcDbTextStyleTableRecord
  2
STANDARD
 70
     0
 40
0.0
 41
1.0
 50
0.0
 71
     0
 42
0.299997
  3
TXT
  4

  0
ENDTAB
  0
TABLE
  2
VIEW
  5
1B
330
0
100
AcDbSymbolTable
 70
     0
  0
ENDTAB
  0
TABLE
  2
UCS
  5
1C
330
0
100
AcDbSymbolTable
 70
     0
  0
ENDTAB
  0
TABLE
  2
APPID
  5
1F
330
0
100
AcDbSymbolTable
 70
     1
  0
APPID
  5
20
330
1F
100
AcDbSymbolTableRecord
100
AcDbRegAppTableRecord
  2
ACAD
 70
     0
  0
ENDTAB
  0
TABLE
  2
DIMSTYLE
  5
21
330
0
100
AcDbSymbolTable
 70
     1
100
AcDbDimStyleTable
  0
DIMSTYLE
105
28
330
21
100
AcDbSymbolTableRecord
100
AcDbDimStyleTableRecord
  2
STANDARD
 70
     0
  3

  4

340
16
  0
ENDTAB
  0
TABLE
  2
BLOCK_RECORD
  5
1
330
0
100
AcDbSymbolTable
 70
     1
  0
BLOCK_RECORD
  5
2
330
1
100
AcDbSymbolTableRecord
100
AcDbBlockTableRecord
  2
*MODEL_SPACE
340
C
  0
BLOCK_RECORD
  5
E
330
1
100
AcDbSymbolTableRecord
100
AcDbBlockTableRecord
  2
*PAPER_SPACE
340
13
  0
ENDTAB
  0
ENDSEC
  0
SECTION
  2
BLOCKS
  0
BLOCK
  5
5
330
2
100
AcDbEntity
  8
0
100
AcDbBlockBegin
  2
*MODEL_SPACE
 70
     0
 10
0.0
 20
0.0
 30
0.0
  3
*MODEL_SPACE
  1

  4

  0
ENDBLK
  5
B
330
2
100
AcDbEntity
  8
0
100
AcDbBlockEnd
  0
BLOCK
  5
11
330
E
100
AcDbEntity
 67
     1
  8
0
100
AcDbBlockBegin
  2
*PAPER_SPACE
 70
     0
 10
0.0
 20
0.0
 30
0.0
  3
*PAPER_SPACE
  1

  4

  0
ENDBLK
  5
12
330
E
100
AcDbEntity
 67
     1
  8
0
100
AcDbBlockEnd
  0
ENDSEC
  0
SECTION
  2
ENTITIES
  0
LINE
  5
11F
330
2
100
AcDbEntity
  8
0
100
AcDbLine
 10
1.785432455434624
 20
2.140000000000002
 30
0.0
 11
1.785432455434624
 21
10.6325
 31
0.0
  0
LINE
  5
120
330
2
100
AcDbEntity
  8
0
100
AcDbLine
 10
-1.855432455434624
 20
2.140000000000001
 30
0.0
 11
-1.855432455434631
 21
10.6325
 31
0.0
  0
LINE
  5
121
330
2
100
AcDbEntity
  8
0
100
AcDbLine
 10
-1.785432455434627
 20
2.140000000000001
 30
0.0
 11
-1.785432455434627
 21
10.6325
 31
0.0
  0
LINE
  5
122
330
2
100
AcDbEntity
  8
0
100
AcDbLine
 10
1.855432455434624
 20
2.140000000000001
 30
0.0
 11
1.855432455434618
 21
10.6325
 31
0.0
  0
ARC
  5
123
330
2
100
AcDbEntity
  8
0
100
AcDbCircle
 10
2.806530618474197
 20
6.026147209151198
 30
0.0
 40
0.2
100
AcDbArc
 50
102.6356250930187
 51
180.0
  0
ARC
  5
124
330
2
100
AcDbEntity
  8
0
100
AcDbCircle
 10
-2.806530618474199
 20
6.026147209151198
 30
0.0
 40
0.2
100
AcDbArc
 50
0.0000000000000254
 51
77.36437490698125
  0
LINE
  5
125
330
2
100
AcDbEntity
  8
0
100
AcDbLine
 10
-1.715432455434623
 20
0.0
 30
0.0
 11
1.715432455434623
 21
0.0
 31
0.0
  0
LINE
  5
126
330
2
100
AcDbEntity
  8
0
100
AcDbLine
 10
-1.715432455434627
 20
0.0700000000000003
 30
0.0
 11
1.715432455434623
 21
0.0700000000000003
 31
0.0
  0
LINE
  5
127
330
2
100
AcDbEntity
  8
0
100
AcDbLine
 10
-1.855432455434624
 20
0.1400000000000006
 30
0.0
 11
-1.855432455434627
 21
5.07
 31
0.0
  0
LINE
  5
128
330
2
100
AcDbEntity
  8
0
100
AcDbLine
 10
-1.785432455434627
 20
0.1400000000000006
 30
0.0
 11
-1.785432455434627
 21
5.07
 31
0.0
  0
ARC
  5
129
330
2
100
AcDbEntity
  8
0
100
AcDbCircle
 10
-1.715432455434623
 20
0.1400000000000006
 30
0.0
 40
0.14
100
AcDbArc
 50
180.0000000000001
 51
270.0
  0
ARC
  5
12A
330
2
100
AcDbEntity
  8
0
100
AcDbCircle
 10
-1.715432455434627
 20
0.1400000000000006
 30
0.0
 40
0.07
100
AcDbArc
 50
180.0
 51
270.0
  0
ARC
  5
12B
330
2
100
AcDbEntity
  8
0
100
AcDbCircle
 10
-2.843570162734948
 20
3.439148104014401
 30
0.0
 40
0.2373958062194578
100
AcDbArc
 50
292.0001217776733
 51
356.8606469279009
  0
ARC
  5
12C
330
2
100
AcDbEntity
  8
0
100
AcDbCircle
 10
-2.710889660650505
 20
3.023882546910194
 30
0.0
 40
0.2
100
AcDbArc
 50
102.6356250930189
 51
180.0
  0
LINE
  5
12D
330
2
100
AcDbEntity
  8
0
100
AcDbLine
 10
-1.855432455434624
 20
0.8325000000000071
 30
0.0
 11
-2.883007481285887
 21
2.271105036191763
 31
0.0
  0
LINE
  5
12F
330
2
100
AcDbEntity
  8
0
100
AcDbLine
 10
-2.917932455434624
 20
2.380087197514094
 30
0.0
 11
-2.910889660650505
 21
3.023882546910194
 31
0.0
  0
CIRCLE
  5
130
330
2
100
AcDbEntity
  8
0
100
AcDbCircle
 10
-2.605432455434624
 20
2.32
 30
0.0
 40
0.0855
  0
ARC
  5
131
330
2
100
AcDbEntity
  8
0
100
AcDbCircle
 10
-2.730432455434624
 20
2.380087197514094
 30
0.0
 40
0.1875
100
AcDbArc
 50
180.0
 51
215.5376777919745
  0
ARC
  5
132
330
2
100
AcDbEntity
  8
0
100
AcDbCircle
 10
-2.673850116389759
 20
5.010881652046989
 30
0.0
 40
0.2373958062194579
100
AcDbArc
 50
112.0001217776736
 51
176.860646927901
  0
ARC
  5
133
330
2
100
AcDbEntity
  8
0
100
AcDbCircle
 10
-2.719030618474204
 20
4.416459584051147
 30
0.0
 40
0.2
100
AcDbArc
 50
180.0
 51
257.3643749069807
  0
LINE
  5
134
330
2
100
AcDbEntity
  8
0
100
AcDbLine
 10
-2.919030618474204
 20
4.416459584051147
 30
0.0
 11
-2.910889660650505
 21
5.023882546910194
 31
0.0
  0
ARC
  5
135
330
2
100
AcDbEntity
  8
0
100
AcDbCircle
 10
-2.806530618474199
 20
4.026147209151198
 30
0.0
 40
0.2
100
AcDbArc
 50
0.0000000000000254
 51
77.36437490698125
  0
LINE
  5
136
330
2
100
AcDbEntity
  8
0
100
AcDbLine
 10
-2.606530618474203
 20
4.026147209151198
 30
0.0
 11
-2.606530618474203
 21
3.426147209151196
 31
0.0
  0
CIRCLE
  5
137
330
2
100
AcDbEntity
  8
0
100
AcDbCircle
 10
-2.605432455434624
 20
4.32
 30
0.0
 40
0.0855
  0
ARC
  5
138
330
2
100
AcDbEntity
  8
0
100
AcDbCircle
 10
-1.81706892800711
 20
4.1325
 30
0.0
 40
0.25
100
AcDbArc
 50
98.82715068361172
 51
261.1728493163883
  0
LINE
  5
13A
330
2
100
AcDbEntity
  8
0
100
AcDbLine
 10
-2.606530618474203
 20
6.026147209151198
 30
0.0
 11
-2.606530618474203
 21
5.426147209151196
 31
0.0
  0
ARC
  5
13B
330
2
100
AcDbEntity
  8
0
100
AcDbCircle
 10
-2.806530618474202
 20
5.426147209151196
 30
0.0
 40
0.2
100
AcDbArc
 50
282.6356250930186
 51
0.0000000000000254
  0
LINE
  5
13D
330
2
100
AcDbEntity
  8
0
100
AcDbLine
 10
1.855432455434624
 20
0.1400000000000006
 30
0.0
 11
1.855432455434624
 21
5.07
 31
0.0
  0
LINE
  5
13E
330
2
100
AcDbEntity
  8
0
100
AcDbLine
 10
1.785432455434624
 20
0.1400000000000006
 30
0.0
 11
1.785432455434624
 21
5.07
 31
0.0
  0
ARC
  5
13F
330
2
100
AcDbEntity
  8
0
100
AcDbCircle
 10
1.715432455434623
 20
0.1400000000000006
 30
0.0
 40
0.14
100
AcDbArc
 50
270.0
 51
0.0
  0
ARC
  5
140
330
2
100
AcDbEntity
  8
0
100
AcDbCircle
 10
1.715432455434623
 20
0.1400000000000006
 30
0.0
 40
0.07
100
AcDbArc
 50
270.0
 51
0.0
  0
ARC
  5
141
330
2
100
AcDbEntity
  8
0
100
AcDbCircle
 10
2.8065306184742
 20
3.426147209151196
 30
0.0
 40
0.2
100
AcDbArc
 50
180.0
 51
257.3643749069813
  0
LINE
  5
142
330
2
100
AcDbEntity
  8
0
100
AcDbLine
 10
1.855432455434624
 20
5.07
 30
0.0
 11
1.855432455434624
 21
0.8648044966590973
 31
0.0
  0
LINE
  5
143
330
2
100
AcDbEntity
  8
0
100
AcDbLine
 10
1.884486366047007
 20
0.8731754748573373
 30
0.0
 11
2.883007481285885
 21
2.271105036191763
 31
0.0
  0
CIRCLE
  5
145
330
2
100
AcDbEntity
  8
0
100
AcDbCircle
 10
2.605432455434624
 20
2.32
 30
0.0
 40
0.0855
  0
LINE
  5
146
330
2
100
AcDbEntity
  8
0
100
AcDbLine
 10
2.917932455434622
 20
2.380087197514094
 30
0.0
 11
2.917932455434622
 21
3.07
 31
0.0
  0
ARC
  5
147
330
2
100
AcDbEntity
  8
0
100
AcDbCircle
 10
2.730432455434622
 20
2.380087197514094
 30
0.0
 40
0.1875
100
AcDbArc
 50
324.4623222080255
 51
0.0
  0
ARC
  5
148
330
2
100
AcDbEntity
  8
0
100
AcDbCircle
 10
2.715481193209787
 20
3.030149427147829
 30
0.0
 40
0.20633608926476
100
AcDbArc
 50
11.13575422006761
 51
76.74797083893327
  0
LINE
  5
149
330
2
100
AcDbEntity
  8
0
100
AcDbLine
 10
2.917932455434622
 20
4.380087197514094
 30
0.0
 11
2.917932455434622
 21
5.07
 31
0.0
  0
CIRCLE
  5
14A
330
2
100
AcDbEntity
  8
0
100
AcDbCircle
 10
2.605432455434622
 20
4.32
 30
0.0
 40
0.0855
  0
ARC
  5
14B
330
2
100
AcDbEntity
  8
0
100
AcDbCircle
 10
1.81706892800711
 20
4.1325
 30
0.0
 40
0.25
100
AcDbArc
 50
278.8271506836109
 51
81.17284931638909
  0
ARC
  5
14D
330
2
100
AcDbEntity
  8
0
100
AcDbCircle
 10
2.806530618474197
 20
4.026147209151198
 30
0.0
 40
0.2
100
AcDbArc
 50
102.6356250930187
 51
180.0
  0
LINE
  5
14E
330
2
100
AcDbEntity
  8
0
100
AcDbLine
 10
2.606530618474201
 20
4.026147209151198
 30
0.0
 11
2.606530618474201
 21
3.426147209151196
 31
0.0
  0
ARC
  5
14F
330
2
100
AcDbEntity
  8
0
100
AcDbCircle
 10
2.714569818713059
 20
4.423604814830648
 30
0.0
 40
0.2079666921198116
100
AcDbArc
 50
283.4042354776939
 51
347.9214306605649
  0
LINE
  5
151
330
2
100
AcDbEntity
  8
0
100
AcDbLine
 10
2.606530618474201
 20
6.026147209151198
 30
0.0
 11
2.606530618474201
 21
5.426147209151196
 31
0.0
  0
ARC
  5
152
330
2
100
AcDbEntity
  8
0
100
AcDbCircle
 10
2.715481193209787
 20
5.030149427147828
 30
0.0
 40
0.2063360892647601
100
AcDbArc
 50
11.13575422006785
 51
76.74797083893331
  0
ARC
  5
153
330
2
100
AcDbEntity
  8
0
100
AcDbCircle
 10
2.8065306184742
 20
5.426147209151196
 30
0.0
 40
0.2
100
AcDbArc
 50
180.0
 51
257.3643749069813
  0
LINE
  5
154
330
2
100
AcDbEntity
  8
0
100
AcDbLine
 10
-2.917932455434624
 20
8.380087197514094
 30
0.0
 11
-2.917932455434624
 21
9.045517781083049
 31
0.0
  0
ARC
  5
155
330
2
100
AcDbEntity
  8
0
100
AcDbCircle
 10
-2.714569818713057
 20
8.42360481483065
 30
0.0
 40
0.2079666921198162
100
AcDbArc
 50
192.0785693394353
 51
256.595764522305
  0
ARC
  5
156
330
2
100
AcDbEntity
  8
0
100
AcDbCircle
 10
-2.715481193209858
 20
7.030149427147978
 30
0.0
 40
0.2063360892646641
100
AcDbArc
 50
103.2520291610575
 51
168.8642457799693
  0
ARC
  5
157
330
2
100
AcDbEntity
  8
0
100
AcDbCircle
 10
-2.71456981871306
 20
6.423604814830648
 30
0.0
 40
0.2079666921198121
100
AcDbArc
 50
192.0785693394348
 51
256.5957645223058
  0
LINE
  5
158
330
2
100
AcDbEntity
  8
0
100
AcDbLine
 10
-2.606530618474203
 20
8.026147209151198
 30
0.0
 11
-2.606530618474203
 21
7.426147209151196
 31
0.0
  0
LINE
  5
159
330
2
100
AcDbEntity
  8
0
100
AcDbLine
 10
-2.917932455434624
 20
6.380087197514094
 30
0.0
 11
-2.917932455434624
 21
7.07
 31
0.0
  0
CIRCLE
  5
15A
330
2
100
AcDbEntity
  8
0
100
AcDbCircle
 10
-2.605432455434624
 20
6.32
 30
0.0
 40
0.0855
  0
ARC
  5
15B
330
2
100
AcDbEntity
  8
0
100
AcDbCircle
 10
-2.806530618474202
 20
7.426147209151196
 30
0.0
 40
0.2
100
AcDbArc
 50
282.6356250930186
 51
0.0000000000000254
  0
ARC
  5
15C
330
2
100
AcDbEntity
  8
0
100
AcDbCircle
 10
-2.806530618474199
 20
8.026147209151198
 30
0.0
 40
0.2
100
AcDbArc
 50
0.0000000000000254
 51
77.36437490698125
  0
CIRCLE
  5
15D
330
2
100
AcDbEntity
  8
0
100
AcDbCircle
 10
-2.605432455434624
 20
8.32
 30
0.0
 40
0.0855
  0
ARC
  5
15F
330
2
100
AcDbEntity
  8
0
100
AcDbCircle
 10
-2.664556034143977
 20
9.037636766068296
 30
0.0
 40
0.2534989571255042
100
AcDbArc
 50
112.7974961009889
 51
178.21844762561
  0
LINE
  5
160
330
2
100
AcDbEntity
  8
0
100
AcDbLine
 10
-2.917932455434624
 20
10.08431549807086
 30
0.0
 11
-2.917932455434624
 21
10.6325
 31
0.0
  0
LINE
  5
161
330
2
100
AcDbEntity
  8
0
100
AcDbLine
 10
-2.606530618474203
 20
9.739208872686739
 30
0.0
 11
-2.606530618474203
 21
9.466488593821765
 31
0.0
  0
ARC
  5
162
330
2
100
AcDbEntity
  8
0
100
AcDbCircle
 10
-2.806530618474202
 20
9.466488593821765
 30
0.0
 40
0.2
100
AcDbArc
 50
282.6356250930186
 51
0.0000000000000254
  0
ARC
  5
163
330
2
100
AcDbEntity
  8
0
100
AcDbCircle
 10
-2.794030618474203
 20
9.739208872686739
 30
0.0
 40
0.1875
100
AcDbArc
 50
359.9999999999998
 51
50.50336447242521
  0
LINE
  5
164
330
2
100
AcDbEntity
  8
0
100
AcDbLine
 10
-2.917932455434624
 20
10.08431549807086
 30
0.0
 11
-2.674774448126648
 21
9.88389548517744
 31
0.0
  0
LINE
  5
166
330
2
100
AcDbEntity
  8
0
100
AcDbLine
 10
-1.79303435035224
 20
10.6325
 30
0.0
 11
-2.925534350352237
 21
10.6325
 31
0.0
  0
LINE
  5
167
330
2
100
AcDbEntity
  8
0
100
AcDbLine
 10
-1.785432455434627
 20
10.6325
 30
0.0
 11
-2.917932455434624
 21
10.6325
 31
0.0
  0
CIRCLE
  5
168
330
2
100
AcDbEntity
  8
0
100
AcDbCircle
 10
-2.605432455434624
 20
10.32
 30
0.0
 40
0.0855
  0
LINE
  5
169
330
2
100
AcDbEntity
  8
0
100
AcDbLine
 10
2.917932455434622
 20
8.380087197514094
 30
0.0
 11
2.91793245543462
 21
9.097106084037073
 31
0.0
  0
LINE
  5
16A
330
2
100
AcDbEntity
  8
0
100
AcDbLine
 10
2.606530618474201
 20
8.026147209151198
 30
0.0
 11
2.606530618474201
 21
7.426147209151196
 31
0.0
  0
CIRCLE
  5
16B
330
2
100
AcDbEntity
  8
0
100
AcDbCircle
 10
2.605432455434622
 20
6.32
 30
0.0
 40
0.0855
  0
LINE
  5
16C
330
2
100
AcDbEntity
  8
0
100
AcDbLine
 10
2.917932455434622
 20
6.380087197514094
 30
0.0
 11
2.917932455434622
 21
7.07
 31
0.0
  0
ARC
  5
16D
330
2
100
AcDbEntity
  8
0
100
AcDbCircle
 10
2.714569818713059
 20
6.423604814830648
 30
0.0
 40
0.2079666921198108
100
AcDbArc
 50
283.404235477694
 51
347.9214306605652
  0
ARC
  5
16E
330
2
100
AcDbEntity
  8
0
100
AcDbCircle
 10
2.715481193209787
 20
7.030149427147829
 30
0.0
 40
0.20633608926476
100
AcDbArc
 50
11.13575422006761
 51
76.74797083893327
  0
ARC
  5
16F
330
2
100
AcDbEntity
  8
0
100
AcDbCircle
 10
2.8065306184742
 20
7.426147209151196
 30
0.0
 40
0.2
100
AcDbArc
 50
180.0
 51
257.3643749069813
  0
CIRCLE
  5
170
330
2
100
AcDbEntity
  8
0
100
AcDbCircle
 10
2.605432455434622
 20
8.32
 30
0.0
 40
0.0855
  0
ARC
  5
172
330
2
100
AcDbEntity
  8
0
100
AcDbCircle
 10
2.806530618474197
 20
8.026147209151198
 30
0.0
 40
0.2
100
AcDbArc
 50
102.6356250930187
 51
180.0
  0
ARC
  5
173
330
2
100
AcDbEntity
  8
0
100
AcDbCircle
 10
2.714569818713054
 20
8.423604814830648
 30
0.0
 40
0.2079666921198128
100
AcDbArc
 50
283.4042354776952
 51
347.9214306605652
  0
LINE
  5
174
330
2
100
AcDbEntity
  8
0
100
AcDbLine
 10
2.91793245543462
 20
10.0666532325308
 30
0.0
 11
2.91793245543462
 21
10.6325
 31
0.0
  0
LINE
  5
176
330
2
100
AcDbEntity
  8
0
100
AcDbLine
 10
2.606530618474201
 20
9.75731445074706
 30
0.0
 11
2.606530618474201
 21
9.466488593821765
 31
0.0
  0
ARC
  5
177
330
2
100
AcDbEntity
  8
0
100
AcDbCircle
 10
2.719030618474316
 20
9.076176218921981
 30
0.0
 40
0.1999999999997986
100
AcDbArc
 50
6.006963088918903
 51
77.36437490700169
  0
ARC
  5
178
330
2
100
AcDbEntity
  8
0
100
AcDbCircle
 10
2.8065306184742
 20
9.466488593821765
 30
0.0
 40
0.2
100
AcDbArc
 50
180.0
 51
257.3643749069813
  0
ARC
  5
17A
330
2
100
AcDbEntity
  8
0
100
AcDbCircle
 10
2.688377476871241
 20
10.21607133156556
 30
0.0
 40
0.2739000848893526
100
AcDbArc
 50
285.7620802590197
 51
326.9397630925823
  0
ARC
  5
17B
330
2
100
AcDbEntity
  8
0
100
AcDbCircle
 10
2.806530618474197
 20
9.757314254469861
 30
0.0
 40
0.2
100
AcDbArc
 50
102.6356250930187
 51
180.0
  0
LINE
  5
17C
330
2
100
AcDbEntity
  8
0
100
AcDbLine
 10
1.785432455434624
 20
10.6325
 30
0.0
 11
2.917932455434622
 21
10.6325
 31
0.0
  0
CIRCLE
  5
17D
330
2
100
AcDbEntity
  8
0
100
AcDbCircle
 10
2.605432455434622
 20
10.32
 30
0.0
 40
0.0855
  0
LINE
  5
17E
330
2
100
AcDbEntity
  8
0
100
AcDbLine
 10
-1.76613344676111
 20
18.8197346197024
 30
0.0
 11
-0.6997647634642661
 21
18.81881952668265
 31
0.0
  0
LINE
  5
17F
330
2
100
AcDbEntity
  8
0
100
AcDbLine
 10
-1.76613344676111
 20
16.8197346197024
 30
0.0
 11
-0.6985065914078348
 21
16.81916701858687
 31
0.0
  0
LINE
  5
180
330
2
100
AcDbEntity
  8
0
100
AcDbLine
 10
-1.83613344676111
 20
18.6797346197024
 30
0.0
 11
-1.83613344676111
 21
16.8197346197024
 31
0.0
  0
LINE
  5
181
330
2
100
AcDbEntity
  8
0
100
AcDbLine
 10
-1.76613344676111
 20
18.8197346197024
 30
0.0
 11
-1.76613344676111
 21
16.8197346197024
 31
0.0
  0
LINE
  5
182
330
2
100
AcDbEntity
  8
0
100
AcDbLine
 10
-1.83613344676111
 20
16.8197346197024
 30
0.0
 11
-1.670380389280524
 21
16.8197346197024
 31
0.0
  0
LINE
  5
183
330
2
100
AcDbEntity
  8
0
100
AcDbLine
 10
-1.90613344676111
 20
19.07662151338743
 30
0.0
 11
-3.595365445128394
 21
19.07662151338743
 31
0.0
  0
LINE
  5
184
330
2
100
AcDbEntity
  8
0
100
AcDbLine
 10
-1.906133446761114
 20
19.00662151338743
 30
0.0
 11
-3.595365445128394
 21
19.00662151338743
 31
0.0
  0
LINE
  5
185
330
2
100
AcDbEntity
  8
0
100
AcDbLine
 10
-3.595365445128394
 20
19.07662151338743
 30
0.0
 11
-3.595365445128394
 21
19.00662151338743
 31
0.0
  0
LINE
  5
186
330
2
100
AcDbEntity
  8
0
100
AcDbLine
 10
-1.852974348343459
 20
18.05205228085897
 30
0.0
 11
-1.955079256076147
 21
17.94994737312627
 31
0.0
  0
ARC
  5
187
330
2
100
AcDbEntity
  8
0
100
AcDbCircle
 10
-1.895400755214652
 20
18.09447868773017
 30
0.0
 40
0.06
100
AcDbArc
 50
315.0
 51
359.9999999999999
  0
LINE
  5
188
330
2
100
AcDbEntity
  8
0
100
AcDbLine
 10
-1.955079256076147
 20
17.94994737312627
 30
0.0
 11
-1.83540075521465
 21
17.88218620122434
 31
0.0
  0
ARC
  5
189
330
2
100
AcDbEntity
  8
0
100
AcDbCircle
 10
-1.90613344676111
 20
18.93662151338743
 30
0.0
 40
0.14
100
AcDbArc
 50
0.0000000000000254
 51
90.00000000000003
  0
LINE
  5
18A
330
2
100
AcDbEntity
  8
0
100
AcDbLine
 10
-1.836133446761114
 20
18.93662151338743
 30
0.0
 11
-1.836133446761114
 21
18.6723824821063
 31
0.0
  0
ARC
  5
18B
330
2
100
AcDbEntity
  8
0
100
AcDbCircle
 10
-1.906133446761114
 20
18.93662151338743
 30
0.0
 40
0.07
100
AcDbArc
 50
0.0000000000000254
 51
90.00000000000003
  0
LINE
  5
18C
330
2
100
AcDbEntity
  8
0
100
AcDbLine
 10
-1.76613344676111
 20
18.8197346197024
 30
0.0
 11
-1.76613344676111
 21
18.93662151338743
 31
0.0
  0
LINE
  5
18D
330
2
100
AcDbEntity
  8
0
100
AcDbLine
 10
1.865866553238895
 20
18.93662151338743
 30
0.0
 11
1.865866553238892
 21
16.8197346197024
 31
0.0
  0
LINE
  5
18E
330
2
100
AcDbEntity
  8
0
100
AcDbLine
 10
1.795866553238891
 20
18.8197346197024
 30
0.0
 11
1.795866553238891
 21
16.8197346197024
 31
0.0
  0
LINE
  5
18F
330
2
100
AcDbEntity
  8
0
100
AcDbLine
 10
0.7221396329365675
 20
16.81950777694762
 30
0.0
 11
1.769059666998828
 21
16.8197346197024
 31
0.0
  0
LINE
  5
190
330
2
100
AcDbEntity
  8
0
100
AcDbLine
 10
0.7840308009403998
 20
16.8197346197024
 30
0.0
 11
1.795866553238891
 21
16.8197346197024
 31
0.0
  0
LINE
  5
191
330
2
100
AcDbEntity
  8
0
100
AcDbLine
 10
-0.5266021950071043
 20
16.81949851915446
 30
0.0
 11
0.5502352365357339
 21
16.81917627638004
 31
0.0
  0
ARC
  5
192
330
2
100
AcDbEntity
  8
0
100
AcDbCircle
 10
-0.6121015188647618
 20
16.81915848991534
 30
0.0
 40
0.0855
100
AcDbArc
 50
0.2278630604534111
 51
89.76337813599629
  0
ARC
  5
193
330
2
100
AcDbEntity
  8
0
100
AcDbCircle
 10
-0.6130065914078351
 20
16.81916701858687
 30
0.0
 40
0.0855
100
AcDbArc
 50
89.15683566431996
 51
180.0000000000001
  0
ARC
  5
194
330
2
100
AcDbEntity
  8
0
100
AcDbCircle
 10
0.6357352365357336
 20
16.81917627638004
 30
0.0
 40
0.0855
100
AcDbArc
 50
89.15683566431996
 51
180.0000000000001
  0
ARC
  5
195
330
2
100
AcDbEntity
  8
0
100
AcDbCircle
 10
0.6366403090789099
 20
16.8191677477085
 30
0.0
 40
0.0855
100
AcDbArc
 50
0.2278630604534111
 51
89.76337813599629
  0
LINE
  5
196
330
2
100
AcDbEntity
  8
0
100
AcDbLine
 10
1.865866553238892
 20
16.8197346197024
 30
0.0
 11
1.769059666998828
 21
16.8197346197024
 31
0.0
  0
LINE
  5
197
330
2
100
AcDbEntity
  8
0
100
AcDbLine
 10
0.7771763773453522
 20
18.8197346197024
 30
0.0
 11
1.795866553238891
 21
18.8197346197024
 31
0.0
  0
LINE
  5
198
330
2
100
AcDbEntity
  8
0
100
AcDbLine
 10
-0.5278603670634325
 20
18.81848802611506
 30
0.0
 11
0.5010410268019712
 21
18.8197346197024
 31
0.0
  0
ARC
  5
199
330
2
100
AcDbEntity
  8
0
100
AcDbCircle
 10
-0.6133596909210901
 20
18.81882805535419
 30
0.0
 40
0.0855
100
AcDbArc
 50
270.2366218640037
 51
359.7721369395466
  0
LINE
  5
19A
330
2
100
AcDbEntity
  8
0
100
AcDbLine
 10
-0.6714155561081938
 20
18.73332878447581
 30
0.0
 11
-0.5545976267074764
 21
18.73332878447581
 31
0.0
  0
ARC
  5
19B
330
2
100
AcDbEntity
  8
0
100
AcDbCircle
 10
-0.6142647634642664
 20
18.81881952668265
 30
0.0
 40
0.0855
100
AcDbArc
 50
180.0
 51
270.8431643356801
  0
ARC
  5
19C
330
2
100
AcDbEntity
  8
0
100
AcDbCircle
 10
0.5785844438918062
 20
18.81882878447581
 30
0.0
 40
0.0855
100
AcDbArc
 50
180.0
 51
270.8431643356801
  0
ARC
  5
19D
330
2
100
AcDbEntity
  8
0
100
AcDbCircle
 10
0.6921720348954672
 20
18.81882878447581
 30
0.0
 40
0.0855
100
AcDbArc
 50
270.2366218640037
 51
359.7721369395466
  0
LINE
  5
19E
330
2
100
AcDbEntity
  8
0
100
AcDbLine
 10
0.5785844438918062
 20
18.73332878447581
 30
0.0
 11
0.6954023732925236
 21
18.73332878447581
 31
0.0
  0
LINE
  5
19F
330
2
100
AcDbEntity
  8
0
100
AcDbLine
 10
1.935866553238895
 20
19.00662151338743
 30
0.0
 11
3.625098551606174
 21
19.00662151338743
 31
0.0
  0
LINE
  5
1A0
330
2
100
AcDbEntity
  8
0
100
AcDbLine
 10
1.935866553238892
 20
19.07662151338743
 30
0.0
 11
3.625098551606174
 21
19.07662151338743
 31
0.0
  0
ARC
  5
1A1
330
2
100
AcDbEntity
  8
0
100
AcDbCircle
 10
1.922521538377225
 20
18.08700164297209
 30
0.0
 40
0.06
100
AcDbArc
 50
179.7755834051965
 51
224.7755834051964
  0
LINE
  5
1A2
330
2
100
AcDbEntity
  8
0
100
AcDbLine
 10
1.981633481433221
 20
17.94223768836201
 30
0.0
 11
1.86169049173396
 21
17.8749457928026
 31
0.0
  0
LINE
  5
1A3
330
2
100
AcDbEntity
  8
0
100
AcDbLine
 10
1.879929281260488
 20
18.0447417372256
 30
0.0
 11
1.981633481433221
 21
17.94223768836201
 31
0.0
  0
ARC
  5
1A4
330
2
100
AcDbEntity
  8
0
100
AcDbCircle
 10
1.935866553238892
 20
18.93662151338743
 30
0.0
 40
0.14
100
AcDbArc
 50
90.0
 51
180.0
  0
ARC
  5
1A5
330
2
100
AcDbEntity
  8
0
100
AcDbCircle
 10
1.935866553238895
 20
18.93662151338743
 30
0.0
 40
0.07
100
AcDbArc
 50
90.0
 51
180.0
  0
LINE
  5
1A6
330
2
100
AcDbEntity
  8
0
100
AcDbLine
 10
1.795866553238891
 20
18.8197346197024
 30
0.0
 11
1.795866553238891
 21
18.93662151338743
 31
0.0
  0
LINE
  5
1A7
330
2
100
AcDbEntity
  8
0
100
AcDbLine
 10
3.625098551606174
 20
19.07662151338743
 30
0.0
 11
3.625098551606174
 21
19.00662151338743
 31
0.0
  0
LINE
  5
1A8
330
2
100
AcDbEntity
  8
0
100
AcDbLine
 10
8.477915513141486
 20
-0.0075588386027761
 30
0.0
 11
6.477915513141483
 21
-0.0075588386027761
 31
0.0
  0
LINE
  5
1A9
330
2
100
AcDbEntity
  8
0
100
AcDbLine
 10
8.477915513141475
 20
-0.0075588386027761
 30
0.0
 11
6.477915513141475
 21
-0.0075588386027761
 31
0.0
  0
LINE
  5
1AA
330
2
100
AcDbEntity
  8
0
100
AcDbLine
 10
6.512840487290212
 20
0.6318531975975077
 30
0.0
 11
7.698841781070939
 21
2.292255008890518
 31
0.0
  0
LINE
  5
1AB
330
2
100
AcDbEntity
  8
0
100
AcDbLine
 10
8.477915513141475
 20
0.0624411613972242
 30
0.0
 11
6.477915513141475
 21
0.0624411613972242
 31
0.0
  0
LINE
  5
1AC
330
2
100
AcDbEntity
  8
0
100
AcDbLine
 10
6.477915513141483
 20
-0.0075588386027761
 30
0.0
 11
6.477915513141475
 21
0.5829582337892774
 31
0.0
  0
LINE
  5
1AD
330
2
100
AcDbEntity
  8
0
100
AcDbLine
 10
6.477915513141475
 20
0.0624411613972242
 30
0.0
 11
6.477915513141475
 21
0.522871036275177
 31
0.0
  0
ARC
  5
1AE
330
2
100
AcDbEntity
  8
0
100
AcDbCircle
 10
6.665415513141475
 20
0.522871036275177
 30
0.0
 40
0.1875
100
AcDbArc
 50
144.4623222080256
 51
180.0000000000001
  0
ARC
  5
1AF
330
2
100
AcDbEntity
  8
0
100
AcDbCircle
 10
7.632058337187871
 20
6.030078753830509
 30
0.0
 40
0.2
100
AcDbArc
 50
102.6356250930187
 51
180.0000000000001
  0
LINE
  5
1B0
330
2
100
AcDbEntity
  8
0
100
AcDbLine
 10
8.735415513141483
 20
0.9866495771775306
 30
0.0
 11
8.735415513141476
 21
10.65364997269876
 31
0.0
  0
LINE
  5
1B1
330
2
100
AcDbEntity
  8
0
100
AcDbLine
 10
8.665415513141475
 20
0.9137371702128583
 30
0.0
 11
8.665415513141483
 21
10.65364997269876
 31
0.0
  0
LINE
  5
1B2
330
2
100
AcDbEntity
  8
0
100
AcDbLine
 10
8.512840487290212
 20
0.6400449365069889
 30
0.0
 11
8.630490538992738
 21
0.8047550088905275
 31
0.0
  0
LINE
  5
1B3
330
2
100
AcDbEntity
  8
0
100
AcDbLine
 10
8.477915513141475
 20
-0.0075588386027761
 30
0.0
 11
8.477915513141475
 21
0.5280664087769864
 31
0.0
  0
LINE
  5
1B4
330
2
100
AcDbEntity
  8
0
100
AcDbLine
 10
8.477915513141475
 20
0.0624411613972242
 30
0.0
 11
8.477915513141475
 21
0.5310627751846582
 31
0.0
  0
ARC
  5
1B5
330
2
100
AcDbEntity
  8
0
100
AcDbCircle
 10
8.665415513141475
 20
0.5310627751846582
 30
0.0
 40
0.1875
100
AcDbArc
 50
144.4623222080256
 51
180.0000000000001
  0
ARC
  5
1B6
330
2
100
AcDbEntity
  8
0
100
AcDbCircle
 10
7.63277578308049
 20
3.430078753830507
 30
0.0
 40
0.2
100
AcDbArc
 50
180.0000000000001
 51
257.3643749069813
  0
ARC
  5
1B8
330
2
100
AcDbEntity
  8
0
100
AcDbCircle
 10
8.547915513141483
 20
0.9866495771775306
 30
0.0
 40
0.1875
100
AcDbArc
 50
317.5012503477052
 51
0.0
  0
LINE
  5
1B9
330
2
100
AcDbEntity
  8
0
100
AcDbLine
 10
8.686157778108921
 20
0.8599794300367307
 30
0.0
 11
8.627716687000302
 21
0.7961993762167623
 31
0.0
  0
ARC
  5
1BA
330
2
100
AcDbEntity
  8
0
100
AcDbCircle
 10
8.477915513141475
 20
0.9137371702128583
 30
0.0
 40
0.1875
100
AcDbArc
 50
324.4623222080258
 51
0.0000000000000254
  0
LINE
  5
1BB
330
2
100
AcDbEntity
  8
0
100
AcDbLine
 10
7.733766755219676
 20
2.401237170212848
 30
0.0
 11
7.733766755219676
 21
3.091149972698759
 31
0.0
  0
ARC
  5
1BC
330
2
100
AcDbEntity
  8
0
100
AcDbCircle
 10
7.546266755219676
 20
2.401237170212848
 30
0.0
 40
0.1875
100
AcDbArc
 50
324.4623222080256
 51
0.0000000000000254
  0
ARC
  5
1BD
330
2
100
AcDbEntity
  8
0
100
AcDbCircle
 10
7.555976243503254
 20
3.056906188664574
 30
0.0
 40
0.1810582856468244
100
AcDbArc
 50
10.90209062768146
 51
79.48252761424762
  0
LINE
  5
1BE
330
2
100
AcDbEntity
  8
0
100
AcDbLine
 10
7.733766755219676
 20
4.401237170212852
 30
0.0
 11
7.733766755219676
 21
5.091149972698759
 31
0.0
  0
ARC
  5
1BF
330
2
100
AcDbEntity
  8
0
100
AcDbCircle
 10
7.632058337187871
 20
4.030078753830509
 30
0.0
 40
0.2
100
AcDbArc
 50
102.6356250930187
 51
180.0000000000001
  0
LINE
  5
1C1
330
2
100
AcDbEntity
  8
0
100
AcDbLine
 10
7.432058337187868
 20
3.430078753830507
 30
0.0
 11
7.432058337187868
 21
4.030078753830509
 31
0.0
  0
ARC
  5
1C2
330
2
100
AcDbEntity
  8
0
100
AcDbCircle
 10
7.540226788991424
 20
4.413081050505691
 30
0.0
 40
0.1939020268796215
100
AcDbArc
 50
284.3573167815786
 51
356.4980920944897
  0
ARC
  5
1C3
330
2
100
AcDbEntity
  8
0
100
AcDbCircle
 10
8.697858805279218
 20
4.1325
 30
0.0
 40
0.25
100
AcDbArc
 50
98.82715068361172
 51
261.1728493163883
  0
LINE
  5
1C4
330
2
100
AcDbEntity
  8
0
100
AcDbLine
 10
7.432058337187868
 20
5.430078753830507
 30
0.0
 11
7.432058337187868
 21
6.030078753830509
 31
0.0
  0
ARC
  5
1C5
330
2
100
AcDbEntity
  8
0
100
AcDbCircle
 10
7.555976243503254
 20
5.056906188664573
 30
0.0
 40
0.1810582856468246
100
AcDbArc
 50
10.9020906276816
 51
79.48252761424763
  0
ARC
  5
1C6
330
2
100
AcDbEntity
  8
0
100
AcDbCircle
 10
7.63277578308049
 20
5.430078753830507
 30
0.0
 40
0.2
100
AcDbArc
 50
180.0000000000001
 51
257.3643749069813
  0
LINE
  5
1C8
330
2
100
AcDbEntity
  8
0
100
AcDbLine
 10
7.733766755219676
 20
8.401237170212852
 30
0.0
 11
7.733766755219676
 21
9.091149972698759
 31
0.0
  0
LINE
  5
1C9
330
2
100
AcDbEntity
  8
0
100
AcDbLine
 10
7.432058337187868
 20
7.430078753830507
 30
0.0
 11
7.432058337187868
 21
8.030078753830509
 31
0.0
  0
LINE
  5
1CA
330
2
100
AcDbEntity
  8
0
100
AcDbLine
 10
7.733766755219676
 20
6.401237170212852
 30
0.0
 11
7.733766755219676
 21
7.091149972698759
 31
0.0
  0
ARC
  5
1CB
330
2
100
AcDbEntity
  8
0
100
AcDbCircle
 10
7.540486217345254
 20
6.412866643914534
 30
0.0
 40
0.1936300880018495
100
AcDbArc
 50
284.2986806058951
 51
356.5567282701746
  0
ARC
  5
1CC
330
2
100
AcDbEntity
  8
0
100
AcDbCircle
 10
7.555976243503254
 20
7.056906188664573
 30
0.0
 40
0.1810582856468246
100
AcDbArc
 50
10.9020906276816
 51
79.48252761424763
  0
ARC
  5
1CD
330
2
100
AcDbEntity
  8
0
100
AcDbCircle
 10
7.63277578308049
 20
7.430078753830507
 30
0.0
 40
0.2
100
AcDbArc
 50
180.0000000000001
 51
257.3643749069813
  0
ARC
  5
1CE
330
2
100
AcDbEntity
  8
0
100
AcDbCircle
 10
7.632058337187871
 20
8.030078753830509
 30
0.0
 40
0.2
100
AcDbArc
 50
102.6356250930187
 51
180.0000000000001
  0
ARC
  5
1D0
330
2
100
AcDbEntity
  8
0
100
AcDbCircle
 10
7.540486217345245
 20
8.412866643914546
 30
0.0
 40
0.1936300880018629
100
AcDbArc
 50
284.2986806058968
 51
356.5567282701713
  0
LINE
  5
1D1
330
2
100
AcDbEntity
  8
0
100
AcDbLine
 10
7.733766755219676
 20
10.65364997269876
 30
0.0
 11
7.733766755219676
 21
10.07735970125511
 31
0.0
  0
LINE
  5
1D2
330
2
100
AcDbEntity
  8
0
100
AcDbLine
 10
7.426805063812346
 20
9.75731445074706
 30
0.0
 11
7.426805063812346
 21
9.466488593821765
 31
0.0
  0
ARC
  5
1D3
330
2
100
AcDbEntity
  8
0
100
AcDbCircle
 10
7.546413177701256
 20
9.087561871016224
 30
0.0
 40
0.1873879331297376
100
AcDbArc
 50
1.097165885734239
 51
78.72371390604866
  0
ARC
  5
1D4
330
2
100
AcDbEntity
  8
0
100
AcDbCircle
 10
7.626805063812341
 20
9.466488593821765
 30
0.0
 40
0.2
100
AcDbArc
 50
180.0
 51
257.3643749069813
  0
ARC
  5
1D7
330
2
100
AcDbEntity
  8
0
100
AcDbCircle
 10
7.626805063812341
 20
9.757314254469861
 30
0.0
 40
0.2
100
AcDbArc
 50
102.6356250930187
 51
180.0
  0
ARC
  5
1D8
330
2
100
AcDbEntity
  8
0
100
AcDbCircle
 10
7.547019010466763
 20
10.14933865295978
 30
0.0
 40
0.2001391757223059
100
AcDbArc
 50
280.3729616867897
 51
338.9216354754495
  0
LINE
  5
1D9
330
2
100
AcDbEntity
  8
0
100
AcDbLine
 10
7.733766755219676
 20
10.65364997269876
 30
0.0
 11
8.735415513141476
 21
10.65364997269876
 31
0.0
  0
LWPOLYLINE
  5
1DA
330
2
100
AcDbEntity
  8
0
100
AcDbPolyline
 90
        9
 70
     0
 43
0.0
 10
-1.855432455434619
 20
1.265928661397222
 42
-0.1432467981947568
 10
-1.880657106290076
 20
1.273306758268472
 42
-0.1071754848060475
 10
-1.905343272260661
 20
1.297857683413124
 42
-0.0783035184710328
 10
-1.920289939883022
 20
1.331478937763922
 42
-0.0656020556757086
 10
-1.926017009499129
 20
1.374941161397228
 42
-0.0656020556757101
 10
-1.920289939883022
 20
1.418403385030526
 42
-0.0783035184710357
 10
-1.905343272260661
 20
1.452024639381325
 42
-0.1071754848060445
 10
-1.880657106290076
 20
1.476575564525977
 42
-0.1432467981947535
 10
-1.855432455434619
 20
1.483953661397226
 42
-0.1432467981947515
  0
LINE
  5
1DB
330
2
100
AcDbEntity
  8
0
100
AcDbLine
 10
-1.855432455434619
 20
1.236603661397222
 30
0.0
 11
-1.855432455434619
 21
1.513278661397226
 31
0.0
  0
LWPOLYLINE
  5
1DC
330
2
100
AcDbEntity
  8
0
100
AcDbPolyline
 90
        9
 70
     0
 43
0.0
 10
-1.855432455434619
 20
1.295253661397222
 42
-0.147269582437036
 10
-1.87312887859716
 20
1.300581503085017
 42
-0.1071386913803464
 10
-1.890680772260661
 20
1.318593589771421
 42
-0.0765137470862007
 10
-1.90122268630743
 20
1.343098327805581
 42
-0.063469041210727
 10
-1.905281103140832
 20
1.374941161397228
 42
-0.0634690412107267
 10
-1.90122268630743
 20
1.406783994988867
 42
-0.0765137470862059
 10
-1.890680772260661
 20
1.431288733023028
 42
-0.1071386913803463
 10
-1.87312887859716
 20
1.449300819709432
 42
-0.1472695824370325
 10
-1.855432455434619
 20
1.454628661397226
 42
-0.1472695824370333
  0
LWPOLYLINE
  5
1DD
330
2
100
AcDbEntity
  8
0
100
AcDbPolyline
 90
        9
 70
     0
 43
0.0
 10
-1.855432455434626
 20
3.578428661397222
 42
-0.1432467981947568
 10
-1.880657106290083
 20
3.585806758268472
 42
-0.1071754848060475
 10
-1.905343272260669
 20
3.610357683413124
 42
-0.0783035184710328
 10
-1.92028993988303
 20
3.643978937763922
 42
-0.0656020556757086
 10
-1.926017009499137
 20
3.687441161397228
 42
-0.0656020556757101
 10
-1.92028993988303
 20
3.730903385030526
 42
-0.0783035184710357
 10
-1.905343272260669
 20
3.764524639381325
 42
-0.1071754848060445
 10
-1.880657106290083
 20
3.789075564525977
 42
-0.1432467981947535
 10
-1.855432455434626
 20
3.796453661397226
 42
-0.1432467981947515
  0
LINE
  5
1DE
330
2
100
AcDbEntity
  8
0
100
AcDbLine
 10
-1.855432455434626
 20
3.549103661397222
 30
0.0
 11
-1.855432455434626
 21
3.825778661397226
 31
0.0
  0
LWPOLYLINE
  5
1DF
330
2
100
AcDbEntity
  8
0
100
AcDbPolyline
 90
        9
 70
     0
 43
0.0
 10
-1.855432455434626
 20
3.607753661397222
 42
-0.147269582437036
 10
-1.873128878597167
 20
3.613081503085017
 42
-0.1071386913803464
 10
-1.890680772260668
 20
3.631093589771421
 42
-0.0765137470862007
 10
-1.901222686307437
 20
3.655598327805581
 42
-0.063469041210727
 10
-1.905281103140839
 20
3.687441161397228
 42
-0.0634690412107267
 10
-1.901222686307437
 20
3.719283994988867
 42
-0.0765137470862059
 10
-1.890680772260668
 20
3.743788733023028
 42
-0.1071386913803463
 10
-1.873128878597167
 20
3.761800819709432
 42
-0.1472695824370325
 10
-1.855432455434626
 20
3.767128661397226
 42
-0.1472695824370333
  0
LWPOLYLINE
  5
1E0
330
2
100
AcDbEntity
  8
0
100
AcDbPolyline
 90
        9
 70
     0
 43
0.0
 10
-1.855432455434626
 20
5.578428661397222
 42
-0.1432467981947568
 10
-1.880657106290083
 20
5.585806758268472
 42
-0.1071754848060475
 10
-1.905343272260669
 20
5.610357683413124
 42
-0.0783035184710328
 10
-1.92028993988303
 20
5.643978937763922
 42
-0.0656020556757086
 10
-1.926017009499137
 20
5.687441161397228
 42
-0.0656020556757101
 10
-1.92028993988303
 20
5.730903385030526
 42
-0.0783035184710357
 10
-1.905343272260669
 20
5.764524639381325
 42
-0.1071754848060445
 10
-1.880657106290083
 20
5.789075564525977
 42
-0.1432467981947535
 10
-1.855432455434626
 20
5.796453661397226
 42
-0.1432467981947515
  0
LINE
  5
1E1
330
2
100
AcDbEntity
  8
0
100
AcDbLine
 10
-1.855432455434626
 20
5.549103661397222
 30
0.0
 11
-1.855432455434626
 21
5.825778661397226
 31
0.0
  0
LWPOLYLINE
  5
1E2
330
2
100
AcDbEntity
  8
0
100
AcDbPolyline
 90
        9
 70
     0
 43
0.0
 10
-1.855432455434626
 20
5.607753661397222
 42
-0.147269582437036
 10
-1.873128878597167
 20
5.613081503085017
 42
-0.1071386913803464
 10
-1.890680772260668
 20
5.631093589771421
 42
-0.0765137470862007
 10
-1.901222686307437
 20
5.655598327805581
 42
-0.063469041210727
 10
-1.905281103140839
 20
5.687441161397228
 42
-0.0634690412107267
 10
-1.901222686307437
 20
5.719283994988867
 42
-0.0765137470862059
 10
-1.890680772260668
 20
5.743788733023028
 42
-0.1071386913803463
 10
-1.873128878597167
 20
5.761800819709432
 42
-0.1472695824370325
 10
-1.855432455434626
 20
5.767128661397226
 42
-0.1472695824370333
  0
LWPOLYLINE
  5
1E3
330
2
100
AcDbEntity
  8
0
100
AcDbPolyline
 90
        9
 70
     0
 43
0.0
 10
1.85543245543462
 20
0.7557919966590951
 42
0.1432467981947568
 10
1.880657106290077
 20
0.7631700935303449
 42
0.1071754848060475
 10
1.905343272260662
 20
0.787721018674997
 42
0.0783035184710328
 10
1.920289939883023
 20
0.8213422730257953
 42
0.0656020556757086
 10
1.92601700949913
 20
0.8648044966591009
 42
0.0656020556757101
 10
1.920289939883023
 20
0.9082667202923993
 42
0.0783035184710357
 10
1.905343272260662
 20
0.9418879746431976
 42
0.1071754848060445
 10
1.880657106290077
 20
0.9664388997878497
 42
0.1432467981947535
 10
1.85543245543462
 20
0.9738169966590995
 42
0.1432467981947515
  0
LINE
  5
1E4
330
2
100
AcDbEntity
  8
0
100
AcDbLine
 10
1.85543245543462
 20
0.7264669966590951
 30
0.0
 11
1.85543245543462
 21
1.0031419966591
 31
0.0
  0
LWPOLYLINE
  5
1E5
330
2
100
AcDbEntity
  8
0
100
AcDbPolyline
 90
        9
 70
     0
 43
0.0
 10
1.85543245543462
 20
0.7851169966590952
 42
0.147269582437036
 10
1.873128878597161
 20
0.7904448383468896
 42
0.1071386913803464
 10
1.890680772260662
 20
0.808456925033294
 42
0.0765137470862007
 10
1.901222686307431
 20
0.8329616630674543
 42
0.063469041210727
 10
1.905281103140833
 20
0.8648044966591009
 42
0.0634690412107267
 10
1.901222686307431
 20
0.8966473302507403
 42
0.0765137470862059
 10
1.890680772260662
 20
0.9211520682849006
 42
0.1071386913803463
 10
1.873128878597161
 20
0.939164154971305
 42
0.1472695824370325
 10
1.85543245543462
 20
0.9444919966590994
 42
0.1472695824370333
  0
LWPOLYLINE
  5
1E6
330
2
100
AcDbEntity
  8
0
100
AcDbPolyline
 90
        9
 70
     0
 43
0.0
 10
1.85543245543462
 20
3.697851133473151
 42
0.1432467981947568
 10
1.880657106290077
 20
3.705229230344401
 42
0.1071754848060475
 10
1.905343272260662
 20
3.729780155489053
 42
0.0783035184710328
 10
1.920289939883023
 20
3.763401409839851
 42
0.0656020556757086
 10
1.92601700949913
 20
3.806863633473157
 42
0.0656020556757101
 10
1.920289939883023
 20
3.850325857106455
 42
0.0783035184710357
 10
1.905343272260662
 20
3.883947111457253
 42
0.1071754848060445
 10
1.880657106290077
 20
3.908498036601905
 42
0.1432467981947535
 10
1.85543245543462
 20
3.915876133473155
 42
0.1432467981947515
  0
LINE
  5
1E7
330
2
100
AcDbEntity
  8
0
100
AcDbLine
 10
1.85543245543462
 20
3.668526133473151
 30
0.0
 11
1.85543245543462
 21
3.945201133473155
 31
0.0
  0
LWPOLYLINE
  5
1E8
330
2
100
AcDbEntity
  8
0
100
AcDbPolyline
 90
        9
 70
     0
 43
0.0
 10
1.85543245543462
 20
3.727176133473151
 42
0.147269582437036
 10
1.873128878597161
 20
3.732503975160945
 42
0.1071386913803464
 10
1.890680772260662
 20
3.75051606184735
 42
0.0765137470862007
 10
1.901222686307431
 20
3.77502079988151
 42
0.063469041210727
 10
1.905281103140833
 20
3.806863633473157
 42
0.0634690412107267
 10
1.901222686307431
 20
3.838706467064796
 42
0.0765137470862059
 10
1.890680772260662
 20
3.863211205098956
 42
0.1071386913803463
 10
1.873128878597161
 20
3.881223291785361
 42
0.1472695824370325
 10
1.85543245543462
 20
3.886551133473155
 42
0.1472695824370333
  0
LWPOLYLINE
  5
1E9
330
2
100
AcDbEntity
  8
0
100
AcDbPolyline
 90
        9
 70
     0
 43
0.0
 10
1.85543245543462
 20
5.697851133473151
 42
0.1432467981947568
 10
1.880657106290077
 20
5.705229230344401
 42
0.1071754848060475
 10
1.905343272260662
 20
5.729780155489053
 42
0.0783035184710328
 10
1.920289939883023
 20
5.763401409839851
 42
0.0656020556757086
 10
1.92601700949913
 20
5.806863633473157
 42
0.0656020556757101
 10
1.920289939883023
 20
5.850325857106455
 42
0.0783035184710357
 10
1.905343272260662
 20
5.883947111457253
 42
0.1071754848060445
 10
1.880657106290077
 20
5.908498036601905
 42
0.1432467981947535
 10
1.85543245543462
 20
5.915876133473155
 42
0.1432467981947515
  0
LINE
  5
1EA
330
2
100
AcDbEntity
  8
0
100
AcDbLine
 10
1.85543245543462
 20
5.668526133473151
 30
0.0
 11
1.85543245543462
 21
5.945201133473155
 31
0.0
  0
LWPOLYLINE
  5
1EB
330
2
100
AcDbEntity
  8
0
100
AcDbPolyline
 90
        9
 70
     0
 43
0.0
 10
1.85543245543462
 20
5.727176133473151
 42
0.147269582437036
 10
1.873128878597161
 20
5.732503975160945
 42
0.1071386913803464
 10
1.890680772260662
 20
5.75051606184735
 42
0.0765137470862007
 10
1.901222686307431
 20
5.77502079988151
 42
0.063469041210727
 10
1.905281103140833
 20
5.806863633473157
 42
0.0634690412107267
 10
1.901222686307431
 20
5.838706467064796
 42
0.0765137470862059
 10
1.890680772260662
 20
5.863211205098956
 42
0.1071386913803463
 10
1.873128878597161
 20
5.881223291785361
 42
0.1472695824370325
 10
1.85543245543462
 20
5.886551133473155
 42
0.1472695824370333
  0
LWPOLYLINE
  5
1EC
330
2
100
AcDbEntity
  8
0
100
AcDbPolyline
 90
        9
 70
     0
 43
0.0
 10
-1.855432455434626
 20
7.578428661397222
 42
-0.1432467981947568
 10
-1.880657106290083
 20
7.585806758268472
 42
-0.1071754848060475
 10
-1.905343272260669
 20
7.610357683413124
 42
-0.0783035184710328
 10
-1.92028993988303
 20
7.643978937763922
 42
-0.0656020556757086
 10
-1.926017009499137
 20
7.687441161397228
 42
-0.0656020556757101
 10
-1.92028993988303
 20
7.730903385030526
 42
-0.0783035184710357
 10
-1.905343272260669
 20
7.764524639381325
 42
-0.1071754848060445
 10
-1.880657106290083
 20
7.789075564525977
 42
-0.1432467981947535
 10
-1.855432455434626
 20
7.796453661397226
 42
-0.1432467981947515
  0
LINE
  5
1ED
330
2
100
AcDbEntity
  8
0
100
AcDbLine
 10
-1.855432455434626
 20
7.549103661397222
 30
0.0
 11
-1.855432455434626
 21
7.825778661397226
 31
0.0
  0
LWPOLYLINE
  5
1EE
330
2
100
AcDbEntity
  8
0
100
AcDbPolyline
 90
        9
 70
     0
 43
0.0
 10
-1.855432455434626
 20
7.607753661397222
 42
-0.147269582437036
 10
-1.873128878597167
 20
7.613081503085017
 42
-0.1071386913803464
 10
-1.890680772260668
 20
7.631093589771421
 42
-0.0765137470862007
 10
-1.901222686307437
 20
7.655598327805581
 42
-0.063469041210727
 10
-1.905281103140839
 20
7.687441161397228
 42
-0.0634690412107267
 10
-1.901222686307437
 20
7.719283994988867
 42
-0.0765137470862059
 10
-1.890680772260668
 20
7.743788733023028
 42
-0.1071386913803463
 10
-1.873128878597167
 20
7.761800819709432
 42
-0.1472695824370325
 10
-1.855432455434626
 20
7.767128661397226
 42
-0.1472695824370333
  0
LWPOLYLINE
  5
1EF
330
2
100
AcDbEntity
  8
0
100
AcDbPolyline
 90
        9
 70
     0
 43
0.0
 10
-1.855432455434626
 20
9.578428661397222
 42
-0.1432467981947568
 10
-1.880657106290083
 20
9.585806758268472
 42
-0.1071754848060475
 10
-1.905343272260669
 20
9.610357683413124
 42
-0.0783035184710328
 10
-1.92028993988303
 20
9.643978937763922
 42
-0.0656020556757086
 10
-1.926017009499137
 20
9.687441161397228
 42
-0.0656020556757101
 10
-1.92028993988303
 20
9.730903385030526
 42
-0.0783035184710357
 10
-1.905343272260669
 20
9.764524639381325
 42
-0.1071754848060445
 10
-1.880657106290083
 20
9.789075564525977
 42
-0.1432467981947535
 10
-1.855432455434626
 20
9.796453661397226
 42
-0.1432467981947515
  0
LINE
  5
1F0
330
2
100
AcDbEntity
  8
0
100
AcDbLine
 10
-1.855432455434626
 20
9.549103661397222
 30
0.0
 11
-1.855432455434626
 21
9.825778661397226
 31
0.0
  0
LWPOLYLINE
  5
1F1
330
2
100
AcDbEntity
  8
0
100
AcDbPolyline
 90
        9
 70
     0
 43
0.0
 10
-1.855432455434626
 20
9.607753661397222
 42
-0.147269582437036
 10
-1.873128878597167
 20
9.613081503085017
 42
-0.1071386913803464
 10
-1.890680772260668
 20
9.631093589771421
 42
-0.0765137470862007
 10
-1.901222686307437
 20
9.655598327805581
 42
-0.063469041210727
 10
-1.905281103140839
 20
9.687441161397228
 42
-0.0634690412107267
 10
-1.901222686307437
 20
9.719283994988867
 42
-0.0765137470862059
 10
-1.890680772260668
 20
9.743788733023028
 42
-0.1071386913803463
 10
-1.873128878597167
 20
9.761800819709432
 42
-0.1472695824370325
 10
-1.855432455434626
 20
9.767128661397226
 42
-0.1472695824370333
  0
LWPOLYLINE
  5
1F2
330
2
100
AcDbEntity
  8
0
100
AcDbPolyline
 90
        9
 70
     0
 43
0.0
 10
1.85543245543462
 20
7.697851133473151
 42
0.1432467981947568
 10
1.880657106290077
 20
7.705229230344401
 42
0.1071754848060475
 10
1.905343272260662
 20
7.729780155489053
 42
0.0783035184710328
 10
1.920289939883023
 20
7.763401409839851
 42
0.0656020556757086
 10
1.92601700949913
 20
7.806863633473157
 42
0.0656020556757101
 10
1.920289939883023
 20
7.850325857106455
 42
0.0783035184710357
 10
1.905343272260662
 20
7.883947111457253
 42
0.1071754848060445
 10
1.880657106290077
 20
7.908498036601905
 42
0.1432467981947535
 10
1.85543245543462
 20
7.915876133473155
 42
0.1432467981947515
  0
LINE
  5
1F3
330
2
100
AcDbEntity
  8
0
100
AcDbLine
 10
1.85543245543462
 20
7.668526133473151
 30
0.0
 11
1.85543245543462
 21
7.945201133473155
 31
0.0
  0
LWPOLYLINE
  5
1F4
330
2
100
AcDbEntity
  8
0
100
AcDbPolyline
 90
        9
 70
     0
 43
0.0
 10
1.85543245543462
 20
7.727176133473151
 42
0.147269582437036
 10
1.873128878597161
 20
7.732503975160945
 42
0.1071386913803464
 10
1.890680772260662
 20
7.75051606184735
 42
0.0765137470862007
 10
1.901222686307431
 20
7.77502079988151
 42
0.063469041210727
 10
1.905281103140833
 20
7.806863633473157
 42
0.0634690412107267
 10
1.901222686307431
 20
7.838706467064796
 42
0.0765137470862059
 10
1.890680772260662
 20
7.863211205098956
 42
0.1071386913803463
 10
1.873128878597161
 20
7.881223291785361
 42
0.1472695824370325
 10
1.85543245543462
 20
7.886551133473155
 42
0.1472695824370333
  0
LWPOLYLINE
  5
1F5
330
2
100
AcDbEntity
  8
0
100
AcDbPolyline
 90
        9
 70
     0
 43
0.0
 10
1.85543245543462
 20
9.697851133473151
 42
0.1432467981947568
 10
1.880657106290077
 20
9.705229230344401
 42
0.1071754848060475
 10
1.905343272260662
 20
9.729780155489053
 42
0.0783035184710328
 10
1.920289939883023
 20
9.763401409839851
 42
0.0656020556757086
 10
1.92601700949913
 20
9.806863633473157
 42
0.0656020556757101
 10
1.920289939883023
 20
9.850325857106455
 42
0.0783035184710357
 10
1.905343272260662
 20
9.883947111457253
 42
0.1071754848060445
 10
1.880657106290077
 20
9.908498036601905
 42
0.1432467981947535
 10
1.85543245543462
 20
9.915876133473155
 42
0.1432467981947515
  0
LINE
  5
1F6
330
2
100
AcDbEntity
  8
0
100
AcDbLine
 10
1.85543245543462
 20
9.668526133473151
 30
0.0
 11
1.85543245543462
 21
9.945201133473155
 31
0.0
  0
LWPOLYLINE
  5
1F7
330
2
100
AcDbEntity
  8
0
100
AcDbPolyline
 90
        9
 70
     0
 43
0.0
 10
1.85543245543462
 20
9.727176133473151
 42
0.147269582437036
 10
1.873128878597161
 20
9.732503975160945
 42
0.1071386913803464
 10
1.890680772260662
 20
9.75051606184735
 42
0.0765137470862007
 10
1.901222686307431
 20
9.77502079988151
 42
0.063469041210727
 10
1.905281103140833
 20
9.806863633473157
 42
0.0634690412107267
 10
1.901222686307431
 20
9.838706467064796
 42
0.0765137470862059
 10
1.890680772260662
 20
9.863211205098956
 42
0.1071386913803463
 10
1.873128878597161
 20
9.881223291785361
 42
0.1472695824370325
 10
1.85543245543462
 20
9.886551133473155
 42
0.1472695824370333
  0
LINE
  5
1F8
330
2
100
AcDbEntity
  8
0
100
AcDbLine
 10
7.727915513141472
 20
0.7411218953813918
 30
0.0
 11
7.727915513141472
 21
1.006729895381396
 31
0.0
  0
LWPOLYLINE
  5
1F9
330
2
100
AcDbEntity
  8
0
100
AcDbPolyline
 90
        9
 70
     0
 43
0.0
 10
7.727915513141472
 20
0.7692738953813905
 42
0.1432467981947568
 10
7.75213117796271
 20
0.7763568683777908
 42
0.1071754848060475
 10
7.775829897294472
 20
0.7999257565166573
 42
0.0783035184710328
 10
7.790178698211939
 20
0.8322021606934236
 42
0.0656020556757086
 10
7.7956766850434
 20
0.8739258953813973
 42
0.0656020556757101
 10
7.790178698211939
 20
0.915649630069364
 42
0.0783035184710357
 10
7.775829897294472
 20
0.9479260342461302
 42
0.1071754848060445
 10
7.75213117796271
 20
0.9714949223849949
 42
0.1432467981947535
 10
7.727915513141472
 20
0.9785778953813953
 42
0.1432467981947515
  0
LWPOLYLINE
  5
1FB
330
2
100
AcDbEntity
  8
0
100
AcDbPolyline
 90
        9
 70
     0
 43
0.0
 10
7.727915513141472
 20
0.7974258953813909
 42
0.147269582437036
 10
7.744904079377509
 20
0.8025406234016739
 42
0.1071386913803464
 10
7.761753897294472
 20
0.8198322266206226
 42
0.0765137470862007
 10
7.77187413477937
 20
0.8433567751334152
 42
0.063469041210727
 10
7.775770214939435
 20
0.8739258953813973
 42
0.0634690412107267
 10
7.77187413477937
 20
0.9044950156293705
 42
0.0765137470862059
 10
7.761753897294472
 20
0.9280195641421649
 42
0.1071386913803463
 10
7.744904079377509
 20
0.9453111673611119
 42
0.1472695824370325
 10
7.727915513141472
 20
0.9504258953813949
 42
0.1472695824370333
  0
LINE
  5
1FC
330
2
100
AcDbEntity
  8
0
100
AcDbLine
 10
7.727915513141472
 20
3.679637161397222
 30
0.0
 11
7.727915513141472
 21
3.945245161397226
 31
0.0
  0
LWPOLYLINE
  5
1FD
330
2
100
AcDbEntity
  8
0
100
AcDbPolyline
 90
        9
 70
     0
 43
0.0
 10
7.727915513141472
 20
3.707789161397221
 42
0.1432467981947568
 10
7.75213117796271
 20
3.714872134393621
 42
0.1071754848060475
 10
7.775829897294472
 20
3.738441022532488
 42
0.0783035184710328
 10
7.790178698211939
 20
3.770717426709254
 42
0.0656020556757086
 10
7.7956766850434
 20
3.812441161397228
 42
0.0656020556757101
 10
7.790178698211939
 20
3.854164896085194
 42
0.0783035184710357
 10
7.775829897294472
 20
3.886441300261961
 42
0.1071754848060445
 10
7.75213117796271
 20
3.910010188400825
 42
0.1432467981947535
 10
7.727915513141472
 20
3.917093161397226
 42
0.1432467981947515
  0
LWPOLYLINE
  5
1FF
330
2
100
AcDbEntity
  8
0
100
AcDbPolyline
 90
        9
 70
     0
 43
0.0
 10
7.727915513141472
 20
3.735941161397221
 42
0.147269582437036
 10
7.744904079377509
 20
3.741055889417504
 42
0.1071386913803464
 10
7.761753897294472
 20
3.758347492636453
 42
0.0765137470862007
 10
7.77187413477937
 20
3.781872041149246
 42
0.063469041210727
 10
7.775770214939435
 20
3.812441161397228
 42
0.0634690412107267
 10
7.77187413477937
 20
3.843010281645201
 42
0.0765137470862059
 10
7.761753897294472
 20
3.866534830157995
 42
0.1071386913803463
 10
7.744904079377509
 20
3.883826433376942
 42
0.1472695824370325
 10
7.727915513141472
 20
3.888941161397225
 42
0.1472695824370333
  0
LINE
  5
200
330
2
100
AcDbEntity
  8
0
100
AcDbLine
 10
7.727915513141472
 20
5.679637161397221
 30
0.0
 11
7.727915513141472
 21
5.945245161397224
 31
0.0
  0
LWPOLYLINE
  5
201
330
2
100
AcDbEntity
  8
0
100
AcDbPolyline
 90
        9
 70
     0
 43
0.0
 10
7.727915513141472
 20
5.707789161397223
 42
0.1432467981947568
 10
7.75213117796271
 20
5.714872134393623
 42
0.1071754848060475
 10
7.775829897294472
 20
5.738441022532488
 42
0.0783035184710328
 10
7.790178698211939
 20
5.770717426709254
 42
0.0656020556757086
 10
7.7956766850434
 20
5.812441161397228
 42
0.0656020556757101
 10
7.790178698211939
 20
5.854164896085194
 42
0.0783035184710357
 10
7.775829897294472
 20
5.886441300261961
 42
0.1071754848060445
 10
7.75213117796271
 20
5.910010188400825
 42
0.1432467981947535
 10
7.727915513141472
 20
5.917093161397226
 42
0.1432467981947515
  0
LWPOLYLINE
  5
203
330
2
100
AcDbEntity
  8
0
100
AcDbPolyline
 90
        9
 70
     0
 43
0.0
 10
7.727915513141472
 20
5.735941161397221
 42
0.147269582437036
 10
7.744904079377509
 20
5.741055889417506
 42
0.1071386913803464
 10
7.761753897294472
 20
5.758347492636453
 42
0.0765137470862007
 10
7.77187413477937
 20
5.781872041149246
 42
0.063469041210727
 10
7.775770214939435
 20
5.812441161397228
 42
0.0634690412107267
 10
7.77187413477937
 20
5.843010281645203
 42
0.0765137470862059
 10
7.761753897294472
 20
5.866534830157995
 42
0.1071386913803463
 10
7.744904079377509
 20
5.883826433376942
 42
0.1472695824370325
 10
7.727915513141472
 20
5.888941161397227
 42
0.1472695824370333
  0
LINE
  5
204
330
2
100
AcDbEntity
  8
0
100
AcDbLine
 10
7.727915513141472
 20
7.679637161397221
 30
0.0
 11
7.727915513141472
 21
7.945245161397224
 31
0.0
  0
LWPOLYLINE
  5
205
330
2
100
AcDbEntity
  8
0
100
AcDbPolyline
 90
        9
 70
     0
 43
0.0
 10
7.727915513141472
 20
7.707789161397223
 42
0.1432467981947568
 10
7.75213117796271
 20
7.714872134393623
 42
0.1071754848060475
 10
7.775829897294472
 20
7.738441022532488
 42
0.0783035184710328
 10
7.790178698211939
 20
7.770717426709254
 42
0.0656020556757086
 10
7.7956766850434
 20
7.812441161397228
 42
0.0656020556757101
 10
7.790178698211939
 20
7.854164896085194
 42
0.0783035184710357
 10
7.775829897294472
 20
7.886441300261961
 42
0.1071754848060445
 10
7.75213117796271
 20
7.910010188400825
 42
0.1432467981947535
 10
7.727915513141472
 20
7.917093161397226
 42
0.1432467981947515
  0
LWPOLYLINE
  5
207
330
2
100
AcDbEntity
  8
0
100
AcDbPolyline
 90
        9
 70
     0
 43
0.0
 10
7.727915513141472
 20
7.735941161397221
 42
0.147269582437036
 10
7.744904079377509
 20
7.741055889417506
 42
0.1071386913803464
 10
7.761753897294472
 20
7.758347492636453
 42
0.0765137470862007
 10
7.77187413477937
 20
7.781872041149246
 42
0.063469041210727
 10
7.775770214939435
 20
7.812441161397228
 42
0.0634690412107267
 10
7.77187413477937
 20
7.843010281645203
 42
0.0765137470862059
 10
7.761753897294472
 20
7.866534830157995
 42
0.1071386913803463
 10
7.744904079377509
 20
7.883826433376942
 42
0.1472695824370325
 10
7.727915513141472
 20
7.888941161397227
 42
0.1472695824370333
  0
LINE
  5
208
330
2
100
AcDbEntity
  8
0
100
AcDbLine
 10
7.727915513141472
 20
9.679637161397221
 30
0.0
 11
7.727915513141472
 21
9.945245161397224
 31
0.0
  0
LWPOLYLINE
  5
209
330
2
100
AcDbEntity
  8
0
100
AcDbPolyline
 90
        9
 70
     0
 43
0.0
 10
7.727915513141472
 20
9.707789161397223
 42
0.1432467981947568
 10
7.75213117796271
 20
9.714872134393623
 42
0.1071754848060475
 10
7.775829897294472
 20
9.738441022532488
 42
0.0783035184710328
 10
7.790178698211939
 20
9.770717426709254
 42
0.0656020556757086
 10
7.7956766850434
 20
9.812441161397228
 42
0.0656020556757101
 10
7.790178698211939
 20
9.854164896085194
 42
0.0783035184710357
 10
7.775829897294472
 20
9.886441300261961
 42
0.1071754848060445
 10
7.75213117796271
 20
9.910010188400825
 42
0.1432467981947535
 10
7.727915513141472
 20
9.917093161397226
 42
0.1432467981947515
  0
LWPOLYLINE
  5
20B
330
2
100
AcDbEntity
  8
0
100
AcDbPolyline
 90
        9
 70
     0
 43
0.0
 10
7.727915513141472
 20
9.735941161397221
 42
0.147269582437036
 10
7.744904079377509
 20
9.741055889417506
 42
0.1071386913803464
 10
7.761753897294472
 20
9.758347492636453
 42
0.0765137470862007
 10
7.77187413477937
 20
9.781872041149246
 42
0.063469041210727
 10
7.775770214939435
 20
9.812441161397228
 42
0.0634690412107267
 10
7.77187413477937
 20
9.843010281645203
 42
0.0765137470862059
 10
7.761753897294472
 20
9.866534830157995
 42
0.1071386913803463
 10
7.744904079377509
 20
9.883826433376942
 42
0.1472695824370325
 10
7.727915513141472
 20
9.888941161397227
 42
0.1472695824370333
  0
LINE
  5
21A
330
2
100
AcDbEntity
  8
0
100
AcDbLine
 10
-8.735415513141486
 20
0.9866495771775306
 30
0.0
 11
-8.735415513141479
 21
10.65364997269876
 31
0.0
  0
LINE
  5
21B
330
2
100
AcDbEntity
  8
0
100
AcDbLine
 10
-8.665415513141479
 20
0.9137371702128583
 30
0.0
 11
-8.665415513141486
 21
10.65364997269876
 31
0.0
  0
LINE
  5
21C
330
2
100
AcDbEntity
  8
0
100
AcDbLine
 10
-7.73376675521968
 20
6.401237170212852
 30
0.0
 11
-7.73376675521968
 21
7.091149972698759
 31
0.0
  0
LINE
  5
21D
330
2
100
AcDbEntity
  8
0
100
AcDbLine
 10
-6.512840487290216
 20
0.6318531975975077
 30
0.0
 11
-7.698841781070943
 21
2.292255008890518
 31
0.0
  0
LINE
  5
21E
330
2
100
AcDbEntity
  8
0
100
AcDbLine
 10
-8.47791551314149
 20
-0.0075588386027761
 30
0.0
 11
-6.477915513141486
 21
-0.0075588386027761
 31
0.0
  0
LINE
  5
21F
330
2
100
AcDbEntity
  8
0
100
AcDbLine
 10
-8.477915513141479
 20
-0.0075588386027761
 30
0.0
 11
-6.477915513141479
 21
-0.0075588386027761
 31
0.0
  0
LINE
  5
220
330
2
100
AcDbEntity
  8
0
100
AcDbLine
 10
-8.477915513141479
 20
0.0624411613972242
 30
0.0
 11
-6.477915513141479
 21
0.0624411613972242
 31
0.0
  0
LINE
  5
221
330
2
100
AcDbEntity
  8
0
100
AcDbLine
 10
-6.477915513141486
 20
-0.0075588386027761
 30
0.0
 11
-6.477915513141479
 21
0.5829582337892774
 31
0.0
  0
LINE
  5
222
330
2
100
AcDbEntity
  8
0
100
AcDbLine
 10
-6.477915513141479
 20
0.0624411613972242
 30
0.0
 11
-6.477915513141479
 21
0.522871036275177
 31
0.0
  0
ARC
  5
223
330
2
100
AcDbEntity
  8
0
100
AcDbCircle
 10
-6.665415513141479
 20
0.522871036275177
 30
0.0
 40
0.1875
100
AcDbArc
 50
359.9999999999999
 51
35.53767779197438
  0
LINE
  5
224
330
2
100
AcDbEntity
  8
0
100
AcDbLine
 10
-7.727915513141471
 20
1.251258560119519
 30
0.0
 11
-7.727915513141471
 21
1.516866560119523
 31
0.0
  0
LWPOLYLINE
  5
225
330
2
100
AcDbEntity
  8
0
100
AcDbPolyline
 90
        9
 70
     0
 43
0.0
 10
-7.727915513141471
 20
1.307562560119518
 42
-0.147269582437036
 10
-7.744904079377508
 20
1.312677288139801
 42
-0.1071386913803464
 10
-7.761753897294471
 20
1.32996889135875
 42
-0.0765137470862007
 10
-7.771874134779369
 20
1.353493439871542
 42
-0.063469041210727
 10
-7.775770214939434
 20
1.384062560119524
 42
-0.0634690412107267
 10
-7.771874134779369
 20
1.414631680367497
 42
-0.0765137470862059
 10
-7.761753897294471
 20
1.438156228880292
 42
-0.1071386913803463
 10
-7.744904079377508
 20
1.455447832099239
 42
-0.1472695824370325
 10
-7.727915513141471
 20
1.460562560119522
 42
-0.1472695824370333
  0
LWPOLYLINE
  5
226
330
2
100
AcDbEntity
  8
0
100
AcDbPolyline
 90
        9
 70
     0
 43
0.0
 10
-7.727915513141471
 20
1.279410560119517
 42
-0.1432467981947568
 10
-7.752131177962709
 20
1.286493533115918
 42
-0.1071754848060475
 10
-7.775829897294471
 20
1.310062421254784
 42
-0.0783035184710328
 10
-7.790178698211938
 20
1.342338825431551
 42
-0.0656020556757086
 10
-7.795676685043399
 20
1.384062560119524
 42
-0.0656020556757101
 10
-7.790178698211938
 20
1.425786294807491
 42
-0.0783035184710357
 10
-7.775829897294471
 20
1.458062698984257
 42
-0.1071754848060445
 10
-7.752131177962709
 20
1.481631587123122
 42
-0.1432467981947535
 10
-7.727915513141471
 20
1.488714560119522
 42
-0.1432467981947515
  0
LINE
  5
227
330
2
100
AcDbEntity
  8
0
100
AcDbLine
 10
-8.512840487290216
 20
0.6400449365069889
 30
0.0
 11
-8.630490538992742
 21
0.8047550088905275
 31
0.0
  0
LINE
  5
228
330
2
100
AcDbEntity
  8
0
100
AcDbLine
 10
-8.477915513141479
 20
-0.0075588386027761
 30
0.0
 11
-8.477915513141479
 21
0.5280664087769864
 31
0.0
  0
LINE
  5
229
330
2
100
AcDbEntity
  8
0
100
AcDbLine
 10
-8.477915513141479
 20
0.0624411613972242
 30
0.0
 11
-8.477915513141479
 21
0.5310627751846582
 31
0.0
  0
ARC
  5
22A
330
2
100
AcDbEntity
  8
0
100
AcDbCircle
 10
-8.665415513141479
 20
0.5310627751846582
 30
0.0
 40
0.1875
100
AcDbArc
 50
359.9999999999999
 51
35.53767779197444
  0
ARC
  5
22B
330
2
100
AcDbEntity
  8
0
100
AcDbCircle
 10
-8.547915513141486
 20
0.9866495771775306
 30
0.0
 40
0.1875
100
AcDbArc
 50
180.0
 51
222.4987496522948
  0
LINE
  5
22C
330
2
100
AcDbEntity
  8
0
100
AcDbLine
 10
-8.686157778108925
 20
0.8599794300367307
 30
0.0
 11
-8.627716687000305
 21
0.7961993762167623
 31
0.0
  0
ARC
  5
22D
330
2
100
AcDbEntity
  8
0
100
AcDbCircle
 10
-8.477915513141479
 20
0.9137371702128583
 30
0.0
 40
0.1875
100
AcDbArc
 50
180.0
 51
215.5376777919742
  0
LINE
  5
22E
330
2
100
AcDbEntity
  8
0
100
AcDbLine
 10
-7.432058337187872
 20
3.430078753830507
 30
0.0
 11
-7.432058337187872
 21
4.030078753830509
 31
0.0
  0
LINE
  5
22F
330
2
100
AcDbEntity
  8
0
100
AcDbLine
 10
-7.727915513141478
 20
3.560214689321294
 30
0.0
 11
-7.727915513141478
 21
3.825822689321297
 31
0.0
  0
LWPOLYLINE
  5
230
330
2
100
AcDbEntity
  8
0
100
AcDbPolyline
 90
        9
 70
     0
 43
0.0
 10
-7.727915513141478
 20
3.616518689321293
 42
-0.147269582437036
 10
-7.744904079377515
 20
3.621633417341576
 42
-0.1071386913803464
 10
-7.761753897294478
 20
3.638925020560524
 42
-0.0765137470862007
 10
-7.771874134779377
 20
3.662449569073317
 42
-0.063469041210727
 10
-7.775770214939441
 20
3.693018689321299
 42
-0.0634690412107267
 10
-7.771874134779377
 20
3.723587809569272
 42
-0.0765137470862059
 10
-7.761753897294478
 20
3.747112358082067
 42
-0.1071386913803463
 10
-7.744904079377515
 20
3.764403961301014
 42
-0.1472695824370325
 10
-7.727915513141478
 20
3.769518689321297
 42
-0.1472695824370333
  0
LWPOLYLINE
  5
231
330
2
100
AcDbEntity
  8
0
100
AcDbPolyline
 90
        9
 70
     0
 43
0.0
 10
-7.727915513141478
 20
3.588366689321292
 42
-0.1432467981947568
 10
-7.752131177962716
 20
3.595449662317693
 42
-0.1071754848060475
 10
-7.775829897294478
 20
3.619018550456559
 42
-0.0783035184710328
 10
-7.790178698211945
 20
3.651294954633325
 42
-0.0656020556757086
 10
-7.795676685043406
 20
3.693018689321299
 42
-0.0656020556757101
 10
-7.790178698211945
 20
3.734742424009266
 42
-0.0783035184710357
 10
-7.775829897294478
 20
3.767018828186032
 42
-0.1071754848060445
 10
-7.752131177962716
 20
3.790587716324897
 42
-0.1432467981947535
 10
-7.727915513141478
 20
3.797670689321297
 42
-0.1432467981947515
  0
LINE
  5
232
330
2
100
AcDbEntity
  8
0
100
AcDbLine
 10
-7.73376675521968
 20
2.401237170212848
 30
0.0
 11
-7.73376675521968
 21
3.091149972698759
 31
0.0
  0
ARC
  5
233
330
2
100
AcDbEntity
  8
0
100
AcDbCircle
 10
-7.54626675521968
 20
2.401237170212848
 30
0.0
 40
0.1875
100
AcDbArc
 50
180.0
 51
215.5376777919744
  0
ARC
  5
234
330
2
100
AcDbEntity
  8
0
100
AcDbCircle
 10
-7.555976243503256
 20
3.056906188664574
 30
0.0
 40
0.181058285646825
100
AcDbArc
 50
100.517472385753
 51
169.0979093723186
  0
ARC
  5
235
330
2
100
AcDbEntity
  8
0
100
AcDbCircle
 10
-7.632775783080493
 20
3.430078753830507
 30
0.0
 40
0.2
100
AcDbArc
 50
282.6356250930187
 51
359.9999999999999
  0
ARC
  5
236
330
2
100
AcDbEntity
  8
0
100
AcDbCircle
 10
-7.555976243503257
 20
5.056906188664573
 30
0.0
 40
0.1810582856468253
100
AcDbArc
 50
100.5174723857526
 51
169.0979093723184
  0
ARC
  5
237
330
2
100
AcDbEntity
  8
0
100
AcDbCircle
 10
-7.632058337187875
 20
4.030078753830509
 30
0.0
 40
0.2
100
AcDbArc
 50
359.9999999999999
 51
77.36437490698127
  0
LINE
  5
238
330
2
100
AcDbEntity
  8
0
100
AcDbLine
 10
-7.73376675521968
 20
4.401237170212852
 30
0.0
 11
-7.73376675521968
 21
5.091149972698759
 31
0.0
  0
ARC
  5
239
330
2
100
AcDbEntity
  8
0
100
AcDbCircle
 10
-7.540486217345254
 20
4.412866643914537
 30
0.0
 40
0.1936300880018533
100
AcDbArc
 50
183.4432717298261
 51
255.701319394104
  0
ARC
  5
23A
330
2
100
AcDbEntity
  8
0
100
AcDbCircle
 10
-7.632058337187875
 20
6.030078753830509
 30
0.0
 40
0.2
100
AcDbArc
 50
359.9999999999999
 51
77.36437490698127
  0
LINE
  5
23B
330
2
100
AcDbEntity
  8
0
100
AcDbLine
 10
-7.432058337187872
 20
5.430078753830507
 30
0.0
 11
-7.432058337187872
 21
6.030078753830509
 31
0.0
  0
LINE
  5
23C
330
2
100
AcDbEntity
  8
0
100
AcDbLine
 10
-7.727915513141478
 20
5.560214689321292
 30
0.0
 11
-7.727915513141478
 21
5.825822689321296
 31
0.0
  0
LWPOLYLINE
  5
23D
330
2
100
AcDbEntity
  8
0
100
AcDbPolyline
 90
        9
 70
     0
 43
0.0
 10
-7.727915513141478
 20
5.616518689321293
 42
-0.147269582437036
 10
-7.744904079377515
 20
5.621633417341577
 42
-0.1071386913803464
 10
-7.761753897294478
 20
5.638925020560524
 42
-0.0765137470862007
 10
-7.771874134779377
 20
5.662449569073317
 42
-0.063469041210727
 10
-7.775770214939441
 20
5.693018689321299
 42
-0.0634690412107267
 10
-7.771874134779377
 20
5.723587809569274
 42
-0.0765137470862059
 10
-7.761753897294478
 20
5.747112358082067
 42
-0.1071386913803463
 10
-7.744904079377515
 20
5.764403961301014
 42
-0.1472695824370325
 10
-7.727915513141478
 20
5.769518689321298
 42
-0.1472695824370333
  0
LWPOLYLINE
  5
23E
330
2
100
AcDbEntity
  8
0
100
AcDbPolyline
 90
        9
 70
     0
 43
0.0
 10
-7.727915513141478
 20
5.588366689321294
 42
-0.1432467981947568
 10
-7.752131177962716
 20
5.595449662317694
 42
-0.1071754848060475
 10
-7.775829897294478
 20
5.619018550456559
 42
-0.0783035184710328
 10
-7.790178698211945
 20
5.651294954633325
 42
-0.0656020556757086
 10
-7.795676685043406
 20
5.693018689321299
 42
-0.0656020556757101
 10
-7.790178698211945
 20
5.734742424009266
 42
-0.0783035184710357
 10
-7.775829897294478
 20
5.767018828186032
 42
-0.1071754848060445
 10
-7.752131177962716
 20
5.790587716324897
 42
-0.1432467981947535
 10
-7.727915513141478
 20
5.797670689321297
 42
-0.1432467981947515
  0
ARC
  5
23F
330
2
100
AcDbEntity
  8
0
100
AcDbCircle
 10
-7.632775783080493
 20
5.430078753830507
 30
0.0
 40
0.2
100
AcDbArc
 50
282.6356250930187
 51
359.9999999999999
  0
ARC
  5
240
330
2
100
AcDbEntity
  8
0
100
AcDbCircle
 10
-7.54048621734526
 20
6.412866643914533
 30
0.0
 40
0.1936300880018477
100
AcDbArc
 50
183.4432717298252
 51
255.7013193941054
  0
ARC
  5
241
330
2
100
AcDbEntity
  8
0
100
AcDbCircle
 10
-8.697858805279221
 20
4.1325
 30
0.0
 40
0.25
100
AcDbArc
 50
278.8271506836117
 51
81.17284931638828
  0
ARC
  5
242
330
2
100
AcDbEntity
  8
0
100
AcDbCircle
 10
-7.546413177701262
 20
9.087561871016227
 30
0.0
 40
0.1873879331297343
100
AcDbArc
 50
101.2762860939508
 51
178.9028341142668
  0
ARC
  5
243
330
2
100
AcDbEntity
  8
0
100
AcDbCircle
 10
-7.626805063812345
 20
9.466488593821765
 30
0.0
 40
0.2
100
AcDbArc
 50
282.6356250930186
 51
0.0000000000000325
  0
LINE
  5
244
330
2
100
AcDbEntity
  8
0
100
AcDbLine
 10
-7.432058337187872
 20
7.430078753830507
 30
0.0
 11
-7.432058337187872
 21
8.030078753830509
 31
0.0
  0
LINE
  5
245
330
2
100
AcDbEntity
  8
0
100
AcDbLine
 10
-7.727915513141478
 20
7.560214689321292
 30
0.0
 11
-7.727915513141478
 21
7.825822689321296
 31
0.0
  0
LWPOLYLINE
  5
246
330
2
100
AcDbEntity
  8
0
100
AcDbPolyline
 90
        9
 70
     0
 43
0.0
 10
-7.727915513141478
 20
7.588366689321294
 42
-0.1432467981947568
 10
-7.752131177962716
 20
7.595449662317694
 42
-0.1071754848060475
 10
-7.775829897294478
 20
7.619018550456559
 42
-0.0783035184710328
 10
-7.790178698211945
 20
7.651294954633325
 42
-0.0656020556757086
 10
-7.795676685043406
 20
7.693018689321299
 42
-0.0656020556757101
 10
-7.790178698211945
 20
7.734742424009266
 42
-0.0783035184710357
 10
-7.775829897294478
 20
7.767018828186032
 42
-0.1071754848060445
 10
-7.752131177962716
 20
7.790587716324897
 42
-0.1432467981947535
 10
-7.727915513141478
 20
7.797670689321297
 42
-0.1432467981947515
  0
ARC
  5
247
330
2
100
AcDbEntity
  8
0
100
AcDbCircle
 10
-7.555976243503257
 20
7.056906188664573
 30
0.0
 40
0.1810582856468253
100
AcDbArc
 50
100.5174723857526
 51
169.0979093723184
  0
ARC
  5
248
330
2
100
AcDbEntity
  8
0
100
AcDbCircle
 10
-7.632775783080493
 20
7.430078753830507
 30
0.0
 40
0.2
100
AcDbArc
 50
282.6356250930187
 51
359.9999999999999
  0
LWPOLYLINE
  5
249
330
2
100
AcDbEntity
  8
0
100
AcDbPolyline
 90
        9
 70
     0
 43
0.0
 10
-7.727915513141478
 20
7.616518689321293
 42
-0.147269582437036
 10
-7.744904079377515
 20
7.621633417341577
 42
-0.1071386913803464
 10
-7.761753897294478
 20
7.638925020560524
 42
-0.0765137470862007
 10
-7.771874134779377
 20
7.662449569073317
 42
-0.063469041210727
 10
-7.775770214939441
 20
7.693018689321299
 42
-0.0634690412107267
 10
-7.771874134779377
 20
7.723587809569274
 42
-0.0765137470862059
 10
-7.761753897294478
 20
7.747112358082067
 42
-0.1071386913803463
 10
-7.744904079377515
 20
7.764403961301014
 42
-0.1472695824370325
 10
-7.727915513141478
 20
7.769518689321298
 42
-0.1472695824370333
  0
ARC
  5
24A
330
2
100
AcDbEntity
  8
0
100
AcDbCircle
 10
-7.632058337187875
 20
8.030078753830509
 30
0.0
 40
0.2
100
AcDbArc
 50
359.9999999999999
 51
77.36437490698127
  0
LINE
  5
24B
330
2
100
AcDbEntity
  8
0
100
AcDbLine
 10
-7.73376675521968
 20
8.401237170212852
 30
0.0
 11
-7.73376675521968
 21
9.091149972698759
 31
0.0
  0
ARC
  5
24C
330
2
100
AcDbEntity
  8
0
100
AcDbCircle
 10
-7.540486217345253
 20
8.412866643914533
 30
0.0
 40
0.1936300880018548
100
AcDbArc
 50
183.4432717298251
 51
255.7013193941035
  0
LINE
  5
24D
330
2
100
AcDbEntity
  8
0
100
AcDbLine
 10
-7.73376675521968
 20
10.65364997269876
 30
0.0
 11
-8.735415513141479
 21
10.65364997269876
 31
0.0
  0
LINE
  5
24E
330
2
100
AcDbEntity
  8
0
100
AcDbLine
 10
-7.73376675521968
 20
10.65364997269876
 30
0.0
 11
-7.73376675521968
 21
10.07735970125511
 31
0.0
  0
ARC
  5
24F
330
2
100
AcDbEntity
  8
0
100
AcDbCircle
 10
-7.626805063812345
 20
9.757314254469861
 30
0.0
 40
0.2
100
AcDbArc
 50
0.0000000000000325
 51
77.36437490698127
  0
ARC
  5
250
330
2
100
AcDbEntity
  8
0
100
AcDbCircle
 10
-7.503560309965751
 20
10.20178298879564
 30
0.0
 40
0.2616795022901974
100
AcDbArc
 50
208.3905869190506
 51
252.3148159187087
  0
LINE
  5
251
330
2
100
AcDbEntity
  8
0
100
AcDbLine
 10
-7.426805063812349
 20
9.75731445074706
 30
0.0
 11
-7.426805063812349
 21
9.466488593821765
 31
0.0
  0
LINE
  5
252
330
2
100
AcDbEntity
  8
0
100
AcDbLine
 10
-7.727915513141475
 20
9.559659998238271
 30
0.0
 11
-7.727915513141475
 21
9.825267998238275
 31
0.0
  0
LWPOLYLINE
  5
253
330
2
100
AcDbEntity
  8
0
100
AcDbPolyline
 90
        9
 70
     0
 43
0.0
 10
-7.727915513141475
 20
9.615963998238271
 42
-0.147269582437036
 10
-7.744904079377513
 20
9.621078726258556
 42
-0.1071386913803464
 10
-7.761753897294476
 20
9.638370329477503
 42
-0.0765137470862007
 10
-7.771874134779374
 20
9.661894877990296
 42
-0.063469041210727
 10
-7.775770214939438
 20
9.692463998238278
 42
-0.0634690412107267
 10
-7.771874134779374
 20
9.723033118486253
 42
-0.0765137470862059
 10
-7.761753897294476
 20
9.746557666999046
 42
-0.1071386913803463
 10
-7.744904079377513
 20
9.763849270217992
 42
-0.1472695824370325
 10
-7.727915513141475
 20
9.768963998238277
 42
-0.1472695824370333
  0
LWPOLYLINE
  5
254
330
2
100
AcDbEntity
  8
0
100
AcDbPolyline
 90
        9
 70
     0
 43
0.0
 10
-7.727915513141478
 20
9.588366689321294
 42
-0.1432467981947568
 10
-7.752131177962716
 20
9.595449662317694
 42
-0.1071754848060475
 10
-7.775829897294478
 20
9.619018550456559
 42
-0.0783035184710328
 10
-7.790178698211945
 20
9.651294954633325
 42
-0.0656020556757086
 10
-7.795676685043406
 20
9.693018689321299
 42
-0.0656020556757101
 10
-7.790178698211945
 20
9.734742424009266
 42
-0.0783035184710357
 10
-7.775829897294478
 20
9.767018828186032
 42
-0.1071754848060445
 10
-7.752131177962716
 20
9.790587716324897
 42
-0.1432467981947535
 10
-7.727915513141478
 20
9.797670689321297
 42
-0.1432467981947515
  0
ARC
  5
29E
330
2
100
AcDbEntity
  8
0
100
AcDbCircle
 10
-7.780853753997693
 20
9.721615072834297
 30
0.0
 40
0.1545284259354844
100
AcDbArc
 50
210.8424709887116
 51
235.2517244545657
  0
ARC
  5
29F
330
2
100
AcDbEntity
  8
0
100
AcDbCircle
 10
-7.7808537539977
 20
9.663312923642245
 30
0.0
 40
0.1545284259354811
100
AcDbArc
 50
124.7482755454322
 51
149.1575290112859
  0
ARC
  5
2A0
330
2
100
AcDbEntity
  8
0
100
AcDbCircle
 10
-7.727915513141468
 20
9.840624798475425
 30
0.0
 40
0.2864983002371524
100
AcDbArc
 50
253.9689634222568
 51
269.9999999999986
  0
ARC
  5
2A1
330
2
100
AcDbEntity
  8
0
100
AcDbCircle
 10
-7.748857497228009
 20
9.767740450538341
 30
0.0
 40
0.2106649640867842
100
AcDbArc
 50
235.2517244545688
 51
253.9689634222602
  0
ARC
  5
2A2
330
2
100
AcDbEntity
  8
0
100
AcDbCircle
 10
-7.748857497227995
 20
9.617187545938201
 30
0.0
 40
0.2106649640867918
100
AcDbArc
 50
106.0310365777432
 51
124.7482755454343
  0
ARC
  5
2A3
330
2
100
AcDbEntity
  8
0
100
AcDbCircle
 10
-7.727915513141468
 20
9.544303198001124
 30
0.0
 40
0.2864983002371495
100
AcDbArc
 50
90.00000000000142
 51
106.0310365777434
  0
ARC
  5
2A4
330
2
100
AcDbEntity
  8
0
100
AcDbCircle
 10
-7.829672822887481
 20
9.692463998238271
 30
0.0
 40
0.0976681881821226
100
AcDbArc
 50
180.0
 51
210.8424709887126
  0
ARC
  5
2A5
330
2
100
AcDbEntity
  8
0
100
AcDbCircle
 10
-7.829672822887474
 20
9.692463998238274
 30
0.0
 40
0.09766818818213
100
AcDbArc
 50
149.1575290112896
 51
180.0000000000021
  0
ARC
  5
2A6
330
2
100
AcDbEntity
  8
0
100
AcDbCircle
 10
-7.780853753997696
 20
7.722169763917318
 30
0.0
 40
0.1545284259354844
100
AcDbArc
 50
210.8424709887116
 51
235.2517244545657
  0
ARC
  5
2A7
330
2
100
AcDbEntity
  8
0
100
AcDbCircle
 10
-7.780853753997703
 20
7.663867614725266
 30
0.0
 40
0.1545284259354811
100
AcDbArc
 50
124.7482755454322
 51
149.1575290112859
  0
ARC
  5
2A8
330
2
100
AcDbEntity
  8
0
100
AcDbCircle
 10
-7.727915513141471
 20
7.841179489558446
 30
0.0
 40
0.2864983002371524
100
AcDbArc
 50
253.9689634222568
 51
269.9999999999986
  0
ARC
  5
2A9
330
2
100
AcDbEntity
  8
0
100
AcDbCircle
 10
-7.748857497228012
 20
7.768295141621362
 30
0.0
 40
0.2106649640867842
100
AcDbArc
 50
235.2517244545688
 51
253.9689634222602
  0
ARC
  5
2AA
330
2
100
AcDbEntity
  8
0
100
AcDbCircle
 10
-7.748857497227998
 20
7.617742237021222
 30
0.0
 40
0.2106649640867918
100
AcDbArc
 50
106.0310365777432
 51
124.7482755454343
  0
ARC
  5
2AB
330
2
100
AcDbEntity
  8
0
100
AcDbCircle
 10
-7.727915513141471
 20
7.544857889084145
 30
0.0
 40
0.2864983002371495
100
AcDbArc
 50
90.00000000000142
 51
106.0310365777434
  0
ARC
  5
2AC
330
2
100
AcDbEntity
  8
0
100
AcDbCircle
 10
-7.829672822887484
 20
7.693018689321292
 30
0.0
 40
0.0976681881821226
100
AcDbArc
 50
180.0
 51
210.8424709887126
  0
ARC
  5
2AD
330
2
100
AcDbEntity
  8
0
100
AcDbCircle
 10
-7.829672822887477
 20
7.693018689321296
 30
0.0
 40
0.09766818818213
100
AcDbArc
 50
149.1575290112896
 51
180.0000000000021
  0
ARC
  5
2AE
330
2
100
AcDbEntity
  8
0
100
AcDbCircle
 10
-7.780853753997696
 20
5.722169763917318
 30
0.0
 40
0.1545284259354844
100
AcDbArc
 50
210.8424709887116
 51
235.2517244545657
  0
ARC
  5
2AF
330
2
100
AcDbEntity
  8
0
100
AcDbCircle
 10
-7.780853753997703
 20
5.663867614725266
 30
0.0
 40
0.1545284259354811
100
AcDbArc
 50
124.7482755454322
 51
149.1575290112859
  0
ARC
  5
2B0
330
2
100
AcDbEntity
  8
0
100
AcDbCircle
 10
-7.727915513141471
 20
5.841179489558446
 30
0.0
 40
0.2864983002371524
100
AcDbArc
 50
253.9689634222568
 51
269.9999999999986
  0
ARC
  5
2B1
330
2
100
AcDbEntity
  8
0
100
AcDbCircle
 10
-7.748857497228012
 20
5.768295141621362
 30
0.0
 40
0.2106649640867842
100
AcDbArc
 50
235.2517244545688
 51
253.9689634222602
  0
ARC
  5
2B2
330
2
100
AcDbEntity
  8
0
100
AcDbCircle
 10
-7.748857497227998
 20
5.617742237021222
 30
0.0
 40
0.2106649640867918
100
AcDbArc
 50
106.0310365777432
 51
124.7482755454343
  0
ARC
  5
2B3
330
2
100
AcDbEntity
  8
0
100
AcDbCircle
 10
-7.727915513141471
 20
5.544857889084145
 30
0.0
 40
0.2864983002371495
100
AcDbArc
 50
90.00000000000142
 51
106.0310365777434
  0
ARC
  5
2B4
330
2
100
AcDbEntity
  8
0
100
AcDbCircle
 10
-7.829672822887484
 20
5.693018689321292
 30
0.0
 40
0.0976681881821226
100
AcDbArc
 50
180.0
 51
210.8424709887126
  0
ARC
  5
2B5
330
2
100
AcDbEntity
  8
0
100
AcDbCircle
 10
-7.829672822887477
 20
5.693018689321296
 30
0.0
 40
0.09766818818213
100
AcDbArc
 50
149.1575290112896
 51
180.0000000000021
  0
ARC
  5
2B6
330
2
100
AcDbEntity
  8
0
100
AcDbCircle
 10
-7.780853753997696
 20
3.72216976391732
 30
0.0
 40
0.1545284259354844
100
AcDbArc
 50
210.8424709887116
 51
235.2517244545657
  0
ARC
  5
2B7
330
2
100
AcDbEntity
  8
0
100
AcDbCircle
 10
-7.780853753997703
 20
3.663867614725268
 30
0.0
 40
0.1545284259354811
100
AcDbArc
 50
124.7482755454322
 51
149.1575290112859
  0
ARC
  5
2B8
330
2
100
AcDbEntity
  8
0
100
AcDbCircle
 10
-7.727915513141471
 20
3.841179489558448
 30
0.0
 40
0.2864983002371524
100
AcDbArc
 50
253.9689634222568
 51
269.9999999999986
  0
ARC
  5
2B9
330
2
100
AcDbEntity
  8
0
100
AcDbCircle
 10
-7.748857497228012
 20
3.768295141621364
 30
0.0
 40
0.2106649640867842
100
AcDbArc
 50
235.2517244545688
 51
253.9689634222602
  0
ARC
  5
2BA
330
2
100
AcDbEntity
  8
0
100
AcDbCircle
 10
-7.748857497227998
 20
3.617742237021224
 30
0.0
 40
0.2106649640867918
100
AcDbArc
 50
106.0310365777432
 51
124.7482755454343
  0
ARC
  5
2BB
330
2
100
AcDbEntity
  8
0
100
AcDbCircle
 10
-7.727915513141471
 20
3.544857889084147
 30
0.0
 40
0.2864983002371495
100
AcDbArc
 50
90.00000000000142
 51
106.0310365777434
  0
ARC
  5
2BC
330
2
100
AcDbEntity
  8
0
100
AcDbCircle
 10
-7.829672822887484
 20
3.693018689321294
 30
0.0
 40
0.0976681881821226
100
AcDbArc
 50
180.0
 51
210.8424709887126
  0
ARC
  5
2BD
330
2
100
AcDbEntity
  8
0
100
AcDbCircle
 10
-7.829672822887477
 20
3.693018689321297
 30
0.0
 40
0.09766818818213
100
AcDbArc
 50
149.1575290112896
 51
180.0000000000021
  0
ARC
  5
2BE
330
2
100
AcDbEntity
  8
0
100
AcDbCircle
 10
-7.780853753997689
 20
1.413213634715545
 30
0.0
 40
0.1545284259354844
100
AcDbArc
 50
210.8424709887116
 51
235.2517244545657
  0
ARC
  5
2BF
330
2
100
AcDbEntity
  8
0
100
AcDbCircle
 10
-7.780853753997696
 20
1.354911485523493
 30
0.0
 40
0.1545284259354811
100
AcDbArc
 50
124.7482755454322
 51
149.1575290112859
  0
ARC
  5
2C0
330
2
100
AcDbEntity
  8
0
100
AcDbCircle
 10
-7.727915513141464
 20
1.532223360356673
 30
0.0
 40
0.2864983002371524
100
AcDbArc
 50
253.9689634222568
 51
269.9999999999986
  0
ARC
  5
2C1
330
2
100
AcDbEntity
  8
0
100
AcDbCircle
 10
-7.748857497228005
 20
1.459339012419589
 30
0.0
 40
0.2106649640867842
100
AcDbArc
 50
235.2517244545688
 51
253.9689634222602
  0
ARC
  5
2C2
330
2
100
AcDbEntity
  8
0
100
AcDbCircle
 10
-7.74885749722799
 20
1.308786107819449
 30
0.0
 40
0.2106649640867918
100
AcDbArc
 50
106.0310365777432
 51
124.7482755454343
  0
ARC
  5
2C3
330
2
100
AcDbEntity
  8
0
100
AcDbCircle
 10
-7.727915513141464
 20
1.235901759882372
 30
0.0
 40
0.2864983002371495
100
AcDbArc
 50
90.00000000000142
 51
106.0310365777434
  0
ARC
  5
2C4
330
2
100
AcDbEntity
  8
0
100
AcDbCircle
 10
-7.829672822887477
 20
1.384062560119519
 30
0.0
 40
0.0976681881821226
100
AcDbArc
 50
180.0
 51
210.8424709887126
  0
ARC
  5
2C5
330
2
100
AcDbEntity
  8
0
100
AcDbCircle
 10
-7.82967282288747
 20
1.384062560119522
 30
0.0
 40
0.09766818818213
100
AcDbArc
 50
149.1575290112896
 51
180.0000000000021
  0
ARC
  5
2C6
330
2
100
AcDbEntity
  8
0
100
AcDbCircle
 10
7.78085375399769
 20
9.841592235993247
 30
0.0
 40
0.1545284259354844
100
AcDbArc
 50
304.7482755454344
 51
329.1575290112884
  0
ARC
  5
2C7
330
2
100
AcDbEntity
  8
0
100
AcDbCircle
 10
7.780853753997697
 20
9.783290086801195
 30
0.0
 40
0.1545284259354811
100
AcDbArc
 50
30.84247098871409
 51
55.25172445456781
  0
ARC
  5
2C8
330
2
100
AcDbEntity
  8
0
100
AcDbCircle
 10
7.727915513141465
 20
9.960601961634374
 30
0.0
 40
0.2864983002371524
100
AcDbArc
 50
270.0000000000014
 51
286.0310365777432
  0
ARC
  5
2C9
330
2
100
AcDbEntity
  8
0
100
AcDbCircle
 10
7.748857497228006
 20
9.887717613697291
 30
0.0
 40
0.2106649640867842
100
AcDbArc
 50
286.0310365777398
 51
304.7482755454312
  0
ARC
  5
2CA
330
2
100
AcDbEntity
  8
0
100
AcDbCircle
 10
7.748857497227991
 20
9.737164709097151
 30
0.0
 40
0.2106649640867918
100
AcDbArc
 50
55.25172445456567
 51
73.96896342225678
  0
ARC
  5
2CB
330
2
100
AcDbEntity
  8
0
100
AcDbCircle
 10
7.727915513141465
 20
9.664280361160074
 30
0.0
 40
0.2864983002371495
100
AcDbArc
 50
73.96896342225659
 51
89.99999999999859
  0
ARC
  5
2CC
330
2
100
AcDbEntity
  8
0
100
AcDbCircle
 10
7.829672822887478
 20
9.812441161397221
 30
0.0
 40
0.0976681881821226
100
AcDbArc
 50
329.1575290112875
 51
0.000000000000007
  0
ARC
  5
2CD
330
2
100
AcDbEntity
  8
0
100
AcDbCircle
 10
7.829672822887471
 20
9.812441161397224
 30
0.0
 40
0.09766818818213
100
AcDbArc
 50
359.9999999999978
 51
30.84247098871043
  0
ARC
  5
2CE
330
2
100
AcDbEntity
  8
0
100
AcDbCircle
 10
7.78085375399769
 20
7.841592235993247
 30
0.0
 40
0.1545284259354844
100
AcDbArc
 50
304.7482755454344
 51
329.1575290112884
  0
ARC
  5
2CF
330
2
100
AcDbEntity
  8
0
100
AcDbCircle
 10
7.780853753997697
 20
7.783290086801195
 30
0.0
 40
0.1545284259354811
100
AcDbArc
 50
30.84247098871409
 51
55.25172445456781
  0
ARC
  5
2D0
330
2
100
AcDbEntity
  8
0
100
AcDbCircle
 10
7.727915513141465
 20
7.960601961634374
 30
0.0
 40
0.2864983002371524
100
AcDbArc
 50
270.0000000000014
 51
286.0310365777432
  0
ARC
  5
2D1
330
2
100
AcDbEntity
  8
0
100
AcDbCircle
 10
7.748857497228006
 20
7.887717613697291
 30
0.0
 40
0.2106649640867842
100
AcDbArc
 50
286.0310365777398
 51
304.7482755454312
  0
ARC
  5
2D2
330
2
100
AcDbEntity
  8
0
100
AcDbCircle
 10
7.748857497227991
 20
7.737164709097151
 30
0.0
 40
0.2106649640867918
100
AcDbArc
 50
55.25172445456567
 51
73.96896342225678
  0
ARC
  5
2D3
330
2
100
AcDbEntity
  8
0
100
AcDbCircle
 10
7.727915513141465
 20
7.664280361160074
 30
0.0
 40
0.2864983002371495
100
AcDbArc
 50
73.96896342225659
 51
89.99999999999859
  0
ARC
  5
2D4
330
2
100
AcDbEntity
  8
0
100
AcDbCircle
 10
7.829672822887478
 20
7.812441161397221
 30
0.0
 40
0.0976681881821226
100
AcDbArc
 50
329.1575290112875
 51
0.000000000000007
  0
ARC
  5
2D5
330
2
100
AcDbEntity
  8
0
100
AcDbCircle
 10
7.829672822887471
 20
7.812441161397224
 30
0.0
 40
0.09766818818213
100
AcDbArc
 50
359.9999999999978
 51
30.84247098871043
  0
ARC
  5
2D6
330
2
100
AcDbEntity
  8
0
100
AcDbCircle
 10
7.78085375399769
 20
5.841592235993247
 30
0.0
 40
0.1545284259354844
100
AcDbArc
 50
304.7482755454344
 51
329.1575290112884
  0
ARC
  5
2D7
330
2
100
AcDbEntity
  8
0
100
AcDbCircle
 10
7.780853753997697
 20
5.783290086801195
 30
0.0
 40
0.1545284259354811
100
AcDbArc
 50
30.84247098871409
 51
55.25172445456781
  0
ARC
  5
2D8
330
2
100
AcDbEntity
  8
0
100
AcDbCircle
 10
7.727915513141465
 20
5.960601961634374
 30
0.0
 40
0.2864983002371524
100
AcDbArc
 50
270.0000000000014
 51
286.0310365777432
  0
ARC
  5
2D9
330
2
100
AcDbEntity
  8
0
100
AcDbCircle
 10
7.748857497228006
 20
5.887717613697291
 30
0.0
 40
0.2106649640867842
100
AcDbArc
 50
286.0310365777398
 51
304.7482755454312
  0
ARC
  5
2DA
330
2
100
AcDbEntity
  8
0
100
AcDbCircle
 10
7.748857497227991
 20
5.737164709097151
 30
0.0
 40
0.2106649640867918
100
AcDbArc
 50
55.25172445456567
 51
73.96896342225678
  0
ARC
  5
2DB
330
2
100
AcDbEntity
  8
0
100
AcDbCircle
 10
7.727915513141465
 20
5.664280361160074
 30
0.0
 40
0.2864983002371495
100
AcDbArc
 50
73.96896342225659
 51
89.99999999999859
  0
ARC
  5
2DC
330
2
100
AcDbEntity
  8
0
100
AcDbCircle
 10
7.829672822887478
 20
5.812441161397221
 30
0.0
 40
0.0976681881821226
100
AcDbArc
 50
329.1575290112875
 51
0.000000000000007
  0
ARC
  5
2DD
330
2
100
AcDbEntity
  8
0
100
AcDbCircle
 10
7.829672822887471
 20
5.812441161397224
 30
0.0
 40
0.09766818818213
100
AcDbArc
 50
359.9999999999978
 51
30.84247098871043
  0
ARC
  5
2DE
330
2
100
AcDbEntity
  8
0
100
AcDbCircle
 10
7.78085375399769
 20
3.841592235993248
 30
0.0
 40
0.1545284259354844
100
AcDbArc
 50
304.7482755454344
 51
329.1575290112884
  0
ARC
  5
2DF
330
2
100
AcDbEntity
  8
0
100
AcDbCircle
 10
7.780853753997697
 20
3.783290086801197
 30
0.0
 40
0.1545284259354811
100
AcDbArc
 50
30.84247098871409
 51
55.25172445456781
  0
ARC
  5
2E0
330
2
100
AcDbEntity
  8
0
100
AcDbCircle
 10
7.727915513141465
 20
3.960601961634376
 30
0.0
 40
0.2864983002371524
100
AcDbArc
 50
270.0000000000014
 51
286.0310365777432
  0
ARC
  5
2E1
330
2
100
AcDbEntity
  8
0
100
AcDbCircle
 10
7.748857497228006
 20
3.887717613697292
 30
0.0
 40
0.2106649640867842
100
AcDbArc
 50
286.0310365777398
 51
304.7482755454312
  0
ARC
  5
2E2
330
2
100
AcDbEntity
  8
0
100
AcDbCircle
 10
7.748857497227991
 20
3.737164709097153
 30
0.0
 40
0.2106649640867918
100
AcDbArc
 50
55.25172445456567
 51
73.96896342225678
  0
ARC
  5
2E3
330
2
100
AcDbEntity
  8
0
100
AcDbCircle
 10
7.727915513141465
 20
3.664280361160076
 30
0.0
 40
0.2864983002371495
100
AcDbArc
 50
73.96896342225659
 51
89.99999999999859
  0
ARC
  5
2E4
330
2
100
AcDbEntity
  8
0
100
AcDbCircle
 10
7.829672822887478
 20
3.812441161397222
 30
0.0
 40
0.0976681881821226
100
AcDbArc
 50
329.1575290112875
 51
0.000000000000007
  0
ARC
  5
2E5
330
2
100
AcDbEntity
  8
0
100
AcDbCircle
 10
7.829672822887471
 20
3.812441161397226
 30
0.0
 40
0.09766818818213
100
AcDbArc
 50
359.9999999999978
 51
30.84247098871043
  0
ARC
  5
2E6
330
2
100
AcDbEntity
  8
0
100
AcDbCircle
 10
7.78085375399769
 20
0.9030769699774179
 30
0.0
 40
0.1545284259354844
100
AcDbArc
 50
304.7482755454344
 51
329.1575290112884
  0
ARC
  5
2E7
330
2
100
AcDbEntity
  8
0
100
AcDbCircle
 10
7.780853753997697
 20
0.844774820785366
 30
0.0
 40
0.1545284259354811
100
AcDbArc
 50
30.84247098871409
 51
55.25172445456781
  0
ARC
  5
2E8
330
2
100
AcDbEntity
  8
0
100
AcDbCircle
 10
7.727915513141465
 20
1.022086695618546
 30
0.0
 40
0.2864983002371524
100
AcDbArc
 50
270.0000000000014
 51
286.0310365777432
  0
ARC
  5
2E9
330
2
100
AcDbEntity
  8
0
100
AcDbCircle
 10
7.748857497228006
 20
0.9492023476814619
 30
0.0
 40
0.2106649640867842
100
AcDbArc
 50
286.0310365777398
 51
304.7482755454312
  0
ARC
  5
2EA
330
2
100
AcDbEntity
  8
0
100
AcDbCircle
 10
7.748857497227991
 20
0.798649443081322
 30
0.0
 40
0.2106649640867918
100
AcDbArc
 50
55.25172445456567
 51
73.96896342225678
  0
ARC
  5
2EB
330
2
100
AcDbEntity
  8
0
100
AcDbCircle
 10
7.727915513141465
 20
0.7257650951442454
 30
0.0
 40
0.2864983002371495
100
AcDbArc
 50
73.96896342225659
 51
89.99999999999859
  0
ARC
  5
2EC
330
2
100
AcDbEntity
  8
0
100
AcDbCircle
 10
7.829672822887478
 20
0.873925895381392
 30
0.0
 40
0.0976681881821226
100
AcDbArc
 50
329.1575290112875
 51
0.000000000000007
  0
ARC
  5
2ED
330
2
100
AcDbEntity
  8
0
100
AcDbCircle
 10
7.829672822887471
 20
0.8739258953813955
 30
0.0
 40
0.09766818818213
100
AcDbArc
 50
359.9999999999978
 51
30.84247098871043
  0
ENDSEC
  0
SECTION
  2
OBJECTS
  0
DICTIONARY
  5
9
330
0
100
AcDbDictionary
281
     1
  3
ACAD_COLOR
350
259
  3
ACAD_GROUP
350
23
  3
ACAD_LAYOUT
350
D
  3
ACAD_MATERIAL
350
258
  3
ACAD_MLINESTYLE
350
24
  3
ACAD_PLOTSETTINGS
350
25
  3
ACAD_PLOTSTYLENAME
350
8
  3
ACAD_TABLESTYLE
350
25A
  3
ACDBHEADERROUNDTRIPXREC
350
2F7
  3
AcDbVariableDictionary
350
113
  0
DICTIONARY
  5
259
102
{ACAD_REACTORS
330
9
102
}
330
9
100
AcDbDictionary
281
     1
  0
DICTIONARY
  5
23
102
{ACAD_REACTORS
330
9
102
}
330
9
100
AcDbDictionary
281
     1
  0
DICTIONARY
  5
D
102
{ACAD_REACTORS
330
9
102
}
330
9
100
AcDbDictionary
281
     1
  3
Layout1
350
13
  3
Model
350
C
  0
DICTIONARY
  5
258
102
{ACAD_REACTORS
330
9
102
}
330
9
100
AcDbDictionary
281
     1
  0
DICTIONARY
  5
24
102
{ACAD_REACTORS
330
9
102
}
330
9
100
AcDbDictionary
281
     1
  3
STANDARD
350
27
  0
DICTIONARY
  5
25
102
{ACAD_REACTORS
330
9
102
}
330
9
100
AcDbDictionary
281
     1
  0
ACDBDICTIONARYWDFLT
  5
8
102
{ACAD_REACTORS
330
9
102
}
330
9
100
AcDbDictionary
281
     1
  3
Normal
350
7
100
AcDbDictionaryWithDefault
340
7
  0
DICTIONARY
  5
25A
102
{ACAD_REACTORS
330
9
102
}
330
9
100
AcDbDictionary
281
     1
  3
Standard
350
25B
  0
DICTIONARY
  5
2F7
102
{ACAD_REACTORS
330
9
102
}
330
9
100
AcDbDictionary
281
     1
  3
COLORDICT
350
2F8
  3
MATERIALDICT
350
2F9
  0
DICTIONARY
  5
113
102
{ACAD_REACTORS
330
9
102
}
330
9
100
AcDbDictionary
281
     1
  3
CTABLESTYLE
350
2F4
  3
HIDETEXT
350
2F6
  0
LAYOUT
  5
13
102
{ACAD_REACTORS
330
D
102
}
102
{ACAD_XDICTIONARY
360
2FA
102
}
330
D
100
AcDbPlotSettings
  1

  2
C:\ACAD2000\plotters\HP LaserJet 2100 Series PS.pc3
  4

  6

 40
0.0
 41
0.0
 42
0.0
 43
0.0
 44
0.0
 45
0.0
 46
0.0
 47
0.0
 48
0.0
 49
0.0
140
0.0
141
0.0
142
1.0
143
1.0
 70
   688
 72
     0
 73
     0
 74
     5
  7

 75
    16
147
1.0
148
0.0
149
0.0
100
AcDbLayout
  1
Layout1
 70
     0
 71
     1
 10
0.0
 20
0.0
 11
12.0
 21
9.0
 12
0.0
 22
0.0
 32
0.0
 14
1.000000000000000E+20
 24
1.000000000000000E+20
 34
1.000000000000000E+20
 15
-1.000000000000000E+20
 25
-1.000000000000000E+20
 35
-1.000000000000000E+20
146
0.0
 13
0.0
 23
0.0
 33
0.0
 16
1.0
 26
0.0
 36
0.0
 17
0.0
 27
1.0
 37
0.0
 76
     0
330
E
  0
LAYOUT
  5
C
102
{ACAD_REACTORS
330
D
102
}
102
{ACAD_XDICTIONARY
360
2FC
102
}
330
D
100
AcDbPlotSettings
  1

  2
HP LaserJet 2100 Series PS
  4
Letter
  6

 40
3.174999952316284
 41
3.174999952316284
 42
3.175003051757813
 43
3.17498779296875
 44
215.9000091552734
 45
279.3999938964844
 46
0.0
 47
0.0
 48
0.0
 49
0.0
140
0.0
141
0.0
142
1.0
143
3.255781322003443
 70
 28336
 72
     0
 73
     1
 74
     2
  7

 75
     0
147
0.3071459355214467
148
0.0
149
0.0
100
AcDbLayout
  1
Model
 70
     1
 71
     0
 10
0.0
 20
0.0
 11
12.0
 21
9.0
 12
0.0
 22
0.0
 32
0.0
 14
0.0
 24
0.0
 34
0.0
 15
0.0
 25
0.0
 35
0.0
146
0.0
 13
0.0
 23
0.0
 33
0.0
 16
1.0
 26
0.0
 36
0.0
 17
0.0
 27
1.0
 37
0.0
 76
     0
330
2
  0
MLINESTYLE
  5
27
102
{ACAD_REACTORS
330
24
102
}
330
24
100
AcDbMlineStyle
  2
STANDARD
 70
     0
  3

 62
   256
 51
90.0
 52
90.0
 71
     2
 49
0.5
 62
   256
  6
BYLAYER
 49
-0.5
 62
   256
  6
BYLAYER
  0
ACDBPLACEHOLDER
  5
7
102
{ACAD_REACTORS
330
8
102
}
330
8
  0
ACAD_PROXY_OBJECT
  5
25B
102
{ACAD_REACTORS
330
25A
102
}
330
25A
100
AcDbProxyObject
 90
      499
 91
      517
 95
   983063
 70
     0
 93
     1841
310
4214DD185B99185C9928B81E85EB51B8AE3F2E07A17AD46E2B8FC02B5E8DC0F42B1CFD028000000C1008070000C3001FDFF8000000C1003FBFF000000182007F7FE00000030400FEFFC00000060801FDFF8000000C1003FBFF00000018200000000000000681FA0B0000001820100E000186003FBFF000000182007F7FE000
310
00030400FEFFC00000060801FDFF8000000C1003FBFF000000182007F7FE000000304000AD7A3703D0AC73F4160000003040201C00030C007F7FE00000030400FEFFC00000060801FDFF8000000C1003FBFF000000182007F7FE00000030400FEFFC000000608000
340
16
340
16
340
16
 94
        0
  0
XRECORD
  5
2F8
102
{ACAD_REACTORS
330
2F7
102
}
330
2F7
100
AcDbXrecord
340
259
  0
XRECORD
  5
2F9
102
{ACAD_REACTORS
330
2F7
102
}
330
2F7
100
AcDbXrecord
340
258
  0
DICTIONARYVAR
  5
2F4
102
{ACAD_REACTORS
330
113
102
}
330
113
100
DictionaryVariables
280
     0
  1
STANDARD
  0
DICTIONARYVAR
  5
2F6
102
{ACAD_REACTORS
330
113
102
}
330
113
100
DictionaryVariables
280
     0
  1
0
  0
DICTIONARY
  5
2FA
330
13
100
AcDbDictionary
280
     1
281
     1
  3
ACAD_XREC_ROUNDTRIP
360
2FB
  0
DICTIONARY
  5
2FC
330
C
100
AcDbDictionary
280
     1
281
     1
  3
ACAD_XREC_ROUNDTRIP
360
2FD
  0
XRECORD
  5
2FB
102
{ACAD_REACTORS
330
2FA
102
}
330
2FA
100
AcDbXrecord
102
SHADEPLOT
 70
     0
102
SHADEPLOTRESLEVEL
 70
     2
102
SHADEPLOTCUSTOMDPI
 70
   300
  0
XRECORD
  5
2FD
102
{ACAD_REACTORS
330
2FC
102
}
330
2FC
100
AcDbXrecord
102
SHADEPLOT
 70
     0
102
SHADEPLOTRESLEVEL
 70
     2
102
SHADEPLOTCUSTOMDPI
 70
   300
  0
ENDSEC
  0
EOF
