  0
SECTION
  2
HEADER
  9
$ACADVER
  1
AC1015
  9
$ACADMAINTVER
 70
     6
  9
$DWGCODEPAGE
  3
ANSI_1252
  9
$INSBASE
 10
0.0
 20
0.0
 30
0.0
  9
$EXTMIN
 10
-10.6002042918369
 20
-0.0289949493661161
 30
0.0
  9
$EXTMAX
 10
10.60020429183691
 20
14.33177766857308
 30
0.0
  9
$LIMMIN
 10
0.0
 20
0.0
  9
$LIMMAX
 10
26.6664
 20
34.99965
  9
$ORTHOMODE
 70
     1
  9
$REGENMODE
 70
     1
  9
$FILLMODE
 70
     1
  9
$QTEXTMODE
 70
     0
  9
$MIRRTEXT
 70
     0
  9
$LTSCALE
 40
1.0
  9
$ATTMODE
 70
     1
  9
$TEXTSIZE
 40
0.299997
  9
$TRACEWID
 40
0.05
  9
$TEXTSTYLE
  7
STANDARD
  9
$CLAYER
  8
0
  9
$CELTYPE
  6
BYLAYER
  9
$CECOLOR
 62
   256
  9
$CELTSCALE
 40
1.0
  9
$DISPSILH
 70
     0
  9
$DIMSCALE
 40
3.3333
  9
$DIMASZ
 40
0.125
  9
$DIMEXO
 40
0.062
  9
$DIMDLI
 40
0.375
  9
$DIMRND
 40
0.0
  9
$DIMDLE
 40
0.0
  9
$DIMEXE
 40
0.08
  9
$DIMTP
 40
0.0
  9
$DIMTM
 40
0.0
  9
$DIMTXT
 40
0.09
  9
$DIMCEN
 40
-0.03125
  9
$DIMTSZ
 40
0.0
  9
$DIMTOL
 70
     0
  9
$DIMLIM
 70
     0
  9
$DIMTIH
 70
     1
  9
$DIMTOH
 70
     1
  9
$DIMSE1
 70
     0
  9
$DIMSE2
 70
     0
  9
$DIMTAD
 70
     0
  9
$DIMZIN
 70
     0
  9
$DIMBLK
  1

  9
$DIMASO
 70
     0
  9
$DIMSHO
 70
     0
  9
$DIMPOST
  1

  9
$DIMAPOST
  1

  9
$DIMALT
 70
     0
  9
$DIMALTD
 70
     2
  9
$DIMALTF
 40
25.4
  9
$DIMLFAC
 40
1.0
  9
$DIMTOFL
 70
     0
  9
$DIMTVP
 40
0.0
  9
$DIMTIX
 70
     0
  9
$DIMSOXD
 70
     0
  9
$DIMSAH
 70
     0
  9
$DIMBLK1
  1

  9
$DIMBLK2
  1

  9
$DIMSTYLE
  2
STANDARD
  9
$DIMCLRD
 70
     0
  9
$DIMCLRE
 70
     0
  9
$DIMCLRT
 70
     0
  9
$DIMTFAC
 40
1.0
  9
$DIMGAP
 40
0.09
  9
$DIMJUST
 70
     0
  9
$DIMSD1
 70
     0
  9
$DIMSD2
 70
     0
  9
$DIMTOLJ
 70
     1
  9
$DIMTZIN
 70
     0
  9
$DIMALTZ
 70
     0
  9
$DIMALTTZ
 70
     0
  9
$DIMUPT
 70
     0
  9
$DIMDEC
 70
     6
  9
$DIMTDEC
 70
     6
  9
$DIMALTU
 70
     5
  9
$DIMALTTD
 70
     2
  9
$DIMTXSTY
  7
STANDARD
  9
$DIMAUNIT
 70
     0
  9
$DIMADEC
 70
     0
  9
$DIMALTRND
 40
0.0
  9
$DIMAZIN
 70
     0
  9
$DIMDSEP
 70
    46
  9
$DIMATFIT
 70
     3
  9
$DIMFRAC
 70
     0
  9
$DIMLDRBLK
  1

  9
$DIMLUNIT
 70
     5
  9
$DIMLWD
 70
    -2
  9
$DIMLWE
 70
    -2
  9
$DIMTMOVE
 70
     2
  9
$LUNITS
 70
     5
  9
$LUPREC
 70
     6
  9
$SKETCHINC
 40
0.1
  9
$FILLETRAD
 40
0.07
  9
$AUNITS
 70
     0
  9
$AUPREC
 70
     0
  9
$MENU
  1
acad
  9
$ELEVATION
 40
0.0
  9
$PELEVATION
 40
0.0
  9
$THICKNESS
 40
0.0
  9
$LIMCHECK
 70
     0
  9
$CHAMFERA
 40
0.0
  9
$CHAMFERB
 40
0.0
  9
$CHAMFERC
 40
0.0
  9
$CHAMFERD
 40
0.0
  9
$SKPOLY
 70
     0
  9
$TDCREATE
 40
2449874.888695023
  9
$TDUCREATE
 40
2449875.222028357
  9
$TDUPDATE
 40
2454166.813750787
  9
$TDUUPDATE
 40
2454167.14708412
  9
$TDINDWG
 40
0.0292786111
  9
$TDUSRTIMER
 40
0.0292786111
  9
$USRTIMER
 70
     1
  9
$ANGBASE
 50
0.0
  9
$ANGDIR
 70
     0
  9
$PDMODE
 70
     0
  9
$PDSIZE
 40
0.0
  9
$PLINEWID
 40
0.0
  9
$SPLFRAME
 70
     0
  9
$SPLINETYPE
 70
     6
  9
$SPLINESEGS
 70
     8
  9
$HANDSEED
  5
434
  9
$SURFTAB1
 70
     6
  9
$SURFTAB2
 70
     6
  9
$SURFTYPE
 70
     6
  9
$SURFU
 70
     6
  9
$SURFV
 70
     6
  9
$UCSBASE
  2

  9
$UCSNAME
  2

  9
$UCSORG
 10
0.0
 20
0.0
 30
0.0
  9
$UCSXDIR
 10
1.0
 20
0.0
 30
0.0
  9
$UCSYDIR
 10
0.0
 20
1.0
 30
0.0
  9
$UCSORTHOREF
  2

  9
$UCSORTHOVIEW
 70
     0
  9
$UCSORGTOP
 10
0.0
 20
0.0
 30
0.0
  9
$UCSORGBOTTOM
 10
0.0
 20
0.0
 30
0.0
  9
$UCSORGLEFT
 10
0.0
 20
0.0
 30
0.0
  9
$UCSORGRIGHT
 10
0.0
 20
0.0
 30
0.0
  9
$UCSORGFRONT
 10
0.0
 20
0.0
 30
0.0
  9
$UCSORGBACK
 10
0.0
 20
0.0
 30
0.0
  9
$PUCSBASE
  2

  9
$PUCSNAME
  2

  9
$PUCSORG
 10
0.0
 20
0.0
 30
0.0
  9
$PUCSXDIR
 10
1.0
 20
0.0
 30
0.0
  9
$PUCSYDIR
 10
0.0
 20
1.0
 30
0.0
  9
$PUCSORTHOREF
  2

  9
$PUCSORTHOVIEW
 70
     0
  9
$PUCSORGTOP
 10
0.0
 20
0.0
 30
0.0
  9
$PUCSORGBOTTOM
 10
0.0
 20
0.0
 30
0.0
  9
$PUCSORGLEFT
 10
0.0
 20
0.0
 30
0.0
  9
$PUCSORGRIGHT
 10
0.0
 20
0.0
 30
0.0
  9
$PUCSORGFRONT
 10
0.0
 20
0.0
 30
0.0
  9
$PUCSORGBACK
 10
0.0
 20
0.0
 30
0.0
  9
$USERI1
 70
     0
  9
$USERI2
 70
     0
  9
$USERI3
 70
     0
  9
$USERI4
 70
     0
  9
$USERI5
 70
     0
  9
$USERR1
 40
0.0
  9
$USERR2
 40
0.0
  9
$USERR3
 40
0.0
  9
$USERR4
 40
0.0
  9
$USERR5
 40
0.0
  9
$WORLDVIEW
 70
     1
  9
$SHADEDGE
 70
     3
  9
$SHADEDIF
 70
    70
  9
$TILEMODE
 70
     1
  9
$MAXACTVP
 70
    16
  9
$PINSBASE
 10
0.0
 20
0.0
 30
0.0
  9
$PLIMCHECK
 70
     0
  9
$PEXTMIN
 10
1.000000000000000E+20
 20
1.000000000000000E+20
 30
1.000000000000000E+20
  9
$PEXTMAX
 10
-1.000000000000000E+20
 20
-1.000000000000000E+20
 30
-1.000000000000000E+20
  9
$PLIMMIN
 10
0.0
 20
0.0
  9
$PLIMMAX
 10
12.0
 20
9.0
  9
$UNITMODE
 70
     0
  9
$VISRETAIN
 70
     0
  9
$PLINEGEN
 70
     1
  9
$PSLTSCALE
 70
     0
  9
$TREEDEPTH
 70
  3020
  9
$CMLSTYLE
  2
STANDARD
  9
$CMLJUST
 70
     0
  9
$CMLSCALE
 40
1.0
  9
$PROXYGRAPHICS
 70
     1
  9
$MEASUREMENT
 70
     0
  9
$CELWEIGHT
370
    -1
  9
$ENDCAPS
280
     0
  9
$JOINSTYLE
280
     0
  9
$LWDISPLAY
290
     0
  9
$INSUNITS
 70
     0
  9
$HYPERLINKBASE
  1

  9
$STYLESHEET
  1

  9
$XEDIT
290
     1
  9
$CEPSNTYPE
380
     0
  9
$PSTYLEMODE
290
     1
  9
$FINGERPRINTGUID
  2
{81491905-CD26-11D5-BE3F-00508B5FCD51}
  9
$VERSIONGUID
  2
{32931695-5182-490D-997D-C7D203238A55}
  9
$EXTNAMES
290
     1
  9
$PSVPSCALE
 40
0.0
  9
$OLESTARTUP
290
     0
  0
ENDSEC
  0
SECTION
  2
CLASSES
  0
CLASS
  1
DICTIONARYVAR
  2
AcDbDictionaryVar
  3
AutoCAD 2000
 90
        0
280
     0
281
     0
  0
CLASS
  1
ACDBDICTIONARYWDFLT
  2
AcDbDictionaryWithDefault
  3
AutoCAD 2000
 90
        0
280
     0
281
     0
  0
CLASS
  1
ACDBPLACEHOLDER
  2
AcDbPlaceHolder
  3
ObjectDBX Classes
 90
        0
280
     0
281
     0
  0
CLASS
  1
LAYOUT
  2
AcDbLayout
  3
ObjectDBX Classes
 90
        0
280
     0
281
     0
  0
CLASS
  1
LONG_TRANSACTION
  2
AcDbLongTransaction
  3
ObjectDBX Classes
 90
   -65536
280
     1
281
     0
  0
CLASS
  1
LWPOLYLINE
  2
AcDbPolyline
  3
AutoCAD 2000
 90
        0
280
     0
281
     1
  0
CLASS
  1
HATCH
  2
AcDbHatch
  3
AutoCAD 2000
 90
        0
280
     0
281
     1
  0
CLASS
  1
XRECORD
  2
AcDbXrecord
  3
AutoCAD 2000
 90
        0
280
     0
281
     0
  0
CLASS
  1
LONG_TRANSACTION
  2
AcDbLongTransaction
  3
ObjectDBX Classes
 90
   -65536
280
     1
281
     0
  0
CLASS
  1
LWPOLYLINE
  2
AcDbPolyline
  3
AutoCAD 2000
 90
        0
280
     0
281
     1
  0
CLASS
  1
HATCH
  2
AcDbHatch
  3
AutoCAD 2000
 90
        0
280
     0
281
     1
  0
CLASS
  1
XRECORD
  2
AcDbXrecord
  3
AutoCAD 2000
 90
        0
280
     0
281
     0
  0
CLASS
  1
TABLESTYLE
  2
AcDbTableStyle
  3
ObjectDBX Classes
 90
     2047
280
     1
281
     0
  0
ENDSEC
  0
SECTION
  2
TABLES
  0
TABLE
  2
VPORT
  5
1D
330
0
100
AcDbSymbolTable
 70
     3
  0
VPORT
  5
426
330
1D
100
AcDbSymbolTableRecord
100
AcDbViewportTableRecord
  2
*Active
 70
     0
 10
0.0
 20
0.0
 11
1.0
 21
1.0
 12
3.238069924893459
 22
7.789584780617023
 13
0.0
 23
0.0
 14
0.063
 24
0.063
 15
0.25
 25
0.25
 16
0.0
 26
0.0
 36
1.0
 17
0.0
 27
0.0
 37
0.0
 40
18.33889431451991
 41
1.814583333333333
 42
50.0
 43
0.0
 44
0.0
 50
0.0
 51
0.0
 71
     0
 72
   100
 73
     1
 74
     0
 75
     0
 76
     0
 77
     0
 78
     0
281
     0
 65
     1
110
0.0
120
0.0
130
0.0
111
1.0
121
0.0
131
0.0
112
0.0
122
1.0
132
0.0
 79
     0
146
0.0
  0
ENDTAB
  0
TABLE
  2
LTYPE
  5
18
330
0
100
AcDbSymbolTable
 70
     2
  0
LTYPE
  5
19
330
18
100
AcDbSymbolTableRecord
100
AcDbLinetypeTableRecord
  2
BYBLOCK
 70
     0
  3

 72
    65
 73
     0
 40
0.0
  0
LTYPE
  5
1A
330
18
100
AcDbSymbolTableRecord
100
AcDbLinetypeTableRecord
  2
BYLAYER
 70
     0
  3

 72
    65
 73
     0
 40
0.0
  0
LTYPE
  5
A
330
18
100
AcDbSymbolTableRecord
100
AcDbLinetypeTableRecord
  2
CONTINUOUS
 70
     0
  3
Solid line
 72
    65
 73
     0
 40
0.0
  0
LTYPE
  5
1FC
330
18
100
AcDbSymbolTableRecord
100
AcDbLinetypeTableRecord
  2
HIDDEN
 70
     0
  3
_ _ _ _ _ _ _ _ _ _ _ _ _ _ _ _ _ _ _ _ _ _ _
 72
    65
 73
     2
 40
0.375
 49
0.25
 74
     0
 49
-0.125
 74
     0
  0
ENDTAB
  0
TABLE
  2
LAYER
  5
14
102
{ACAD_XDICTIONARY
360
3FE
102
}
330
0
100
AcDbSymbolTable
 70
     2
  0
LAYER
  5
6
330
14
100
AcDbSymbolTableRecord
100
AcDbLayerTableRecord
  2
0
 70
     0
 62
     7
  6
CONTINUOUS
370
    -3
390
7
  0
LAYER
  5
1FF
330
14
100
AcDbSymbolTableRecord
100
AcDbLayerTableRecord
  2
BORDER
 70
     0
 62
     7
  6
CONTINUOUS
370
    -3
390
7
  0
ENDTAB
  0
TABLE
  2
STYLE
  5
15
330
0
100
AcDbSymbolTable
 70
     1
  0
STYLE
  5
16
330
15
100
AcDbSymbolTableRecord
100
AcDbTextStyleTableRecord
  2
STANDARD
 70
     0
 40
0.0
 41
1.0
 50
0.0
 71
     0
 42
0.299997
  3
TXT
  4

  0
ENDTAB
  0
TABLE
  2
VIEW
  5
1B
330
0
100
AcDbSymbolTable
 70
     0
  0
ENDTAB
  0
TABLE
  2
UCS
  5
1C
330
0
100
AcDbSymbolTable
 70
     0
  0
ENDTAB
  0
TABLE
  2
APPID
  5
1F
330
0
100
AcDbSymbolTable
 70
     1
  0
APPID
  5
20
330
1F
100
AcDbSymbolTableRecord
100
AcDbRegAppTableRecord
  2
ACAD
 70
     0
  0
ENDTAB
  0
TABLE
  2
DIMSTYLE
  5
21
330
0
100
AcDbSymbolTable
 70
     1
100
AcDbDimStyleTable
  0
DIMSTYLE
105
28
330
21
100
AcDbSymbolTableRecord
100
AcDbDimStyleTableRecord
  2
STANDARD
 70
     0
  3

  4

340
16
  0
ENDTAB
  0
TABLE
  2
BLOCK_RECORD
  5
1
330
0
100
AcDbSymbolTable
 70
     2
  0
BLOCK_RECORD
  5
2
330
1
100
AcDbSymbolTableRecord
100
AcDbBlockTableRecord
  2
*MODEL_SPACE
340
C
  0
BLOCK_RECORD
  5
E
330
1
100
AcDbSymbolTableRecord
100
AcDbBlockTableRecord
  2
*PAPER_SPACE
340
13
  0
BLOCK_RECORD
  5
1EC
330
1
100
AcDbSymbolTableRecord
100
AcDbBlockTableRecord
  2
03A1T179
340
0
102
{BLKREFS
331
3B9
331
3BA
331
3BB
331
3C1
331
3C2
331
3C3
102
}
  0
BLOCK_RECORD
  5
1F5
330
1
100
AcDbSymbolTableRecord
100
AcDbBlockTableRecord
  2
03A1T181
340
0
  0
ENDTAB
  0
ENDSEC
  0
SECTION
  2
BLOCKS
  0
BLOCK
  5
5
330
2
100
AcDbEntity
  8
0
100
AcDbBlockBegin
  2
*MODEL_SPACE
 70
     0
 10
0.0
 20
0.0
 30
0.0
  3
*MODEL_SPACE
  1

  4

  0
ENDBLK
  5
B
330
2
100
AcDbEntity
  8
0
100
AcDbBlockEnd
  0
BLOCK
  5
11
330
E
100
AcDbEntity
 67
     1
  8
0
100
AcDbBlockBegin
  2
*PAPER_SPACE
 70
     0
 10
0.0
 20
0.0
 30
0.0
  3
*PAPER_SPACE
  1

  4

  0
ENDBLK
  5
12
330
E
100
AcDbEntity
 67
     1
  8
0
100
AcDbBlockEnd
  0
BLOCK
  5
1F3
330
1EC
100
AcDbEntity
  8
0
100
AcDbBlockBegin
  2
03A1T179
 70
     0
 10
115.601269
 20
404.185432
 30
0.0
  3
03A1T179
  1

  4

  0
LINE
  5
1ED
330
1EC
100
AcDbEntity
  8
BORDER
100
AcDbLine
 10
115.679269
 20
404.43298
 30
0.0
 11
115.679269
 21
404.26098
 31
0.0
  0
LINE
  5
1EE
330
1EC
100
AcDbEntity
  8
BORDER
100
AcDbLine
 10
115.601269
 20
404.18298
 30
0.0
 11
115.601019
 21
404.18298
 31
0.0
  0
LINE
  5
1EF
330
1EC
100
AcDbEntity
  8
BORDER
100
AcDbLine
 10
115.523019
 20
404.26098
 30
0.0
 11
115.523019
 21
404.43298
 31
0.0
  0
ARC
  5
1F0
330
1EC
100
AcDbEntity
  8
BORDER
100
AcDbCircle
 10
115.601269
 20
404.26098
 30
0.0
 40
0.078
100
AcDbArc
 50
270.0
 51
0.0
  0
ARC
  5
1F1
330
1EC
100
AcDbEntity
  8
BORDER
100
AcDbCircle
 10
115.601019
 20
404.26098
 30
0.0
 40
0.078
100
AcDbArc
 50
180.0
 51
270.0
  0
ARC
  5
1F2
330
1EC
100
AcDbEntity
  8
BORDER
100
AcDbCircle
 10
115.601458
 20
404.384831
 30
0.0
 40
0.105727
100
AcDbArc
 50
224.529466
 51
313.593114
  0
ENDBLK
  5
1F4
330
1EC
100
AcDbEntity
  8
0
100
AcDbBlockEnd
  0
BLOCK
  5
1FA
330
1F5
100
AcDbEntity
  8
0
100
AcDbBlockBegin
  2
03A1T181
 70
     0
 10
115.340838
 20
404.414012
 30
0.0
  3
03A1T181
  1

  4

  0
LINE
  5
1F6
330
1F5
100
AcDbEntity
  8
0
100
AcDbLine
 10
115.185005
 20
404.569844
 30
0.0
 11
115.163392
 21
404.548906
 31
0.0
  0
LINE
  5
1F7
330
1F5
100
AcDbEntity
  8
0
100
AcDbLine
 10
115.163392
 20
404.548906
 30
0.0
 11
115.322766
 21
404.388896
 31
0.0
  0
LINE
  5
1F8
330
1F5
100
AcDbEntity
  8
0
100
AcDbLine
 10
115.340838
 20
404.414012
 30
0.0
 11
115.185005
 21
404.569844
 31
0.0
  0
ARC
  5
1F9
330
1F5
100
AcDbEntity
  8
0
100
AcDbCircle
 10
115.278838
 20
404.345143
 30
0.0
 40
0.062
100
AcDbArc
 50
0.0
 51
44.885873
  0
ENDBLK
  5
1FB
330
1F5
100
AcDbEntity
  8
0
100
AcDbBlockEnd
  0
ENDSEC
  0
SECTION
  2
ENTITIES
  0
LINE
  5
3A7
330
2
100
AcDbEntity
  8
0
100
AcDbLine
 10
1.793003911730929
 20
0.6318529999999996
 30
0.0
 11
0.6070019117309293
 21
2.292255000000004
 31
0.0
  0
LINE
  5
3A8
330
2
100
AcDbEntity
  8
0
100
AcDbLine
 10
-0.359571088269071
 20
0.9137370000000047
 30
0.0
 11
-0.359571088269071
 21
5.465327631382284
 31
0.0
  0
LINE
  5
3A9
330
2
100
AcDbEntity
  8
0
100
AcDbLine
 10
-0.4295710882690713
 20
0.9866499999999974
 30
0.0
 11
-0.4295710882690749
 21
5.45032767820846
 31
0.0
  0
LINE
  5
3AA
330
2
100
AcDbEntity
  8
0
100
AcDbLine
 10
-0.2069960882690722
 20
0.6400450000000006
 30
0.0
 11
-0.3246460882690698
 21
0.8047550000000001
 31
0.0
  0
LINE
  5
3AB
330
2
100
AcDbEntity
  8
0
  6
HIDDEN
100
AcDbLine
 10
-0.172071088269071
 20
0.0624409999999997
 30
0.0
 11
1.82792891173093
 21
0.0624409999999997
 31
0.0
  0
LINE
  5
3AC
330
2
100
AcDbEntity
  8
0
100
AcDbLine
 10
-0.172071088269071
 20
-0.0075590000000005
 30
0.0
 11
1.82792891173093
 21
-0.0075590000000005
 31
0.0
  0
LINE
  5
3AD
330
2
100
AcDbEntity
  8
0
100
AcDbLine
 10
1.82792891173093
 20
-0.0075590000000005
 30
0.0
 11
1.82792891173093
 21
0.5228710000000021
 31
0.0
  0
ARC
  5
3AE
330
2
100
AcDbEntity
  8
0
100
AcDbCircle
 10
1.64042891173093
 20
0.5228710000000021
 30
0.0
 40
0.1875
100
AcDbArc
 50
0.000000000000007
 51
35.53767800000001
  0
LINE
  5
3AF
330
2
100
AcDbEntity
  8
0
100
AcDbLine
 10
-0.172071088269071
 20
0.0624409999999997
 30
0.0
 11
-0.172071088269071
 21
0.5310629999999996
 31
0.0
  0
LINE
  5
3B0
330
2
100
AcDbEntity
  8
0
100
AcDbLine
 10
-0.172071088269071
 20
-0.0075590000000005
 30
0.0
 11
-0.172071088269071
 21
0.5280670000000001
 31
0.0
  0
ARC
  5
3B1
330
2
100
AcDbEntity
  8
0
100
AcDbCircle
 10
-0.359571088269071
 20
0.5310629999999996
 30
0.0
 40
0.1875
100
AcDbArc
 50
0.000000000000007
 51
35.53767800000001
  0
ARC
  5
3B2
330
2
100
AcDbEntity
  8
0
100
AcDbCircle
 10
-0.172071088269071
 20
0.9137370000000047
 30
0.0
 40
0.1875
100
AcDbArc
 50
180.0
 51
215.537678
  0
LINE
  5
3B3
330
2
100
AcDbEntity
  8
0
100
AcDbLine
 10
-0.3803140882690705
 20
0.8599800000000002
 30
0.0
 11
-0.3218730882690686
 21
0.7961999999999989
 31
0.0
  0
ARC
  5
3B4
330
2
100
AcDbEntity
  8
0
100
AcDbCircle
 10
-0.2420710882690713
 20
0.9866499999999974
 30
0.0
 40
0.1875
100
AcDbArc
 50
180.0
 51
222.4987500000001
  0
LINE
  5
3B5
330
2
100
AcDbEntity
  8
0
100
AcDbLine
 10
0.5720769117309317
 20
5.062441
 30
0.0
 11
-0.359571088269071
 21
5.062441
 31
0.0
  0
LINE
  5
3B6
330
2
100
AcDbEntity
  8
0
100
AcDbLine
 10
0.8737859117309315
 20
3.430078999999999
 30
0.0
 11
0.8737859117309315
 21
4.030079000000001
 31
0.0
  0
LINE
  5
3B7
330
2
100
AcDbEntity
  8
0
100
AcDbLine
 10
0.8737859117309315
 20
3.430078999999999
 30
0.0
 11
0.8737859117309315
 21
4.030079000000001
 31
0.0
  0
LINE
  5
3B8
330
2
100
AcDbEntity
  8
0
100
AcDbLine
 10
0.5720769117309317
 20
2.401237000000002
 30
0.0
 11
0.5720769117309317
 21
3.091149999999999
 31
0.0
  0
INSERT
  5
3B9
330
2
100
AcDbEntity
  8
0
100
AcDbBlockReference
  2
03A1T179
 10
0.6713339117309216
 20
1.298642999999991
 30
0.0
 50
90.0
  0
INSERT
  5
3BA
330
2
100
AcDbEntity
  8
0
100
AcDbBlockReference
  2
03A1T179
 10
0.6713339117309216
 20
1.298642999999991
 30
0.0
 50
90.0
  0
INSERT
  5
3BB
330
2
100
AcDbEntity
  8
0
100
AcDbBlockReference
  2
03A1T179
 10
0.6713339117309216
 20
1.298642999999991
 30
0.0
 50
90.0
  0
ARC
  5
3BC
330
2
100
AcDbEntity
  8
0
100
AcDbCircle
 10
0.7595769117309326
 20
2.401237000000002
 30
0.0
 40
0.1875
100
AcDbArc
 50
180.0
 51
215.537678
  0
ARC
  5
3BD
330
2
100
AcDbEntity
  8
0
100
AcDbCircle
 10
0.7498672715960408
 20
3.05690709764022
 30
0.0
 40
0.1810579697858839
100
AcDbArc
 50
100.5174329990504
 51
169.0981742541737
  0
ARC
  5
3BE
330
2
100
AcDbEntity
  8
0
100
AcDbCircle
 10
0.6730679117309331
 20
3.430078999999999
 30
0.0
 40
0.2
100
AcDbArc
 50
282.635625
 51
0.000000000000007
  0
ARC
  5
3BF
330
2
100
AcDbEntity
  8
0
100
AcDbCircle
 10
0.6730679117309331
 20
3.430078999999999
 30
0.0
 40
0.2
100
AcDbArc
 50
282.635625
 51
0.000000000000007
  0
LINE
  5
3C0
330
2
100
AcDbEntity
  8
0
100
AcDbLine
 10
0.5720769117309317
 20
4.401237000000002
 30
0.0
 11
0.5720769117309317
 21
5.062441
 31
0.0
  0
INSERT
  5
3C1
330
2
100
AcDbEntity
  8
0
100
AcDbBlockReference
  2
03A1T179
 10
0.6713339117309252
 20
3.65594500000001
 30
0.0
 50
90.0
  0
INSERT
  5
3C2
330
2
100
AcDbEntity
  8
0
100
AcDbBlockReference
  2
03A1T179
 10
0.6713339117309252
 20
3.65594500000001
 30
0.0
 50
90.0
  0
INSERT
  5
3C3
330
2
100
AcDbEntity
  8
0
100
AcDbBlockReference
  2
03A1T179
 10
0.6713339117309252
 20
3.65594500000001
 30
0.0
 50
90.0
  0
ARC
  5
3C4
330
2
100
AcDbEntity
  8
0
100
AcDbCircle
 10
0.7622000480030691
 20
4.411704971976661
 30
0.0
 40
0.1904110957461674
100
AcDbArc
 50
183.151461001604
 51
258.3226817529466
  0
ARC
  5
3C5
330
2
100
AcDbEntity
  8
0
100
AcDbCircle
 10
0.7622000480030691
 20
4.411704971976661
 30
0.0
 40
0.1904110957461674
100
AcDbArc
 50
183.151461001604
 51
258.3226817529466
  0
ARC
  5
3C6
330
2
100
AcDbEntity
  8
0
100
AcDbCircle
 10
0.7622000480030691
 20
4.411704971976661
 30
0.0
 40
0.1904110957461674
100
AcDbArc
 50
183.151461001604
 51
258.3226817529466
  0
ARC
  5
3C7
330
2
100
AcDbEntity
  8
0
100
AcDbCircle
 10
0.6737859117309322
 20
4.030079000000001
 30
0.0
 40
0.2
100
AcDbArc
 50
0.000000000000007
 51
77.36437500000004
  0
ARC
  5
3C8
330
2
100
AcDbEntity
  8
0
100
AcDbCircle
 10
0.6737859117309322
 20
4.030079000000001
 30
0.0
 40
0.2
100
AcDbArc
 50
0.000000000000007
 51
77.36437500000004
  0
ARC
  5
3C9
330
2
100
AcDbEntity
  8
0
100
AcDbCircle
 10
0.6737859117309322
 20
4.030079000000001
 30
0.0
 40
0.2
100
AcDbArc
 50
0.000000000000007
 51
77.36437500000004
  0
LINE
  5
3CA
330
2
100
AcDbEntity
  8
0
100
AcDbLine
 10
-0.484571088269071
 20
5.590327631382284
 30
0.0
 11
-1.93738131041691
 21
5.590327631382284
 31
0.0
  0
LINE
  5
3CB
330
2
100
AcDbEntity
  8
0
100
AcDbLine
 10
-0.4995710882690716
 20
5.520327631382283
 30
0.0
 11
-1.93738131041691
 21
5.520327631382283
 31
0.0
  0
ARC
  5
3CC
330
2
100
AcDbEntity
  8
0
100
AcDbCircle
 10
-0.484571088269071
 20
5.465327631382284
 30
0.0
 40
0.125
100
AcDbArc
 50
0.000000000000007
 51
90.0
  0
ARC
  5
3CD
330
2
100
AcDbEntity
  8
0
100
AcDbCircle
 10
-0.4995710882690716
 20
5.450327631382287
 30
0.0
 40
0.07
100
AcDbArc
 50
0.000000000000007
 51
90.0
  0
LINE
  5
3CE
330
2
100
AcDbEntity
  8
0
100
AcDbLine
 10
-1.93738131041691
 20
5.590327631382284
 30
0.0
 11
-1.93738131041691
 21
5.531335631382284
 31
0.0
  0
ENDSEC
  0
SECTION
  2
OBJECTS
  0
DICTIONARY
  5
9
330
0
100
AcDbDictionary
281
     1
  3
ACAD_COLOR
350
3DD
  3
ACAD_GROUP
350
23
  3
ACAD_LAYOUT
350
D
  3
ACAD_MATERIAL
350
3DC
  3
ACAD_MLINESTYLE
350
24
  3
ACAD_PLOTSETTINGS
350
25
  3
ACAD_PLOTSTYLENAME
350
8
  3
ACAD_TABLESTYLE
350
3DE
  3
ACDBHEADERROUNDTRIPXREC
350
42D
  3
AcDbVariableDictionary
350
111
  0
DICTIONARY
  5
3FE
330
14
100
AcDbDictionary
280
     1
281
     1
  3
ACAD_LAYERFILTERS
360
410
  3
ACLYDICTIONARY
360
40F
  0
DICTIONARY
  5
3DD
102
{ACAD_REACTORS
330
9
102
}
330
9
100
AcDbDictionary
281
     1
  0
DICTIONARY
  5
23
102
{ACAD_REACTORS
330
9
102
}
330
9
100
AcDbDictionary
281
     1
  0
DICTIONARY
  5
D
102
{ACAD_REACTORS
330
9
102
}
330
9
100
AcDbDictionary
281
     1
  3
Layout1
350
13
  3
Model
350
C
  0
DICTIONARY
  5
3DC
102
{ACAD_REACTORS
330
9
102
}
330
9
100
AcDbDictionary
281
     1
  0
DICTIONARY
  5
24
102
{ACAD_REACTORS
330
9
102
}
330
9
100
AcDbDictionary
281
     1
  3
STANDARD
350
27
  0
DICTIONARY
  5
25
102
{ACAD_REACTORS
330
9
102
}
330
9
100
AcDbDictionary
281
     1
  0
ACDBDICTIONARYWDFLT
  5
8
102
{ACAD_REACTORS
330
9
102
}
330
9
100
AcDbDictionary
281
     1
  3
Normal
350
7
100
AcDbDictionaryWithDefault
340
7
  0
DICTIONARY
  5
3DE
102
{ACAD_REACTORS
330
9
102
}
330
9
100
AcDbDictionary
281
     1
  3
Standard
350
3DF
  0
DICTIONARY
  5
42D
102
{ACAD_REACTORS
330
9
102
}
330
9
100
AcDbDictionary
281
     1
  3
COLORDICT
350
42E
  3
MATERIALDICT
350
42F
  0
DICTIONARY
  5
111
102
{ACAD_REACTORS
330
9
102
}
330
9
100
AcDbDictionary
281
     1
  3
CTABLESTYLE
350
3F9
  3
HIDETEXT
350
42C
  0
DICTIONARY
  5
410
102
{ACAD_REACTORS
330
3FE
102
}
330
3FE
100
AcDbDictionary
281
     1
  0
DICTIONARY
  5
40F
102
{ACAD_REACTORS
330
3FE
102
}
330
3FE
100
AcDbDictionary
281
     1
1001
ACAD
1000
<All
  0
LAYOUT
  5
13
102
{ACAD_REACTORS
330
D
102
}
102
{ACAD_XDICTIONARY
360
430
102
}
330
D
100
AcDbPlotSettings
  1

  2
HP LaserJet 2100 Series PS
  4

  6

 40
0.0
 41
0.0
 42
0.0
 43
0.0
 44
0.0
 45
0.0
 46
0.0
 47
0.0
 48
0.0
 49
0.0
140
0.0
141
0.0
142
1.0
143
1.0
 70
   688
 72
     0
 73
     0
 74
     5
  7

 75
    16
147
1.0
148
0.0
149
0.0
100
AcDbLayout
  1
Layout1
 70
     0
 71
     1
 10
0.0
 20
0.0
 11
12.0
 21
9.0
 12
0.0
 22
0.0
 32
0.0
 14
1.000000000000000E+20
 24
1.000000000000000E+20
 34
1.000000000000000E+20
 15
-1.000000000000000E+20
 25
-1.000000000000000E+20
 35
-1.000000000000000E+20
146
0.0
 13
0.0
 23
0.0
 33
0.0
 16
1.0
 26
0.0
 36
0.0
 17
0.0
 27
1.0
 37
0.0
 76
     0
330
E
  0
LAYOUT
  5
C
102
{ACAD_REACTORS
330
D
102
}
102
{ACAD_XDICTIONARY
360
432
102
}
330
D
100
AcDbPlotSettings
  1

  2
HP LaserJet 2100 Series PS
  4
Letter
  6

 40
5.365749835968018
 41
5.408084392547607
 42
5.4080810546875
 43
5.365753173828125
 44
215.8999938964844
 45
279.3999938964844
 46
0.0
 47
0.0
 48
0.0
 49
0.0
140
0.0
141
0.0
142
1.0
143
1.0
 70
 11952
 72
     0
 73
     1
 74
     0
  7

 75
     0
147
1.0
148
-129.4832791077244
149
4.885150943139587
100
AcDbLayout
  1
Model
 70
     1
 71
     0
 10
0.0
 20
0.0
 11
12.0
 21
9.0
 12
0.0
 22
0.0
 32
0.0
 14
0.0
 24
0.0
 34
0.0
 15
0.0
 25
0.0
 35
0.0
146
0.0
 13
0.0
 23
0.0
 33
0.0
 16
1.0
 26
0.0
 36
0.0
 17
0.0
 27
1.0
 37
0.0
 76
     0
330
2
  0
MLINESTYLE
  5
27
102
{ACAD_REACTORS
330
24
102
}
330
24
100
AcDbMlineStyle
  2
STANDARD
 70
     0
  3

 62
   256
 51
90.0
 52
90.0
 71
     2
 49
0.5
 62
   256
  6
BYLAYER
 49
-0.5
 62
   256
  6
BYLAYER
  0
ACDBPLACEHOLDER
  5
7
102
{ACAD_REACTORS
330
8
102
}
330
8
  0
ACAD_PROXY_OBJECT
  5
3DF
102
{ACAD_REACTORS
330
3DE
102
}
330
3DE
100
AcDbProxyObject
 90
      499
 91
      512
 95
   983063
 70
     0
 93
     1841
310
4214DD185B99185C9928B81E85EB51B8AE3F2E07A17AD46E2B8FC02B5E8DC0F42B1CFD028000000C1008070000C3001FDFF8000000C1003FBFF000000182007F7FE00000030400FEFFC00000060801FDFF8000000C1003FBFF00000018200000000000000681FA0B0000001820100E000186003FBFF000000182007F7FE000
310
00030400FEFFC00000060801FDFF8000000C1003FBFF000000182007F7FE000000304000AD7A3703D0AC73F4160000003040201C00030C007F7FE00000030400FEFFC00000060801FDFF8000000C1003FBFF000000182007F7FE00000030400FEFFC000000608000
340
16
340
16
340
16
 94
        0
  0
XRECORD
  5
42E
102
{ACAD_REACTORS
330
42D
102
}
330
42D
100
AcDbXrecord
340
3DD
  0
XRECORD
  5
42F
102
{ACAD_REACTORS
330
42D
102
}
330
42D
100
AcDbXrecord
340
3DC
  0
DICTIONARYVAR
  5
3F9
102
{ACAD_REACTORS
330
111
102
}
330
111
100
DictionaryVariables
280
     0
  1
STANDARD
  0
DICTIONARYVAR
  5
42C
102
{ACAD_REACTORS
330
111
102
}
330
111
100
DictionaryVariables
280
     0
  1
0
  0
DICTIONARY
  5
430
330
13
100
AcDbDictionary
280
     1
281
     1
  3
ACAD_XREC_ROUNDTRIP
360
431
  0
DICTIONARY
  5
432
330
C
100
AcDbDictionary
280
     1
281
     1
  3
ACAD_XREC_ROUNDTRIP
360
433
  0
XRECORD
  5
431
102
{ACAD_REACTORS
330
430
102
}
330
430
100
AcDbXrecord
102
SHADEPLOT
 70
     0
102
SHADEPLOTRESLEVEL
 70
     2
102
SHADEPLOTCUSTOMDPI
 70
   300
  0
XRECORD
  5
433
102
{ACAD_REACTORS
330
432
102
}
330
432
100
AcDbXrecord
102
SHADEPLOT
 70
     0
102
SHADEPLOTRESLEVEL
 70
     2
102
SHADEPLOTCUSTOMDPI
 70
   300
  0
ENDSEC
  0
EOF
