  0
SECTION
  2
HEADER
  9
$ACADVER
  1
AC1015
  9
$ACADMAINTVER
 70
     6
  9
$DWGCODEPAGE
  3
ANSI_1252
  9
$INSBASE
 10
0.0
 20
0.0
 30
0.0
  9
$EXTMIN
 10
-9.075276154090972
 20
-0.029296255526809
 30
-0.0000000000112498
  9
$EXTMAX
 10
9.075700011619574
 20
12.32148675432463
 30
0.0000000000002956
  9
$LIMMIN
 10
0.0
 20
0.0
  9
$LIMMAX
 10
26.25
 20
20.0
  9
$ORTHOMODE
 70
     1
  9
$REGENMODE
 70
     1
  9
$FILLMODE
 70
     1
  9
$QTEXTMODE
 70
     0
  9
$MIRRTEXT
 70
     0
  9
$LTSCALE
 40
1.0
  9
$ATTMODE
 70
     1
  9
$TEXTSIZE
 40
0.225
  9
$TRACEWID
 40
0.05
  9
$TEXTSTYLE
  7
STANDARD
  9
$CLAYER
  8
0
  9
$CELTYPE
  6
BYLAYER
  9
$CECOLOR
 62
   256
  9
$CELTSCALE
 40
1.0
  9
$DISPSILH
 70
     0
  9
$DIMSCALE
 40
2.5
  9
$DIMASZ
 40
0.125
  9
$DIMEXO
 40
0.062
  9
$DIMDLI
 40
0.375
  9
$DIMRND
 40
0.0
  9
$DIMDLE
 40
0.0
  9
$DIMEXE
 40
0.08
  9
$DIMTP
 40
0.0
  9
$DIMTM
 40
0.0
  9
$DIMTXT
 40
0.09
  9
$DIMCEN
 40
-0.03125
  9
$DIMTSZ
 40
0.0
  9
$DIMTOL
 70
     0
  9
$DIMLIM
 70
     0
  9
$DIMTIH
 70
     1
  9
$DIMTOH
 70
     1
  9
$DIMSE1
 70
     0
  9
$DIMSE2
 70
     0
  9
$DIMTAD
 70
     0
  9
$DIMZIN
 70
     0
  9
$DIMBLK
  1

  9
$DIMASO
 70
     0
  9
$DIMSHO
 70
     0
  9
$DIMPOST
  1

  9
$DIMAPOST
  1

  9
$DIMALT
 70
     0
  9
$DIMALTD
 70
     2
  9
$DIMALTF
 40
25.4
  9
$DIMLFAC
 40
1.0
  9
$DIMTOFL
 70
     0
  9
$DIMTVP
 40
0.0
  9
$DIMTIX
 70
     0
  9
$DIMSOXD
 70
     0
  9
$DIMSAH
 70
     0
  9
$DIMBLK1
  1

  9
$DIMBLK2
  1

  9
$DIMSTYLE
  2
STANDARD
  9
$DIMCLRD
 70
     0
  9
$DIMCLRE
 70
     0
  9
$DIMCLRT
 70
     0
  9
$DIMTFAC
 40
1.0
  9
$DIMGAP
 40
0.08984375
  9
$DIMJUST
 70
     0
  9
$DIMSD1
 70
     0
  9
$DIMSD2
 70
     0
  9
$DIMTOLJ
 70
     1
  9
$DIMTZIN
 70
     0
  9
$DIMALTZ
 70
     0
  9
$DIMALTTZ
 70
     0
  9
$DIMUPT
 70
     0
  9
$DIMDEC
 70
     5
  9
$DIMTDEC
 70
     6
  9
$DIMALTU
 70
     5
  9
$DIMALTTD
 70
     2
  9
$DIMTXSTY
  7
STANDARD
  9
$DIMAUNIT
 70
     0
  9
$DIMADEC
 70
     0
  9
$DIMALTRND
 40
0.0
  9
$DIMAZIN
 70
     0
  9
$DIMDSEP
 70
    46
  9
$DIMATFIT
 70
     3
  9
$DIMFRAC
 70
     2
  9
$DIMLDRBLK
  1

  9
$DIMLUNIT
 70
     5
  9
$DIMLWD
 70
    -2
  9
$DIMLWE
 70
    -2
  9
$DIMTMOVE
 70
     2
  9
$LUNITS
 70
     5
  9
$LUPREC
 70
     6
  9
$SKETCHINC
 40
0.1
  9
$FILLETRAD
 40
0.14
  9
$AUNITS
 70
     0
  9
$AUPREC
 70
     0
  9
$MENU
  1
acad
  9
$ELEVATION
 40
0.0
  9
$PELEVATION
 40
0.0
  9
$THICKNESS
 40
0.0
  9
$LIMCHECK
 70
     0
  9
$CHAMFERA
 40
0.0
  9
$CHAMFERB
 40
0.0
  9
$CHAMFERC
 40
0.0
  9
$CHAMFERD
 40
0.0
  9
$SKPOLY
 70
     0
  9
$TDCREATE
 40
2449882.993369444
  9
$TDUCREATE
 40
2449883.326702778
  9
$TDUPDATE
 40
2454166.815679329
  9
$TDUUPDATE
 40
2454167.149012662
  9
$TDINDWG
 40
0.0858346528
  9
$TDUSRTIMER
 40
0.0858346528
  9
$USRTIMER
 70
     1
  9
$ANGBASE
 50
0.0
  9
$ANGDIR
 70
     0
  9
$PDMODE
 70
     0
  9
$PDSIZE
 40
0.0
  9
$PLINEWID
 40
0.0
  9
$SPLFRAME
 70
     0
  9
$SPLINETYPE
 70
     6
  9
$SPLINESEGS
 70
     8
  9
$HANDSEED
  5
289
  9
$SURFTAB1
 70
     6
  9
$SURFTAB2
 70
     6
  9
$SURFTYPE
 70
     6
  9
$SURFU
 70
     6
  9
$SURFV
 70
     6
  9
$UCSBASE
  2

  9
$UCSNAME
  2

  9
$UCSORG
 10
0.0
 20
0.0
 30
0.0
  9
$UCSXDIR
 10
1.0
 20
0.0
 30
0.0
  9
$UCSYDIR
 10
0.0
 20
1.0
 30
0.0
  9
$UCSORTHOREF
  2

  9
$UCSORTHOVIEW
 70
     0
  9
$UCSORGTOP
 10
0.0
 20
0.0
 30
0.0
  9
$UCSORGBOTTOM
 10
0.0
 20
0.0
 30
0.0
  9
$UCSORGLEFT
 10
0.0
 20
0.0
 30
0.0
  9
$UCSORGRIGHT
 10
0.0
 20
0.0
 30
0.0
  9
$UCSORGFRONT
 10
0.0
 20
0.0
 30
0.0
  9
$UCSORGBACK
 10
0.0
 20
0.0
 30
0.0
  9
$PUCSBASE
  2

  9
$PUCSNAME
  2

  9
$PUCSORG
 10
0.0
 20
0.0
 30
0.0
  9
$PUCSXDIR
 10
1.0
 20
0.0
 30
0.0
  9
$PUCSYDIR
 10
0.0
 20
1.0
 30
0.0
  9
$PUCSORTHOREF
  2

  9
$PUCSORTHOVIEW
 70
     0
  9
$PUCSORGTOP
 10
0.0
 20
0.0
 30
0.0
  9
$PUCSORGBOTTOM
 10
0.0
 20
0.0
 30
0.0
  9
$PUCSORGLEFT
 10
0.0
 20
0.0
 30
0.0
  9
$PUCSORGRIGHT
 10
0.0
 20
0.0
 30
0.0
  9
$PUCSORGFRONT
 10
0.0
 20
0.0
 30
0.0
  9
$PUCSORGBACK
 10
0.0
 20
0.0
 30
0.0
  9
$USERI1
 70
     0
  9
$USERI2
 70
     0
  9
$USERI3
 70
     0
  9
$USERI4
 70
     0
  9
$USERI5
 70
     0
  9
$USERR1
 40
0.0
  9
$USERR2
 40
0.0
  9
$USERR3
 40
0.0
  9
$USERR4
 40
0.0
  9
$USERR5
 40
0.0
  9
$WORLDVIEW
 70
     1
  9
$SHADEDGE
 70
     3
  9
$SHADEDIF
 70
    70
  9
$TILEMODE
 70
     1
  9
$MAXACTVP
 70
    16
  9
$PINSBASE
 10
0.0
 20
0.0
 30
0.0
  9
$PLIMCHECK
 70
     0
  9
$PEXTMIN
 10
1.000000000000000E+20
 20
1.000000000000000E+20
 30
1.000000000000000E+20
  9
$PEXTMAX
 10
-1.000000000000000E+20
 20
-1.000000000000000E+20
 30
-1.000000000000000E+20
  9
$PLIMMIN
 10
0.0
 20
0.0
  9
$PLIMMAX
 10
12.0
 20
9.0
  9
$UNITMODE
 70
     0
  9
$VISRETAIN
 70
     0
  9
$PLINEGEN
 70
     1
  9
$PSLTSCALE
 70
     0
  9
$TREEDEPTH
 70
  3020
  9
$CMLSTYLE
  2
STANDARD
  9
$CMLJUST
 70
     0
  9
$CMLSCALE
 40
1.0
  9
$PROXYGRAPHICS
 70
     1
  9
$MEASUREMENT
 70
     0
  9
$CELWEIGHT
370
    -1
  9
$ENDCAPS
280
     0
  9
$JOINSTYLE
280
     0
  9
$LWDISPLAY
290
     0
  9
$INSUNITS
 70
     0
  9
$HYPERLINKBASE
  1

  9
$STYLESHEET
  1

  9
$XEDIT
290
     1
  9
$CEPSNTYPE
380
     0
  9
$PSTYLEMODE
290
     1
  9
$FINGERPRINTGUID
  2
{A21F86FD-14AE-48E5-B2EB-E26DC731F8E5}
  9
$VERSIONGUID
  2
{63EAFCD2-FD23-48EB-B9CC-0B3405B78CC2}
  9
$EXTNAMES
290
     1
  9
$PSVPSCALE
 40
0.0
  9
$OLESTARTUP
290
     0
  0
ENDSEC
  0
SECTION
  2
CLASSES
  0
CLASS
  1
DICTIONARYVAR
  2
AcDbDictionaryVar
  3
AutoCAD 2000
 90
        0
280
     0
281
     0
  0
CLASS
  1
LWPOLYLINE
  2
AcDbPolyline
  3
AutoCAD 2000
 90
        0
280
     0
281
     1
  0
CLASS
  1
ACDBDICTIONARYWDFLT
  2
AcDbDictionaryWithDefault
  3
AutoCAD 2000
 90
        0
280
     0
281
     0
  0
CLASS
  1
ACDBPLACEHOLDER
  2
AcDbPlaceHolder
  3
ObjectDBX Classes
 90
        0
280
     0
281
     0
  0
CLASS
  1
LAYOUT
  2
AcDbLayout
  3
ObjectDBX Classes
 90
        0
280
     0
281
     0
  0
CLASS
  1
LONG_TRANSACTION
  2
AcDbLongTransaction
  3
ObjectDBX Classes
 90
   -65536
280
     1
281
     0
  0
CLASS
  1
LWPOLYLINE
  2
AcDbPolyline
  3
AutoCAD 2000
 90
        0
280
     0
281
     1
  0
CLASS
  1
HATCH
  2
AcDbHatch
  3
AutoCAD 2000
 90
        0
280
     0
281
     1
  0
CLASS
  1
XRECORD
  2
AcDbXrecord
  3
AutoCAD 2000
 90
        0
280
     0
281
     0
  0
CLASS
  1
LONG_TRANSACTION
  2
AcDbLongTransaction
  3
ObjectDBX Classes
 90
   -65536
280
     1
281
     0
  0
CLASS
  1
LWPOLYLINE
  2
AcDbPolyline
  3
AutoCAD 2000
 90
        0
280
     0
281
     1
  0
CLASS
  1
HATCH
  2
AcDbHatch
  3
AutoCAD 2000
 90
        0
280
     0
281
     1
  0
CLASS
  1
XRECORD
  2
AcDbXrecord
  3
AutoCAD 2000
 90
        0
280
     0
281
     0
  0
CLASS
  1
TABLESTYLE
  2
AcDbTableStyle
  3
ObjectDBX Classes
 90
     2047
280
     1
281
     0
  0
ENDSEC
  0
SECTION
  2
TABLES
  0
TABLE
  2
VPORT
  5
1D
330
0
100
AcDbSymbolTable
 70
     5
  0
VPORT
  5
279
330
1D
100
AcDbSymbolTableRecord
100
AcDbViewportTableRecord
  2
*Active
 70
     0
 10
0.0
 20
0.0
 11
1.0
 21
1.0
 12
6.981929814370766
 22
8.717905476935194
 13
0.0
 23
0.0
 14
0.063
 24
0.063
 15
0.25
 25
0.25
 16
0.0
 26
0.0
 36
1.0
 17
0.0
 27
0.0
 37
0.0
 40
20.27914195154882
 41
1.814583333333333
 42
50.0
 43
0.0
 44
0.0
 50
0.0
 51
0.0
 71
     0
 72
   100
 73
     1
 74
     0
 75
     0
 76
     0
 77
     0
 78
     0
281
     0
 65
     1
110
0.0
120
0.0
130
0.0
111
1.0
121
0.0
131
0.0
112
0.0
122
1.0
132
0.0
 79
     0
146
0.0
  0
ENDTAB
  0
TABLE
  2
LTYPE
  5
18
330
0
100
AcDbSymbolTable
 70
     2
  0
LTYPE
  5
19
330
18
100
AcDbSymbolTableRecord
100
AcDbLinetypeTableRecord
  2
BYBLOCK
 70
     0
  3

 72
    65
 73
     0
 40
0.0
  0
LTYPE
  5
1A
330
18
100
AcDbSymbolTableRecord
100
AcDbLinetypeTableRecord
  2
BYLAYER
 70
     0
  3

 72
    65
 73
     0
 40
0.0
  0
LTYPE
  5
A
330
18
100
AcDbSymbolTableRecord
100
AcDbLinetypeTableRecord
  2
CONTINUOUS
 70
     0
  3
Solid line
 72
    65
 73
     0
 40
0.0
  0
LTYPE
  5
268
330
18
100
AcDbSymbolTableRecord
100
AcDbLinetypeTableRecord
  2
HIDDEN
 70
     0
  3
Hidden __ __ __ __ __ __ __ __ __ __ __ __ __ _
 72
    65
 73
     2
 40
0.375
 49
0.25
 74
     0
 49
-0.125
 74
     0
  0
ENDTAB
  0
TABLE
  2
LAYER
  5
14
330
0
100
AcDbSymbolTable
 70
     2
  0
LAYER
  5
6
330
14
100
AcDbSymbolTableRecord
100
AcDbLayerTableRecord
  2
0
 70
     0
 62
     7
  6
CONTINUOUS
370
    -3
390
7
  0
ENDTAB
  0
TABLE
  2
STYLE
  5
15
330
0
100
AcDbSymbolTable
 70
     2
  0
STYLE
  5
16
330
15
100
AcDbSymbolTableRecord
100
AcDbTextStyleTableRecord
  2
STANDARD
 70
     0
 40
0.0
 41
1.0
 50
0.0
 71
     0
 42
0.225
  3
TXT
  4

  0
STYLE
  5
267
330
15
100
AcDbSymbolTableRecord
100
AcDbTextStyleTableRecord
  2

 70
     1
 40
0.0
 41
1.0
 50
0.0
 71
     0
 42
0.225
  3
ltypeshp.shx
  4

  0
ENDTAB
  0
TABLE
  2
VIEW
  5
1B
330
0
100
AcDbSymbolTable
 70
     0
  0
ENDTAB
  0
TABLE
  2
UCS
  5
1C
330
0
100
AcDbSymbolTable
 70
     0
  0
ENDTAB
  0
TABLE
  2
APPID
  5
1F
330
0
100
AcDbSymbolTable
 70
     1
  0
APPID
  5
20
330
1F
100
AcDbSymbolTableRecord
100
AcDbRegAppTableRecord
  2
ACAD
 70
     0
  0
ENDTAB
  0
TABLE
  2
DIMSTYLE
  5
21
330
0
100
AcDbSymbolTable
 70
     1
100
AcDbDimStyleTable
  0
DIMSTYLE
105
28
330
21
100
AcDbSymbolTableRecord
100
AcDbDimStyleTableRecord
  2
STANDARD
 70
     0
  3

  4

340
16
  0
ENDTAB
  0
TABLE
  2
BLOCK_RECORD
  5
1
330
0
100
AcDbSymbolTable
 70
     2
  0
BLOCK_RECORD
  5
2
330
1
100
AcDbSymbolTableRecord
100
AcDbBlockTableRecord
  2
*MODEL_SPACE
340
C
  0
BLOCK_RECORD
  5
E
330
1
100
AcDbSymbolTableRecord
100
AcDbBlockTableRecord
  2
*PAPER_SPACE
340
13
  0
ENDTAB
  0
ENDSEC
  0
SECTION
  2
BLOCKS
  0
BLOCK
  5
5
330
2
100
AcDbEntity
  8
0
100
AcDbBlockBegin
  2
*MODEL_SPACE
 70
     0
 10
0.0
 20
0.0
 30
0.0
  3
*MODEL_SPACE
  1

  4

  0
ENDBLK
  5
B
330
2
100
AcDbEntity
  8
0
100
AcDbBlockEnd
  0
BLOCK
  5
11
330
E
100
AcDbEntity
 67
     1
  8
0
100
AcDbBlockBegin
  2
*PAPER_SPACE
 70
     0
 10
0.0
 20
0.0
 30
0.0
  3
*PAPER_SPACE
  1

  4

  0
ENDBLK
  5
12
330
E
100
AcDbEntity
 67
     1
  8
0
100
AcDbBlockEnd
  0
ENDSEC
  0
SECTION
  2
ENTITIES
  0
LINE
  5
EE
330
2
100
AcDbEntity
  8
0
100
AcDbLine
 10
1.785432500000001
 20
2.14
 30
0.0
 11
1.785432500000001
 21
7.070000000000001
 31
0.0
  0
LINE
  5
EF
330
2
100
AcDbEntity
  8
0
100
AcDbLine
 10
-1.855432499999999
 20
2.14
 30
0.0
 11
-1.855432499999999
 21
7.070000000000001
 31
0.0
  0
LINE
  5
F0
330
2
100
AcDbEntity
  8
0
100
AcDbLine
 10
-1.785432499999999
 20
2.14
 30
0.0
 11
-1.785432499999999
 21
7.070000000000001
 31
0.0
  0
LINE
  5
F1
330
2
100
AcDbEntity
  8
0
100
AcDbLine
 10
1.855432500000001
 20
2.14
 30
0.0
 11
1.855432500000001
 21
7.070000000000001
 31
0.0
  0
ARC
  5
F2
330
2
100
AcDbEntity
  8
0
100
AcDbCircle
 10
-2.806530499999999
 20
4.026147000000001
 30
0.0
 40
0.2
100
AcDbArc
 50
0.0
 51
77.364375
  0
LINE
  5
F3
330
2
100
AcDbEntity
  8
0
100
AcDbLine
 10
-1.855432499999999
 20
0.1400000000000006
 30
0.0
 11
-1.855432499999999
 21
5.070000000000001
 31
0.0
  0
LINE
  5
F4
330
2
100
AcDbEntity
  8
0
100
AcDbLine
 10
1.855432500000001
 20
0.1400000000000006
 30
0.0
 11
1.855432500000001
 21
5.070000000000001
 31
0.0
  0
LINE
  5
F5
330
2
100
AcDbEntity
  8
0
100
AcDbLine
 10
-1.785432499999999
 20
0.1400000000000006
 30
0.0
 11
-1.785432499999999
 21
5.070000000000001
 31
0.0
  0
ARC
  5
F6
330
2
100
AcDbEntity
  8
0
100
AcDbCircle
 10
2.806530499999999
 20
4.026147000000001
 30
0.0
 40
0.2
100
AcDbArc
 50
102.635625
 51
180.0
  0
LINE
  5
F7
330
2
100
AcDbEntity
  8
0
100
AcDbLine
 10
1.855432500000001
 20
5.070000000000001
 30
0.0
 11
1.855432500000001
 21
0.8648040000000012
 31
0.0
  0
LINE
  5
F8
330
2
100
AcDbEntity
  8
0
100
AcDbLine
 10
1.785432500000001
 20
0.1400000000000006
 30
0.0
 11
1.785432500000001
 21
5.070000000000001
 31
0.0
  0
LINE
  5
F9
330
2
100
AcDbEntity
  8
0
100
AcDbLine
 10
-1.7154325
 20
0.0
 30
0.0
 11
1.7154325
 21
0.0
 31
0.0
  0
LINE
  5
FA
330
2
100
AcDbEntity
  8
0
100
AcDbLine
 10
-1.7154325
 20
0.0700000000000003
 30
0.0
 11
1.7154325
 21
0.0700000000000003
 31
0.0
  0
LINE
  5
FB
330
2
100
AcDbEntity
  8
0
100
AcDbLine
 10
-1.855432499999999
 20
0.8324993825417768
 30
0.0
 11
-2.8830075
 21
2.271105000000001
 31
0.0
  0
ARC
  5
FC
330
2
100
AcDbEntity
  8
0
100
AcDbCircle
 10
-1.7154325
 20
0.1400000000000006
 30
0.0
 40
0.14
100
AcDbArc
 50
180.0
 51
270.0
  0
ARC
  5
FD
330
2
100
AcDbEntity
  8
0
100
AcDbCircle
 10
-1.7154325
 20
0.1400000000000006
 30
0.0
 40
0.07
100
AcDbArc
 50
180.0
 51
270.0
  0
CIRCLE
  5
FE
330
2
100
AcDbEntity
  8
0
100
AcDbCircle
 10
-2.605432499999999
 20
2.570000000000001
 30
0.0
 40
0.0855
  0
LINE
  5
FF
330
2
100
AcDbEntity
  8
0
100
AcDbLine
 10
-2.917932499999999
 20
2.380087000000001
 30
0.0
 11
-2.917932499999999
 21
3.056762946631824
 31
0.0
  0
ARC
  5
100
330
2
100
AcDbEntity
  8
0
100
AcDbCircle
 10
-2.730432499999999
 20
2.380087000000001
 30
0.0
 40
0.1875
100
AcDbArc
 50
180.0
 51
215.537678
  0
ARC
  5
102
330
2
100
AcDbEntity
  8
0
100
AcDbCircle
 10
-2.806530499999999
 20
3.426147000000001
 30
0.0
 40
0.2
100
AcDbArc
 50
282.635625
 51
0.0
  0
ARC
  5
103
330
2
100
AcDbEntity
  8
0
100
AcDbCircle
 10
-2.719030500633681
 20
3.035834624958043
 30
0.0
 40
0.2
100
AcDbArc
 50
102.635625
 51
180.0
  0
LINE
  5
104
330
2
100
AcDbEntity
  8
0
100
AcDbLine
 10
-2.6065305
 20
4.026147000000001
 30
0.0
 11
-2.6065305
 21
3.426147000000001
 31
0.0
  0
LINE
  5
107
330
2
100
AcDbEntity
  8
0
100
AcDbLine
 10
1.8844865
 20
0.8731750000000007
 30
0.0
 11
2.8830075
 21
2.271105000000001
 31
0.0
  0
ARC
  5
108
330
2
100
AcDbEntity
  8
0
100
AcDbCircle
 10
1.7154325
 20
0.1400000000000006
 30
0.0
 40
0.14
100
AcDbArc
 50
270.0
 51
0.0
  0
ARC
  5
109
330
2
100
AcDbEntity
  8
0
100
AcDbCircle
 10
1.7154325
 20
0.1400000000000006
 30
0.0
 40
0.07
100
AcDbArc
 50
270.0
 51
0.0
  0
CIRCLE
  5
10B
330
2
100
AcDbEntity
  8
0
100
AcDbCircle
 10
2.605432500000001
 20
2.570000000000001
 30
0.0
 40
0.0855
  0
LINE
  5
10C
330
2
100
AcDbEntity
  8
0
100
AcDbLine
 10
2.917932500000001
 20
2.380087000000001
 30
0.0
 11
2.917932500000001
 21
3.070000000000001
 31
0.0
  0
CIRCLE
  5
10D
330
2
100
AcDbEntity
  8
0
100
AcDbCircle
 10
2.605432500000001
 20
2.570000000000001
 30
0.0
 40
0.0855
  0
ARC
  5
10E
330
2
100
AcDbEntity
  8
0
100
AcDbCircle
 10
2.730432500000001
 20
2.380087000000001
 30
0.0
 40
0.1875
100
AcDbArc
 50
324.462322
 51
0.0
  0
ARC
  5
10F
330
2
100
AcDbEntity
  8
0
100
AcDbCircle
 10
2.806530499999999
 20
3.426147000000001
 30
0.0
 40
0.2
100
AcDbArc
 50
180.0
 51
257.364375
  0
ARC
  5
110
330
2
100
AcDbEntity
  8
0
100
AcDbCircle
 10
2.715480817722043
 20
3.03014918120141
 30
0.0
 40
0.2063365489100108
100
AcDbArc
 50
11.13579870158609
 51
76.74792766783928
  0
LINE
  5
111
330
2
100
AcDbEntity
  8
0
100
AcDbLine
 10
2.6065305
 20
4.026147000000001
 30
0.0
 11
2.6065305
 21
3.426147000000001
 31
0.0
  0
LINE
  5
113
330
2
100
AcDbEntity
  8
0
100
AcDbLine
 10
-2.6065305
 20
6.026147000000001
 30
0.0
 11
-2.6065305
 21
5.426147000000001
 31
0.0
  0
LINE
  5
114
330
2
100
AcDbEntity
  8
0
100
AcDbLine
 10
-2.919030499999999
 20
4.416459000000001
 30
0.0
 11
-2.917932499999999
 21
5.056762946631825
 31
0.0
  0
ARC
  5
115
330
2
100
AcDbEntity
  8
0
100
AcDbCircle
 10
-2.719030499999999
 20
4.416459000000001
 30
0.0
 40
0.2
100
AcDbArc
 50
180.0
 51
257.364375
  0
CIRCLE
  5
116
330
2
100
AcDbEntity
  8
0
100
AcDbCircle
 10
-2.605432499999999
 20
4.570000000000001
 30
0.0
 40
0.0855
  0
ARC
  5
117
330
2
100
AcDbEntity
  8
0
100
AcDbCircle
 10
-2.806530499999999
 20
5.426147000000001
 30
0.0
 40
0.2
100
AcDbArc
 50
282.635625
 51
0.0
  0
ARC
  5
118
330
2
100
AcDbEntity
  8
0
100
AcDbCircle
 10
-2.719030500633681
 20
5.035834624958043
 30
0.0
 40
0.2
100
AcDbArc
 50
102.635625
 51
180.0
  0
ARC
  5
119
330
2
100
AcDbEntity
  8
0
100
AcDbCircle
 10
-1.796770562400893
 20
4.570000000000001
 30
0.0
 40
0.25
100
AcDbArc
 50
103.5708597820756
 51
256.4291402179244
  0
LINE
  5
11A
330
2
100
AcDbEntity
  8
0
100
AcDbLine
 10
-1.855432499999999
 20
7.070000000000001
 30
0.0
 11
-2.917932499999999
 21
7.070000000000001
 31
0.0
  0
LINE
  5
11B
330
2
100
AcDbEntity
  8
0
100
AcDbLine
 10
-2.917932499999999
 20
6.380087000000001
 30
0.0
 11
-2.917932499999999
 21
7.070000000000001
 31
0.0
  0
ARC
  5
11C
330
2
100
AcDbEntity
  8
0
100
AcDbCircle
 10
-2.806530499999999
 20
6.026147000000001
 30
0.0
 40
0.2
100
AcDbArc
 50
0.0
 51
77.364375
  0
ARC
  5
11D
330
2
100
AcDbEntity
  8
0
100
AcDbCircle
 10
-2.714569535568931
 20
6.423604494564268
 30
0.0
 40
0.2079669868881672
100
AcDbArc
 50
192.0785173768943
 51
256.5957373275875
  0
CIRCLE
  5
11E
330
2
100
AcDbEntity
  8
0
100
AcDbCircle
 10
-2.605432499999999
 20
6.570000000000001
 30
0.0
 40
0.0855
  0
LINE
  5
11F
330
2
100
AcDbEntity
  8
0
100
AcDbLine
 10
-1.855432499999999
 20
7.070000000000001
 30
0.0
 11
-1.7838245
 21
7.070000000000001
 31
0.0
  0
ARC
  5
121
330
2
100
AcDbEntity
  8
0
100
AcDbCircle
 10
1.80514182374205
 20
4.56323896003103
 30
0.0
 40
0.25
100
AcDbArc
 50
281.6049590901678
 51
78.39504090983218
  0
LINE
  5
122
330
2
100
AcDbEntity
  8
0
100
AcDbLine
 10
1.855432500000001
 20
7.070000000000001
 30
0.0
 11
2.917932500000001
 21
7.070000000000001
 31
0.0
  0
LINE
  5
123
330
2
100
AcDbEntity
  8
0
100
AcDbLine
 10
1.785432500000001
 20
7.070000000000001
 30
0.0
 11
1.943380500000002
 21
7.070000000000001
 31
0.0
  0
LINE
  5
124
330
2
100
AcDbEntity
  8
0
100
AcDbLine
 10
2.6065305
 20
6.026147000000001
 30
0.0
 11
2.6065305
 21
5.426147000000001
 31
0.0
  0
LINE
  5
125
330
2
100
AcDbEntity
  8
0
100
AcDbLine
 10
2.919030500000001
 20
4.416459000000001
 30
0.0
 11
2.917932500000001
 21
5.070000000000001
 31
0.0
  0
CIRCLE
  5
126
330
2
100
AcDbEntity
  8
0
100
AcDbCircle
 10
2.605432500000001
 20
4.570000000000001
 30
0.0
 40
0.0855
  0
ARC
  5
127
330
2
100
AcDbEntity
  8
0
100
AcDbCircle
 10
2.719030500000001
 20
4.416459000000001
 30
0.0
 40
0.2
100
AcDbArc
 50
282.635625
 51
0.0
  0
ARC
  5
128
330
2
100
AcDbEntity
  8
0
100
AcDbCircle
 10
2.806530499999999
 20
5.426147000000001
 30
0.0
 40
0.2
100
AcDbArc
 50
180.0
 51
257.364375
  0
ARC
  5
129
330
2
100
AcDbEntity
  8
0
100
AcDbCircle
 10
2.715480817722042
 20
5.03014918120141
 30
0.0
 40
0.2063365489100116
100
AcDbArc
 50
11.13579870158592
 51
76.74792766783901
  0
LINE
  5
12A
330
2
100
AcDbEntity
  8
0
100
AcDbLine
 10
2.917932500000001
 20
6.380087000000001
 30
0.0
 11
2.917932500000001
 21
7.070000000000001
 31
0.0
  0
ARC
  5
12B
330
2
100
AcDbEntity
  8
0
100
AcDbCircle
 10
2.806530499999999
 20
6.026147000000001
 30
0.0
 40
0.2
100
AcDbArc
 50
102.635625
 51
180.0
  0
ARC
  5
12C
330
2
100
AcDbEntity
  8
0
100
AcDbCircle
 10
2.719030500000003
 20
6.416459000000002
 30
0.0
 40
0.2000000000000003
100
AcDbArc
 50
282.6356249999993
 51
353.9934832503546
  0
CIRCLE
  5
12D
330
2
100
AcDbEntity
  8
0
100
AcDbCircle
 10
2.605432500000001
 20
6.570000000000001
 30
0.0
 40
0.0855
  0
LWPOLYLINE
  5
178
330
2
100
AcDbEntity
  8
0
100
AcDbPolyline
 90
        9
 70
     0
 43
0.0
 10
-1.855432410869247
 20
1.265928661397222
 42
-0.1432467981947568
 10
-1.880657061724703
 20
1.273306758268472
 42
-0.1071754848060475
 10
-1.905343227695289
 20
1.297857683413124
 42
-0.0783035184710328
 10
-1.92028989531765
 20
1.331478937763922
 42
-0.0656020556757086
 10
-1.926016964933757
 20
1.374941161397228
 42
-0.0656020556757101
 10
-1.92028989531765
 20
1.418403385030526
 42
-0.0783035184710357
 10
-1.905343227695289
 20
1.452024639381325
 42
-0.1071754848060445
 10
-1.880657061724703
 20
1.476575564525977
 42
-0.1432467981947535
 10
-1.855432410869247
 20
1.483953661397226
 42
-0.1432467981947515
  0
LINE
  5
179
330
2
100
AcDbEntity
  8
0
100
AcDbLine
 10
-1.855432410869247
 20
1.236603661397222
 30
0.0
 11
-1.855432410869247
 21
1.513278661397226
 31
0.0
  0
LWPOLYLINE
  5
17A
330
2
100
AcDbEntity
  8
0
100
AcDbPolyline
 90
        9
 70
     0
 43
0.0
 10
-1.855432410869247
 20
1.295253661397222
 42
-0.147269582437036
 10
-1.873128834031787
 20
1.300581503085017
 42
-0.1071386913803464
 10
-1.890680727695289
 20
1.318593589771421
 42
-0.0765137470862007
 10
-1.901222641742058
 20
1.343098327805581
 42
-0.063469041210727
 10
-1.90528105857546
 20
1.374941161397228
 42
-0.0634690412107267
 10
-1.901222641742058
 20
1.406783994988867
 42
-0.0765137470862059
 10
-1.890680727695289
 20
1.431288733023028
 42
-0.1071386913803463
 10
-1.873128834031787
 20
1.449300819709432
 42
-0.1472695824370325
 10
-1.855432410869247
 20
1.454628661397226
 42
-0.1472695824370333
  0
LWPOLYLINE
  5
17B
330
2
100
AcDbEntity
  8
0
100
AcDbPolyline
 90
        9
 70
     0
 43
0.0
 10
-1.85543241086925
 20
3.578428661397221
 42
-0.1432467981947568
 10
-1.880657061724707
 20
3.585806758268471
 42
-0.1071754848060475
 10
-1.905343227695292
 20
3.610357683413123
 42
-0.0783035184710328
 10
-1.920289895317653
 20
3.643978937763921
 42
-0.0656020556757086
 10
-1.92601696493376
 20
3.687441161397227
 42
-0.0656020556757101
 10
-1.920289895317653
 20
3.730903385030525
 42
-0.0783035184710357
 10
-1.905343227695292
 20
3.764524639381324
 42
-0.1071754848060445
 10
-1.880657061724707
 20
3.789075564525976
 42
-0.1432467981947535
 10
-1.85543241086925
 20
3.796453661397226
 42
-0.1432467981947515
  0
LINE
  5
17C
330
2
100
AcDbEntity
  8
0
100
AcDbLine
 10
-1.85543241086925
 20
3.549103661397221
 30
0.0
 11
-1.85543241086925
 21
3.825778661397226
 31
0.0
  0
LWPOLYLINE
  5
17D
330
2
100
AcDbEntity
  8
0
100
AcDbPolyline
 90
        9
 70
     0
 43
0.0
 10
-1.85543241086925
 20
3.607753661397221
 42
-0.147269582437036
 10
-1.873128834031791
 20
3.613081503085016
 42
-0.1071386913803464
 10
-1.890680727695292
 20
3.63109358977142
 42
-0.0765137470862007
 10
-1.901222641742061
 20
3.65559832780558
 42
-0.063469041210727
 10
-1.905281058575463
 20
3.687441161397227
 42
-0.0634690412107267
 10
-1.901222641742061
 20
3.719283994988866
 42
-0.0765137470862059
 10
-1.890680727695292
 20
3.743788733023027
 42
-0.1071386913803463
 10
-1.873128834031791
 20
3.761800819709431
 42
-0.1472695824370325
 10
-1.85543241086925
 20
3.767128661397226
 42
-0.1472695824370333
  0
LWPOLYLINE
  5
17E
330
2
100
AcDbEntity
  8
0
100
AcDbPolyline
 90
        9
 70
     0
 43
0.0
 10
1.855432499999996
 20
0.755791996659096
 42
0.1432467981947568
 10
1.880657150855452
 20
0.7631700935303458
 42
0.1071754848060475
 10
1.905343316826038
 20
0.7877210186749979
 42
0.0783035184710328
 10
1.920289984448399
 20
0.8213422730257962
 42
0.0656020556757086
 10
1.926017054064506
 20
0.8648044966591018
 42
0.0656020556757101
 10
1.920289984448399
 20
0.9082667202924002
 42
0.0783035184710357
 10
1.905343316826038
 20
0.9418879746431985
 42
0.1071754848060445
 10
1.880657150855452
 20
0.9664388997878506
 42
0.1432467981947535
 10
1.855432499999996
 20
0.9738169966591004
 42
0.1432467981947515
  0
LINE
  5
17F
330
2
100
AcDbEntity
  8
0
100
AcDbLine
 10
1.855432499999996
 20
0.726466996659096
 30
0.0
 11
1.855432499999996
 21
1.0031419966591
 31
0.0
  0
LWPOLYLINE
  5
180
330
2
100
AcDbEntity
  8
0
100
AcDbPolyline
 90
        9
 70
     0
 43
0.0
 10
1.855432499999996
 20
0.7851169966590961
 42
0.147269582437036
 10
1.873128923162536
 20
0.7904448383468905
 42
0.1071386913803464
 10
1.890680816826038
 20
0.8084569250332949
 42
0.0765137470862007
 10
1.901222730872807
 20
0.8329616630674552
 42
0.063469041210727
 10
1.905281147706209
 20
0.8648044966591018
 42
0.0634690412107267
 10
1.901222730872807
 20
0.8966473302507412
 42
0.0765137470862059
 10
1.890680816826038
 20
0.9211520682849015
 42
0.1071386913803463
 10
1.873128923162536
 20
0.9391641549713059
 42
0.1472695824370325
 10
1.855432499999996
 20
0.9444919966591003
 42
0.1472695824370333
  0
LWPOLYLINE
  5
181
330
2
100
AcDbEntity
  8
0
100
AcDbPolyline
 90
        9
 70
     0
 43
0.0
 10
1.855432499999996
 20
3.697851133473152
 42
0.1432467981947568
 10
1.880657150855452
 20
3.705229230344401
 42
0.1071754848060475
 10
1.905343316826038
 20
3.729780155489054
 42
0.0783035184710328
 10
1.920289984448399
 20
3.763401409839852
 42
0.0656020556757086
 10
1.926017054064506
 20
3.806863633473157
 42
0.0656020556757101
 10
1.920289984448399
 20
3.850325857106456
 42
0.0783035184710357
 10
1.905343316826038
 20
3.883947111457254
 42
0.1071754848060445
 10
1.880657150855452
 20
3.908498036601906
 42
0.1432467981947535
 10
1.855432499999996
 20
3.915876133473156
 42
0.1432467981947515
  0
LINE
  5
182
330
2
100
AcDbEntity
  8
0
100
AcDbLine
 10
1.855432499999996
 20
3.668526133473152
 30
0.0
 11
1.855432499999996
 21
3.945201133473156
 31
0.0
  0
LWPOLYLINE
  5
183
330
2
100
AcDbEntity
  8
0
100
AcDbPolyline
 90
        9
 70
     0
 43
0.0
 10
1.855432499999996
 20
3.727176133473152
 42
0.147269582437036
 10
1.873128923162536
 20
3.732503975160946
 42
0.1071386913803464
 10
1.890680816826038
 20
3.750516061847351
 42
0.0765137470862007
 10
1.901222730872807
 20
3.775020799881511
 42
0.063469041210727
 10
1.905281147706209
 20
3.806863633473157
 42
0.0634690412107267
 10
1.901222730872807
 20
3.838706467064797
 42
0.0765137470862059
 10
1.890680816826038
 20
3.863211205098957
 42
0.1071386913803463
 10
1.873128923162536
 20
3.881223291785362
 42
0.1472695824370325
 10
1.855432499999996
 20
3.886551133473156
 42
0.1472695824370333
  0
LWPOLYLINE
  5
184
330
2
100
AcDbEntity
  8
0
100
AcDbPolyline
 90
        9
 70
     0
 43
0.0
 10
-1.85543241086925
 20
5.578428661397221
 42
-0.1432467981947568
 10
-1.880657061724707
 20
5.585806758268471
 42
-0.1071754848060475
 10
-1.905343227695292
 20
5.610357683413123
 42
-0.0783035184710328
 10
-1.920289895317653
 20
5.643978937763921
 42
-0.0656020556757086
 10
-1.92601696493376
 20
5.687441161397227
 42
-0.0656020556757101
 10
-1.920289895317653
 20
5.730903385030525
 42
-0.0783035184710357
 10
-1.905343227695292
 20
5.764524639381324
 42
-0.1071754848060445
 10
-1.880657061724707
 20
5.789075564525976
 42
-0.1432467981947535
 10
-1.85543241086925
 20
5.796453661397226
 42
-0.1432467981947515
  0
LINE
  5
185
330
2
100
AcDbEntity
  8
0
100
AcDbLine
 10
-1.85543241086925
 20
5.549103661397221
 30
0.0
 11
-1.85543241086925
 21
5.825778661397226
 31
0.0
  0
LWPOLYLINE
  5
186
330
2
100
AcDbEntity
  8
0
100
AcDbPolyline
 90
        9
 70
     0
 43
0.0
 10
-1.85543241086925
 20
5.607753661397221
 42
-0.147269582437036
 10
-1.873128834031791
 20
5.613081503085016
 42
-0.1071386913803464
 10
-1.890680727695292
 20
5.63109358977142
 42
-0.0765137470862007
 10
-1.901222641742061
 20
5.65559832780558
 42
-0.063469041210727
 10
-1.905281058575463
 20
5.687441161397227
 42
-0.0634690412107267
 10
-1.901222641742061
 20
5.719283994988866
 42
-0.0765137470862059
 10
-1.890680727695292
 20
5.743788733023027
 42
-0.1071386913803463
 10
-1.873128834031791
 20
5.761800819709431
 42
-0.1472695824370325
 10
-1.85543241086925
 20
5.767128661397226
 42
-0.1472695824370333
  0
LWPOLYLINE
  5
187
330
2
100
AcDbEntity
  8
0
100
AcDbPolyline
 90
        9
 70
     0
 43
0.0
 10
1.855432499999996
 20
5.697851133473152
 42
0.1432467981947568
 10
1.880657150855452
 20
5.705229230344401
 42
0.1071754848060475
 10
1.905343316826038
 20
5.729780155489054
 42
0.0783035184710328
 10
1.920289984448399
 20
5.763401409839852
 42
0.0656020556757086
 10
1.926017054064506
 20
5.806863633473157
 42
0.0656020556757101
 10
1.920289984448399
 20
5.850325857106456
 42
0.0783035184710357
 10
1.905343316826038
 20
5.883947111457254
 42
0.1071754848060445
 10
1.880657150855452
 20
5.908498036601906
 42
0.1432467981947535
 10
1.855432499999996
 20
5.915876133473156
 42
0.1432467981947515
  0
LINE
  5
188
330
2
100
AcDbEntity
  8
0
100
AcDbLine
 10
1.855432499999996
 20
5.668526133473152
 30
0.0
 11
1.855432499999996
 21
5.945201133473156
 31
0.0
  0
LWPOLYLINE
  5
189
330
2
100
AcDbEntity
  8
0
100
AcDbPolyline
 90
        9
 70
     0
 43
0.0
 10
1.855432499999996
 20
5.727176133473152
 42
0.147269582437036
 10
1.873128923162536
 20
5.732503975160946
 42
0.1071386913803464
 10
1.890680816826038
 20
5.750516061847351
 42
0.0765137470862007
 10
1.901222730872807
 20
5.775020799881511
 42
0.063469041210727
 10
1.905281147706209
 20
5.806863633473157
 42
0.0634690412107267
 10
1.901222730872807
 20
5.838706467064797
 42
0.0765137470862059
 10
1.890680816826038
 20
5.863211205098957
 42
0.1071386913803463
 10
1.873128923162536
 20
5.881223291785362
 42
0.1472695824370325
 10
1.855432499999996
 20
5.886551133473156
 42
0.1472695824370333
  0
ENDSEC
  0
SECTION
  2
OBJECTS
  0
DICTIONARY
  5
9
330
0
100
AcDbDictionary
281
     1
  3
ACAD_COLOR
350
1CC
  3
ACAD_GROUP
350
23
  3
ACAD_LAYOUT
350
D
  3
ACAD_MATERIAL
350
1CB
  3
ACAD_MLINESTYLE
350
24
  3
ACAD_PLOTSETTINGS
350
25
  3
ACAD_PLOTSTYLENAME
350
8
  3
ACAD_TABLESTYLE
350
1CD
  3
ACDBHEADERROUNDTRIPXREC
350
282
  3
AcDbVariableDictionary
350
E2
  0
DICTIONARY
  5
1CC
102
{ACAD_REACTORS
330
9
102
}
330
9
100
AcDbDictionary
281
     1
  0
DICTIONARY
  5
23
102
{ACAD_REACTORS
330
9
102
}
330
9
100
AcDbDictionary
281
     1
  0
DICTIONARY
  5
D
102
{ACAD_REACTORS
330
9
102
}
330
9
100
AcDbDictionary
281
     1
  3
Layout1
350
13
  3
Model
350
C
  0
DICTIONARY
  5
1CB
102
{ACAD_REACTORS
330
9
102
}
330
9
100
AcDbDictionary
281
     1
  0
DICTIONARY
  5
24
102
{ACAD_REACTORS
330
9
102
}
330
9
100
AcDbDictionary
281
     1
  3
STANDARD
350
27
  0
DICTIONARY
  5
25
102
{ACAD_REACTORS
330
9
102
}
330
9
100
AcDbDictionary
281
     1
  0
ACDBDICTIONARYWDFLT
  5
8
102
{ACAD_REACTORS
330
9
102
}
330
9
100
AcDbDictionary
281
     1
  3
Normal
350
7
100
AcDbDictionaryWithDefault
340
7
  0
DICTIONARY
  5
1CD
102
{ACAD_REACTORS
330
9
102
}
330
9
100
AcDbDictionary
281
     1
  3
Standard
350
1CE
  0
DICTIONARY
  5
282
102
{ACAD_REACTORS
330
9
102
}
330
9
100
AcDbDictionary
281
     1
  3
COLORDICT
350
283
  3
MATERIALDICT
350
284
  0
DICTIONARY
  5
E2
102
{ACAD_REACTORS
330
9
102
}
330
9
100
AcDbDictionary
281
     1
  3
CTABLESTYLE
350
27F
  3
HIDETEXT
350
281
  0
LAYOUT
  5
13
102
{ACAD_REACTORS
330
D
102
}
102
{ACAD_XDICTIONARY
360
285
102
}
330
D
100
AcDbPlotSettings
  1

  2
C:\ACAD2000\plotters\HP LaserJet 2100 Series PS.pc3
  4

  6

 40
0.0
 41
0.0
 42
0.0
 43
0.0
 44
0.0
 45
0.0
 46
0.0
 47
0.0
 48
0.0
 49
0.0
140
0.0
141
0.0
142
1.0
143
1.0
 70
   688
 72
     0
 73
     0
 74
     5
  7

 75
    16
147
1.0
148
0.0
149
0.0
100
AcDbLayout
  1
Layout1
 70
     0
 71
     1
 10
0.0
 20
0.0
 11
12.0
 21
9.0
 12
0.0
 22
0.0
 32
0.0
 14
1.000000000000000E+20
 24
1.000000000000000E+20
 34
1.000000000000000E+20
 15
-1.000000000000000E+20
 25
-1.000000000000000E+20
 35
-1.000000000000000E+20
146
0.0
 13
0.0
 23
0.0
 33
0.0
 16
1.0
 26
0.0
 36
0.0
 17
0.0
 27
1.0
 37
0.0
 76
     0
330
E
  0
LAYOUT
  5
C
102
{ACAD_REACTORS
330
D
102
}
102
{ACAD_XDICTIONARY
360
287
102
}
330
D
100
AcDbPlotSettings
  1

  2
HP LaserJet 2100 Series PS
  4
Letter
  6

 40
3.174999952316284
 41
3.174999952316284
 42
3.175003051757813
 43
3.17498779296875
 44
215.9000091552734
 45
279.3999938964844
 46
0.0
 47
0.0
 48
0.0
 49
0.0
140
0.0
141
0.0
142
1.0
143
3.181818088418051
 70
 28336
 72
     0
 73
     1
 74
     2
  7

 75
     0
147
0.3142857235113601
148
0.0
149
0.0
100
AcDbLayout
  1
Model
 70
     1
 71
     0
 10
0.0
 20
0.0
 11
12.0
 21
9.0
 12
0.0
 22
0.0
 32
0.0
 14
0.0
 24
0.0
 34
0.0
 15
0.0
 25
0.0
 35
0.0
146
0.0
 13
0.0
 23
0.0
 33
0.0
 16
1.0
 26
0.0
 36
0.0
 17
0.0
 27
1.0
 37
0.0
 76
     0
330
2
  0
MLINESTYLE
  5
27
102
{ACAD_REACTORS
330
24
102
}
330
24
100
AcDbMlineStyle
  2
STANDARD
 70
     0
  3

 62
   256
 51
90.0
 52
90.0
 71
     2
 49
0.5
 62
   256
  6
BYLAYER
 49
-0.5
 62
   256
  6
BYLAYER
  0
ACDBPLACEHOLDER
  5
7
102
{ACAD_REACTORS
330
8
102
}
330
8
  0
ACAD_PROXY_OBJECT
  5
1CE
102
{ACAD_REACTORS
330
1CD
102
}
330
1CD
100
AcDbProxyObject
 90
      499
 91
      513
 95
   983063
 70
     0
 93
     1841
310
4214DD185B99185C9928B81E85EB51B8AE3F2E07A17AD46E2B8FC02B5E8DC0F42B1CFD028000000C1008070000C3001FDFF8000000C1003FBFF000000182007F7FE00000030400FEFFC00000060801FDFF8000000C1003FBFF00000018200000000000000681FA0B0000001820100E000186003FBFF000000182007F7FE000
310
00030400FEFFC00000060801FDFF8000000C1003FBFF000000182007F7FE000000304000AD7A3703D0AC73F4160000003040201C00030C007F7FE00000030400FEFFC00000060801FDFF8000000C1003FBFF000000182007F7FE00000030400FEFFC000000608000
340
16
340
16
340
16
 94
        0
  0
XRECORD
  5
283
102
{ACAD_REACTORS
330
282
102
}
330
282
100
AcDbXrecord
340
1CC
  0
XRECORD
  5
284
102
{ACAD_REACTORS
330
282
102
}
330
282
100
AcDbXrecord
340
1CB
  0
DICTIONARYVAR
  5
27F
102
{ACAD_REACTORS
330
E2
102
}
330
E2
100
DictionaryVariables
280
     0
  1
STANDARD
  0
DICTIONARYVAR
  5
281
102
{ACAD_REACTORS
330
E2
102
}
330
E2
100
DictionaryVariables
280
     0
  1
0
  0
DICTIONARY
  5
285
330
13
100
AcDbDictionary
280
     1
281
     1
  3
ACAD_XREC_ROUNDTRIP
360
286
  0
DICTIONARY
  5
287
330
C
100
AcDbDictionary
280
     1
281
     1
  3
ACAD_XREC_ROUNDTRIP
360
288
  0
XRECORD
  5
286
102
{ACAD_REACTORS
330
285
102
}
330
285
100
AcDbXrecord
102
SHADEPLOT
 70
     0
102
SHADEPLOTRESLEVEL
 70
     2
102
SHADEPLOTCUSTOMDPI
 70
   300
  0
XRECORD
  5
288
102
{ACAD_REACTORS
330
287
102
}
330
287
100
AcDbXrecord
102
SHADEPLOT
 70
     0
102
SHADEPLOTRESLEVEL
 70
     2
102
SHADEPLOTCUSTOMDPI
 70
   300
  0
ENDSEC
  0
EOF
