  0
SECTION
  2
HEADER
  9
$ACADVER
  1
AC1015
  9
$ACADMAINTVER
 70
     6
  9
$DWGCODEPAGE
  3
ANSI_1252
  9
$INSBASE
 10
0.0
 20
0.0
 30
0.0
  9
$EXTMIN
 10
-9.075276154090972
 20
-0.029296255526809
 30
-0.0000000000112498
  9
$EXTMAX
 10
9.075700011619574
 20
12.32148675432463
 30
0.0000000000002956
  9
$LIMMIN
 10
0.0
 20
0.0
  9
$LIMMAX
 10
26.25
 20
20.0
  9
$ORTHOMODE
 70
     1
  9
$REGENMODE
 70
     1
  9
$FILLMODE
 70
     1
  9
$QTEXTMODE
 70
     0
  9
$MIRRTEXT
 70
     0
  9
$LTSCALE
 40
1.0
  9
$ATTMODE
 70
     1
  9
$TEXTSIZE
 40
0.225
  9
$TRACEWID
 40
0.05
  9
$TEXTSTYLE
  7
STANDARD
  9
$CLAYER
  8
0
  9
$CELTYPE
  6
BYLAYER
  9
$CECOLOR
 62
   256
  9
$CELTSCALE
 40
1.0
  9
$DISPSILH
 70
     0
  9
$DIMSCALE
 40
2.5
  9
$DIMASZ
 40
0.125
  9
$DIMEXO
 40
0.062
  9
$DIMDLI
 40
0.375
  9
$DIMRND
 40
0.0
  9
$DIMDLE
 40
0.0
  9
$DIMEXE
 40
0.08
  9
$DIMTP
 40
0.0
  9
$DIMTM
 40
0.0
  9
$DIMTXT
 40
0.09
  9
$DIMCEN
 40
-0.03125
  9
$DIMTSZ
 40
0.0
  9
$DIMTOL
 70
     0
  9
$DIMLIM
 70
     0
  9
$DIMTIH
 70
     1
  9
$DIMTOH
 70
     1
  9
$DIMSE1
 70
     0
  9
$DIMSE2
 70
     0
  9
$DIMTAD
 70
     0
  9
$DIMZIN
 70
     0
  9
$DIMBLK
  1

  9
$DIMASO
 70
     0
  9
$DIMSHO
 70
     0
  9
$DIMPOST
  1

  9
$DIMAPOST
  1

  9
$DIMALT
 70
     0
  9
$DIMALTD
 70
     2
  9
$DIMALTF
 40
25.4
  9
$DIMLFAC
 40
1.0
  9
$DIMTOFL
 70
     0
  9
$DIMTVP
 40
0.0
  9
$DIMTIX
 70
     0
  9
$DIMSOXD
 70
     0
  9
$DIMSAH
 70
     0
  9
$DIMBLK1
  1

  9
$DIMBLK2
  1

  9
$DIMSTYLE
  2
STANDARD
  9
$DIMCLRD
 70
     0
  9
$DIMCLRE
 70
     0
  9
$DIMCLRT
 70
     0
  9
$DIMTFAC
 40
1.0
  9
$DIMGAP
 40
0.08984375
  9
$DIMJUST
 70
     0
  9
$DIMSD1
 70
     0
  9
$DIMSD2
 70
     0
  9
$DIMTOLJ
 70
     1
  9
$DIMTZIN
 70
     0
  9
$DIMALTZ
 70
     0
  9
$DIMALTTZ
 70
     0
  9
$DIMUPT
 70
     0
  9
$DIMDEC
 70
     5
  9
$DIMTDEC
 70
     6
  9
$DIMALTU
 70
     5
  9
$DIMALTTD
 70
     2
  9
$DIMTXSTY
  7
STANDARD
  9
$DIMAUNIT
 70
     0
  9
$DIMADEC
 70
     0
  9
$DIMALTRND
 40
0.0
  9
$DIMAZIN
 70
     0
  9
$DIMDSEP
 70
    46
  9
$DIMATFIT
 70
     3
  9
$DIMFRAC
 70
     2
  9
$DIMLDRBLK
  1

  9
$DIMLUNIT
 70
     5
  9
$DIMLWD
 70
    -2
  9
$DIMLWE
 70
    -2
  9
$DIMTMOVE
 70
     2
  9
$LUNITS
 70
     5
  9
$LUPREC
 70
     6
  9
$SKETCHINC
 40
0.1
  9
$FILLETRAD
 40
0.14
  9
$AUNITS
 70
     0
  9
$AUPREC
 70
     0
  9
$MENU
  1
acad
  9
$ELEVATION
 40
0.0
  9
$PELEVATION
 40
0.0
  9
$THICKNESS
 40
0.0
  9
$LIMCHECK
 70
     0
  9
$CHAMFERA
 40
0.0
  9
$CHAMFERB
 40
0.0
  9
$CHAMFERC
 40
0.0
  9
$CHAMFERD
 40
0.0
  9
$SKPOLY
 70
     0
  9
$TDCREATE
 40
2449882.993369444
  9
$TDUCREATE
 40
2449883.326702778
  9
$TDUPDATE
 40
2454166.81553772
  9
$TDUUPDATE
 40
2454167.148871053
  9
$TDINDWG
 40
0.085693044
  9
$TDUSRTIMER
 40
0.085693044
  9
$USRTIMER
 70
     1
  9
$ANGBASE
 50
0.0
  9
$ANGDIR
 70
     0
  9
$PDMODE
 70
     0
  9
$PDSIZE
 40
0.0
  9
$PLINEWID
 40
0.0
  9
$SPLFRAME
 70
     0
  9
$SPLINETYPE
 70
     6
  9
$SPLINESEGS
 70
     8
  9
$HANDSEED
  5
279
  9
$SURFTAB1
 70
     6
  9
$SURFTAB2
 70
     6
  9
$SURFTYPE
 70
     6
  9
$SURFU
 70
     6
  9
$SURFV
 70
     6
  9
$UCSBASE
  2

  9
$UCSNAME
  2

  9
$UCSORG
 10
0.0
 20
0.0
 30
0.0
  9
$UCSXDIR
 10
1.0
 20
0.0
 30
0.0
  9
$UCSYDIR
 10
0.0
 20
1.0
 30
0.0
  9
$UCSORTHOREF
  2

  9
$UCSORTHOVIEW
 70
     0
  9
$UCSORGTOP
 10
0.0
 20
0.0
 30
0.0
  9
$UCSORGBOTTOM
 10
0.0
 20
0.0
 30
0.0
  9
$UCSORGLEFT
 10
0.0
 20
0.0
 30
0.0
  9
$UCSORGRIGHT
 10
0.0
 20
0.0
 30
0.0
  9
$UCSORGFRONT
 10
0.0
 20
0.0
 30
0.0
  9
$UCSORGBACK
 10
0.0
 20
0.0
 30
0.0
  9
$PUCSBASE
  2

  9
$PUCSNAME
  2

  9
$PUCSORG
 10
0.0
 20
0.0
 30
0.0
  9
$PUCSXDIR
 10
1.0
 20
0.0
 30
0.0
  9
$PUCSYDIR
 10
0.0
 20
1.0
 30
0.0
  9
$PUCSORTHOREF
  2

  9
$PUCSORTHOVIEW
 70
     0
  9
$PUCSORGTOP
 10
0.0
 20
0.0
 30
0.0
  9
$PUCSORGBOTTOM
 10
0.0
 20
0.0
 30
0.0
  9
$PUCSORGLEFT
 10
0.0
 20
0.0
 30
0.0
  9
$PUCSORGRIGHT
 10
0.0
 20
0.0
 30
0.0
  9
$PUCSORGFRONT
 10
0.0
 20
0.0
 30
0.0
  9
$PUCSORGBACK
 10
0.0
 20
0.0
 30
0.0
  9
$USERI1
 70
     0
  9
$USERI2
 70
     0
  9
$USERI3
 70
     0
  9
$USERI4
 70
     0
  9
$USERI5
 70
     0
  9
$USERR1
 40
0.0
  9
$USERR2
 40
0.0
  9
$USERR3
 40
0.0
  9
$USERR4
 40
0.0
  9
$USERR5
 40
0.0
  9
$WORLDVIEW
 70
     1
  9
$SHADEDGE
 70
     3
  9
$SHADEDIF
 70
    70
  9
$TILEMODE
 70
     1
  9
$MAXACTVP
 70
    16
  9
$PINSBASE
 10
0.0
 20
0.0
 30
0.0
  9
$PLIMCHECK
 70
     0
  9
$PEXTMIN
 10
1.000000000000000E+20
 20
1.000000000000000E+20
 30
1.000000000000000E+20
  9
$PEXTMAX
 10
-1.000000000000000E+20
 20
-1.000000000000000E+20
 30
-1.000000000000000E+20
  9
$PLIMMIN
 10
0.0
 20
0.0
  9
$PLIMMAX
 10
12.0
 20
9.0
  9
$UNITMODE
 70
     0
  9
$VISRETAIN
 70
     0
  9
$PLINEGEN
 70
     1
  9
$PSLTSCALE
 70
     0
  9
$TREEDEPTH
 70
  3020
  9
$CMLSTYLE
  2
STANDARD
  9
$CMLJUST
 70
     0
  9
$CMLSCALE
 40
1.0
  9
$PROXYGRAPHICS
 70
     1
  9
$MEASUREMENT
 70
     0
  9
$CELWEIGHT
370
    -1
  9
$ENDCAPS
280
     0
  9
$JOINSTYLE
280
     0
  9
$LWDISPLAY
290
     0
  9
$INSUNITS
 70
     0
  9
$HYPERLINKBASE
  1

  9
$STYLESHEET
  1

  9
$XEDIT
290
     1
  9
$CEPSNTYPE
380
     0
  9
$PSTYLEMODE
290
     1
  9
$FINGERPRINTGUID
  2
{A21F86FD-14AE-48E5-B2EB-E26DC731F8E5}
  9
$VERSIONGUID
  2
{120461B3-A210-4205-87D1-5E645FB53EB9}
  9
$EXTNAMES
290
     1
  9
$PSVPSCALE
 40
0.0
  9
$OLESTARTUP
290
     0
  0
ENDSEC
  0
SECTION
  2
CLASSES
  0
CLASS
  1
DICTIONARYVAR
  2
AcDbDictionaryVar
  3
AutoCAD 2000
 90
        0
280
     0
281
     0
  0
CLASS
  1
LWPOLYLINE
  2
AcDbPolyline
  3
AutoCAD 2000
 90
        0
280
     0
281
     1
  0
CLASS
  1
ACDBDICTIONARYWDFLT
  2
AcDbDictionaryWithDefault
  3
AutoCAD 2000
 90
        0
280
     0
281
     0
  0
CLASS
  1
ACDBPLACEHOLDER
  2
AcDbPlaceHolder
  3
ObjectDBX Classes
 90
        0
280
     0
281
     0
  0
CLASS
  1
LAYOUT
  2
AcDbLayout
  3
ObjectDBX Classes
 90
        0
280
     0
281
     0
  0
CLASS
  1
LONG_TRANSACTION
  2
AcDbLongTransaction
  3
ObjectDBX Classes
 90
   -65536
280
     1
281
     0
  0
CLASS
  1
LWPOLYLINE
  2
AcDbPolyline
  3
AutoCAD 2000
 90
        0
280
     0
281
     1
  0
CLASS
  1
HATCH
  2
AcDbHatch
  3
AutoCAD 2000
 90
        0
280
     0
281
     1
  0
CLASS
  1
XRECORD
  2
AcDbXrecord
  3
AutoCAD 2000
 90
        0
280
     0
281
     0
  0
CLASS
  1
LONG_TRANSACTION
  2
AcDbLongTransaction
  3
ObjectDBX Classes
 90
   -65536
280
     1
281
     0
  0
CLASS
  1
LWPOLYLINE
  2
AcDbPolyline
  3
AutoCAD 2000
 90
        0
280
     0
281
     1
  0
CLASS
  1
HATCH
  2
AcDbHatch
  3
AutoCAD 2000
 90
        0
280
     0
281
     1
  0
CLASS
  1
XRECORD
  2
AcDbXrecord
  3
AutoCAD 2000
 90
        0
280
     0
281
     0
  0
CLASS
  1
TABLESTYLE
  2
AcDbTableStyle
  3
ObjectDBX Classes
 90
     2047
280
     1
281
     0
  0
ENDSEC
  0
SECTION
  2
TABLES
  0
TABLE
  2
VPORT
  5
1D
330
0
100
AcDbSymbolTable
 70
     3
  0
VPORT
  5
269
330
1D
100
AcDbSymbolTableRecord
100
AcDbViewportTableRecord
  2
*Active
 70
     0
 10
0.0
 20
0.0
 11
1.0
 21
1.0
 12
8.587361922954514
 22
9.985351872236597
 13
0.0
 23
0.0
 14
0.063
 24
0.063
 15
0.25
 25
0.25
 16
0.0
 26
0.0
 36
1.0
 17
0.0
 27
0.0
 37
0.0
 40
20.27914194686395
 41
1.814583333333333
 42
50.0
 43
0.0
 44
0.0
 50
0.0
 51
0.0
 71
     0
 72
   100
 73
     1
 74
     0
 75
     0
 76
     0
 77
     0
 78
     0
281
     0
 65
     1
110
0.0
120
0.0
130
0.0
111
1.0
121
0.0
131
0.0
112
0.0
122
1.0
132
0.0
 79
     0
146
0.0
  0
ENDTAB
  0
TABLE
  2
LTYPE
  5
18
330
0
100
AcDbSymbolTable
 70
     2
  0
LTYPE
  5
19
330
18
100
AcDbSymbolTableRecord
100
AcDbLinetypeTableRecord
  2
BYBLOCK
 70
     0
  3

 72
    65
 73
     0
 40
0.0
  0
LTYPE
  5
1A
330
18
100
AcDbSymbolTableRecord
100
AcDbLinetypeTableRecord
  2
BYLAYER
 70
     0
  3

 72
    65
 73
     0
 40
0.0
  0
LTYPE
  5
A
330
18
100
AcDbSymbolTableRecord
100
AcDbLinetypeTableRecord
  2
CONTINUOUS
 70
     0
  3
Solid line
 72
    65
 73
     0
 40
0.0
  0
LTYPE
  5
268
330
18
100
AcDbSymbolTableRecord
100
AcDbLinetypeTableRecord
  2
HIDDEN
 70
     0
  3
Hidden __ __ __ __ __ __ __ __ __ __ __ __ __ _
 72
    65
 73
     2
 40
0.375
 49
0.25
 74
     0
 49
-0.125
 74
     0
  0
ENDTAB
  0
TABLE
  2
LAYER
  5
14
330
0
100
AcDbSymbolTable
 70
     2
  0
LAYER
  5
6
330
14
100
AcDbSymbolTableRecord
100
AcDbLayerTableRecord
  2
0
 70
     0
 62
     7
  6
CONTINUOUS
370
    -3
390
7
  0
ENDTAB
  0
TABLE
  2
STYLE
  5
15
330
0
100
AcDbSymbolTable
 70
     2
  0
STYLE
  5
16
330
15
100
AcDbSymbolTableRecord
100
AcDbTextStyleTableRecord
  2
STANDARD
 70
     0
 40
0.0
 41
1.0
 50
0.0
 71
     0
 42
0.225
  3
TXT
  4

  0
STYLE
  5
267
330
15
100
AcDbSymbolTableRecord
100
AcDbTextStyleTableRecord
  2

 70
     1
 40
0.0
 41
1.0
 50
0.0
 71
     0
 42
0.225
  3
ltypeshp.shx
  4

  0
ENDTAB
  0
TABLE
  2
VIEW
  5
1B
330
0
100
AcDbSymbolTable
 70
     0
  0
ENDTAB
  0
TABLE
  2
UCS
  5
1C
330
0
100
AcDbSymbolTable
 70
     0
  0
ENDTAB
  0
TABLE
  2
APPID
  5
1F
330
0
100
AcDbSymbolTable
 70
     1
  0
APPID
  5
20
330
1F
100
AcDbSymbolTableRecord
100
AcDbRegAppTableRecord
  2
ACAD
 70
     0
  0
ENDTAB
  0
TABLE
  2
DIMSTYLE
  5
21
330
0
100
AcDbSymbolTable
 70
     1
100
AcDbDimStyleTable
  0
DIMSTYLE
105
28
330
21
100
AcDbSymbolTableRecord
100
AcDbDimStyleTableRecord
  2
STANDARD
 70
     0
  3

  4

340
16
  0
ENDTAB
  0
TABLE
  2
BLOCK_RECORD
  5
1
330
0
100
AcDbSymbolTable
 70
     2
  0
BLOCK_RECORD
  5
2
330
1
100
AcDbSymbolTableRecord
100
AcDbBlockTableRecord
  2
*MODEL_SPACE
340
C
  0
BLOCK_RECORD
  5
E
330
1
100
AcDbSymbolTableRecord
100
AcDbBlockTableRecord
  2
*PAPER_SPACE
340
13
  0
ENDTAB
  0
ENDSEC
  0
SECTION
  2
BLOCKS
  0
BLOCK
  5
5
330
2
100
AcDbEntity
  8
0
100
AcDbBlockBegin
  2
*MODEL_SPACE
 70
     0
 10
0.0
 20
0.0
 30
0.0
  3
*MODEL_SPACE
  1

  4

  0
ENDBLK
  5
B
330
2
100
AcDbEntity
  8
0
100
AcDbBlockEnd
  0
BLOCK
  5
11
330
E
100
AcDbEntity
 67
     1
  8
0
100
AcDbBlockBegin
  2
*PAPER_SPACE
 70
     0
 10
0.0
 20
0.0
 30
0.0
  3
*PAPER_SPACE
  1

  4

  0
ENDBLK
  5
12
330
E
100
AcDbEntity
 67
     1
  8
0
100
AcDbBlockEnd
  0
ENDSEC
  0
SECTION
  2
ENTITIES
  0
LINE
  5
EE
330
2
100
AcDbEntity
  8
0
100
AcDbLine
 10
1.785432500000001
 20
2.14
 30
0.0
 11
1.785432500000001
 21
7.070000000000001
 31
0.0
  0
LINE
  5
EF
330
2
100
AcDbEntity
  8
0
100
AcDbLine
 10
-1.855432499999999
 20
2.14
 30
0.0
 11
-1.855432499999999
 21
7.070000000000001
 31
0.0
  0
LINE
  5
F0
330
2
100
AcDbEntity
  8
0
100
AcDbLine
 10
-1.785432499999999
 20
2.14
 30
0.0
 11
-1.785432499999999
 21
7.070000000000001
 31
0.0
  0
LINE
  5
F1
330
2
100
AcDbEntity
  8
0
100
AcDbLine
 10
1.855432500000001
 20
2.14
 30
0.0
 11
1.855432500000001
 21
7.070000000000001
 31
0.0
  0
ARC
  5
F2
330
2
100
AcDbEntity
  8
0
100
AcDbCircle
 10
-2.806530499999999
 20
4.026147000000001
 30
0.0
 40
0.2
100
AcDbArc
 50
0.0
 51
77.364375
  0
LINE
  5
F3
330
2
100
AcDbEntity
  8
0
100
AcDbLine
 10
-1.855432499999999
 20
0.1400000000000006
 30
0.0
 11
-1.855432499999999
 21
5.070000000000001
 31
0.0
  0
LINE
  5
F4
330
2
100
AcDbEntity
  8
0
100
AcDbLine
 10
1.855432500000001
 20
0.1400000000000006
 30
0.0
 11
1.855432500000001
 21
5.070000000000001
 31
0.0
  0
LINE
  5
F5
330
2
100
AcDbEntity
  8
0
100
AcDbLine
 10
-1.785432499999999
 20
0.1400000000000006
 30
0.0
 11
-1.785432499999999
 21
5.070000000000001
 31
0.0
  0
ARC
  5
F6
330
2
100
AcDbEntity
  8
0
100
AcDbCircle
 10
2.806530499999999
 20
4.026147000000001
 30
0.0
 40
0.2
100
AcDbArc
 50
102.635625
 51
180.0
  0
LINE
  5
F7
330
2
100
AcDbEntity
  8
0
100
AcDbLine
 10
1.855432500000001
 20
5.070000000000001
 30
0.0
 11
1.855432500000001
 21
0.8648040000000012
 31
0.0
  0
LINE
  5
F8
330
2
100
AcDbEntity
  8
0
100
AcDbLine
 10
1.785432500000001
 20
0.1400000000000006
 30
0.0
 11
1.785432500000001
 21
5.070000000000001
 31
0.0
  0
LINE
  5
F9
330
2
100
AcDbEntity
  8
0
100
AcDbLine
 10
-1.7154325
 20
0.0
 30
0.0
 11
1.7154325
 21
0.0
 31
0.0
  0
LINE
  5
FA
330
2
100
AcDbEntity
  8
0
100
AcDbLine
 10
-1.7154325
 20
0.0700000000000003
 30
0.0
 11
1.7154325
 21
0.0700000000000003
 31
0.0
  0
LINE
  5
FB
330
2
100
AcDbEntity
  8
0
100
AcDbLine
 10
-1.855432499999999
 20
0.8324993825417768
 30
0.0
 11
-2.8830075
 21
2.271105000000001
 31
0.0
  0
ARC
  5
FC
330
2
100
AcDbEntity
  8
0
100
AcDbCircle
 10
-1.7154325
 20
0.1400000000000006
 30
0.0
 40
0.14
100
AcDbArc
 50
180.0
 51
270.0
  0
ARC
  5
FD
330
2
100
AcDbEntity
  8
0
100
AcDbCircle
 10
-1.7154325
 20
0.1400000000000006
 30
0.0
 40
0.07
100
AcDbArc
 50
180.0
 51
270.0
  0
CIRCLE
  5
FE
330
2
100
AcDbEntity
  8
0
100
AcDbCircle
 10
-2.605432499999999
 20
2.570000000000001
 30
0.0
 40
0.0855
  0
LINE
  5
FF
330
2
100
AcDbEntity
  8
0
100
AcDbLine
 10
-2.917932499999999
 20
2.380087000000001
 30
0.0
 11
-2.917932499999999
 21
3.056762946631824
 31
0.0
  0
ARC
  5
100
330
2
100
AcDbEntity
  8
0
100
AcDbCircle
 10
-2.730432499999999
 20
2.380087000000001
 30
0.0
 40
0.1875
100
AcDbArc
 50
180.0
 51
215.537678
  0
ARC
  5
102
330
2
100
AcDbEntity
  8
0
100
AcDbCircle
 10
-2.806530499999999
 20
3.426147000000001
 30
0.0
 40
0.2
100
AcDbArc
 50
282.635625
 51
0.0
  0
ARC
  5
103
330
2
100
AcDbEntity
  8
0
100
AcDbCircle
 10
-2.719030500633681
 20
3.035834624958043
 30
0.0
 40
0.2
100
AcDbArc
 50
102.635625
 51
180.0
  0
LINE
  5
104
330
2
100
AcDbEntity
  8
0
100
AcDbLine
 10
-2.6065305
 20
4.026147000000001
 30
0.0
 11
-2.6065305
 21
3.426147000000001
 31
0.0
  0
LINE
  5
107
330
2
100
AcDbEntity
  8
0
100
AcDbLine
 10
1.8844865
 20
0.8731750000000007
 30
0.0
 11
2.8830075
 21
2.271105000000001
 31
0.0
  0
ARC
  5
108
330
2
100
AcDbEntity
  8
0
100
AcDbCircle
 10
1.7154325
 20
0.1400000000000006
 30
0.0
 40
0.14
100
AcDbArc
 50
270.0
 51
0.0
  0
ARC
  5
109
330
2
100
AcDbEntity
  8
0
100
AcDbCircle
 10
1.7154325
 20
0.1400000000000006
 30
0.0
 40
0.07
100
AcDbArc
 50
270.0
 51
0.0
  0
CIRCLE
  5
10B
330
2
100
AcDbEntity
  8
0
100
AcDbCircle
 10
2.605432500000001
 20
2.570000000000001
 30
0.0
 40
0.0855
  0
LINE
  5
10C
330
2
100
AcDbEntity
  8
0
100
AcDbLine
 10
2.917932500000001
 20
2.380087000000001
 30
0.0
 11
2.917932500000001
 21
3.070000000000001
 31
0.0
  0
CIRCLE
  5
10D
330
2
100
AcDbEntity
  8
0
100
AcDbCircle
 10
2.605432500000001
 20
2.570000000000001
 30
0.0
 40
0.0855
  0
ARC
  5
10E
330
2
100
AcDbEntity
  8
0
100
AcDbCircle
 10
2.730432500000001
 20
2.380087000000001
 30
0.0
 40
0.1875
100
AcDbArc
 50
324.462322
 51
0.0
  0
ARC
  5
10F
330
2
100
AcDbEntity
  8
0
100
AcDbCircle
 10
2.806530499999999
 20
3.426147000000001
 30
0.0
 40
0.2
100
AcDbArc
 50
180.0
 51
257.364375
  0
ARC
  5
110
330
2
100
AcDbEntity
  8
0
100
AcDbCircle
 10
2.715480817722043
 20
3.03014918120141
 30
0.0
 40
0.2063365489100108
100
AcDbArc
 50
11.13579870158609
 51
76.74792766783928
  0
LINE
  5
111
330
2
100
AcDbEntity
  8
0
100
AcDbLine
 10
2.6065305
 20
4.026147000000001
 30
0.0
 11
2.6065305
 21
3.426147000000001
 31
0.0
  0
LINE
  5
113
330
2
100
AcDbEntity
  8
0
100
AcDbLine
 10
-2.6065305
 20
6.026147000000001
 30
0.0
 11
-2.6065305
 21
5.426147000000001
 31
0.0
  0
LINE
  5
114
330
2
100
AcDbEntity
  8
0
100
AcDbLine
 10
-2.919030499999999
 20
4.416459000000001
 30
0.0
 11
-2.917932499999999
 21
5.056762946631825
 31
0.0
  0
ARC
  5
115
330
2
100
AcDbEntity
  8
0
100
AcDbCircle
 10
-2.719030499999999
 20
4.416459000000001
 30
0.0
 40
0.2
100
AcDbArc
 50
180.0
 51
257.364375
  0
CIRCLE
  5
116
330
2
100
AcDbEntity
  8
0
100
AcDbCircle
 10
-2.605432499999999
 20
4.570000000000001
 30
0.0
 40
0.0855
  0
ARC
  5
117
330
2
100
AcDbEntity
  8
0
100
AcDbCircle
 10
-2.806530499999999
 20
5.426147000000001
 30
0.0
 40
0.2
100
AcDbArc
 50
282.635625
 51
0.0
  0
ARC
  5
118
330
2
100
AcDbEntity
  8
0
100
AcDbCircle
 10
-2.719030500633681
 20
5.035834624958043
 30
0.0
 40
0.2
100
AcDbArc
 50
102.635625
 51
180.0
  0
ARC
  5
119
330
2
100
AcDbEntity
  8
0
100
AcDbCircle
 10
-1.796770562400893
 20
4.570000000000001
 30
0.0
 40
0.25
100
AcDbArc
 50
103.5708597820756
 51
256.4291402179244
  0
LINE
  5
11A
330
2
100
AcDbEntity
  8
0
100
AcDbLine
 10
-1.855432499999999
 20
7.070000000000001
 30
0.0
 11
-2.917932499999999
 21
7.070000000000001
 31
0.0
  0
LINE
  5
11B
330
2
100
AcDbEntity
  8
0
100
AcDbLine
 10
-2.917932499999999
 20
6.380087000000001
 30
0.0
 11
-2.917932499999999
 21
7.070000000000001
 31
0.0
  0
ARC
  5
11C
330
2
100
AcDbEntity
  8
0
100
AcDbCircle
 10
-2.806530499999999
 20
6.026147000000001
 30
0.0
 40
0.2
100
AcDbArc
 50
0.0
 51
77.364375
  0
ARC
  5
11D
330
2
100
AcDbEntity
  8
0
100
AcDbCircle
 10
-2.714569535568931
 20
6.423604494564268
 30
0.0
 40
0.2079669868881672
100
AcDbArc
 50
192.0785173768943
 51
256.5957373275875
  0
CIRCLE
  5
11E
330
2
100
AcDbEntity
  8
0
100
AcDbCircle
 10
-2.605432499999999
 20
6.570000000000001
 30
0.0
 40
0.0855
  0
LINE
  5
11F
330
2
100
AcDbEntity
  8
0
100
AcDbLine
 10
-1.855432499999999
 20
7.070000000000001
 30
0.0
 11
-1.7838245
 21
7.070000000000001
 31
0.0
  0
ARC
  5
121
330
2
100
AcDbEntity
  8
0
100
AcDbCircle
 10
1.80514182374205
 20
4.56323896003103
 30
0.0
 40
0.25
100
AcDbArc
 50
281.6049590901678
 51
78.39504090983218
  0
LINE
  5
122
330
2
100
AcDbEntity
  8
0
100
AcDbLine
 10
1.855432500000001
 20
7.070000000000001
 30
0.0
 11
2.917932500000001
 21
7.070000000000001
 31
0.0
  0
LINE
  5
123
330
2
100
AcDbEntity
  8
0
100
AcDbLine
 10
1.785432500000001
 20
7.070000000000001
 30
0.0
 11
1.943380500000002
 21
7.070000000000001
 31
0.0
  0
LINE
  5
124
330
2
100
AcDbEntity
  8
0
100
AcDbLine
 10
2.6065305
 20
6.026147000000001
 30
0.0
 11
2.6065305
 21
5.426147000000001
 31
0.0
  0
LINE
  5
125
330
2
100
AcDbEntity
  8
0
100
AcDbLine
 10
2.919030500000001
 20
4.416459000000001
 30
0.0
 11
2.917932500000001
 21
5.070000000000001
 31
0.0
  0
CIRCLE
  5
126
330
2
100
AcDbEntity
  8
0
100
AcDbCircle
 10
2.605432500000001
 20
4.570000000000001
 30
0.0
 40
0.0855
  0
ARC
  5
127
330
2
100
AcDbEntity
  8
0
100
AcDbCircle
 10
2.719030500000001
 20
4.416459000000001
 30
0.0
 40
0.2
100
AcDbArc
 50
282.635625
 51
0.0
  0
ARC
  5
128
330
2
100
AcDbEntity
  8
0
100
AcDbCircle
 10
2.806530499999999
 20
5.426147000000001
 30
0.0
 40
0.2
100
AcDbArc
 50
180.0
 51
257.364375
  0
ARC
  5
129
330
2
100
AcDbEntity
  8
0
100
AcDbCircle
 10
2.715480817722042
 20
5.03014918120141
 30
0.0
 40
0.2063365489100116
100
AcDbArc
 50
11.13579870158592
 51
76.74792766783901
  0
LINE
  5
12A
330
2
100
AcDbEntity
  8
0
100
AcDbLine
 10
2.917932500000001
 20
6.380087000000001
 30
0.0
 11
2.917932500000001
 21
7.070000000000001
 31
0.0
  0
ARC
  5
12B
330
2
100
AcDbEntity
  8
0
100
AcDbCircle
 10
2.806530499999999
 20
6.026147000000001
 30
0.0
 40
0.2
100
AcDbArc
 50
102.635625
 51
180.0
  0
ARC
  5
12C
330
2
100
AcDbEntity
  8
0
100
AcDbCircle
 10
2.719030500000003
 20
6.416459000000002
 30
0.0
 40
0.2000000000000003
100
AcDbArc
 50
282.6356249999993
 51
353.9934832503546
  0
CIRCLE
  5
12D
330
2
100
AcDbEntity
  8
0
100
AcDbCircle
 10
2.605432500000001
 20
6.570000000000001
 30
0.0
 40
0.0855
  0
LINE
  5
12E
330
2
100
AcDbEntity
  8
0
100
AcDbLine
 10
-1.766133500000001
 20
12.03510957859507
 30
0.0
 11
-0.699764671555565
 21
12.03419432080927
 31
0.0
  0
LINE
  5
12F
330
2
100
AcDbEntity
  8
0
100
AcDbLine
 10
-1.766133500000001
 20
10.03510957859507
 30
0.0
 11
-0.699764671555565
 21
10.0356918001245
 31
0.0
  0
LINE
  5
130
330
2
100
AcDbEntity
  8
0
100
AcDbLine
 10
-1.836133500000001
 20
11.89510957859507
 30
0.0
 11
-1.836133500000001
 21
10.03510957859507
 31
0.0
  0
LINE
  5
131
330
2
100
AcDbEntity
  8
0
100
AcDbLine
 10
-1.766133500000001
 20
12.03510957859507
 30
0.0
 11
-1.766133500000001
 21
10.03510957859507
 31
0.0
  0
LINE
  5
132
330
2
100
AcDbEntity
  8
0
100
AcDbLine
 10
-1.836133500000001
 20
10.03510957859507
 30
0.0
 11
-1.670380499999999
 21
10.03510957859507
 31
0.0
  0
LINE
  5
133
330
2
100
AcDbEntity
  8
0
100
AcDbLine
 10
-1.836133500000001
 20
12.15199657859506
 30
0.0
 11
-1.836133500000001
 21
11.88775757859507
 31
0.0
  0
LINE
  5
134
330
2
100
AcDbEntity
  8
0
100
AcDbLine
 10
-1.955204635592752
 20
11.16532233201894
 30
0.0
 11
-1.835526134731255
 21
11.09756116011701
 31
0.0
  0
ARC
  5
135
330
2
100
AcDbEntity
  8
0
100
AcDbCircle
 10
-1.895526134731256
 20
11.30985364662284
 30
0.0
 40
0.06
100
AcDbArc
 50
315.0
 51
359.9999999999999
  0
LINE
  5
136
330
2
100
AcDbEntity
  8
0
100
AcDbLine
 10
-1.853099727860061
 20
11.26742723975164
 30
0.0
 11
-1.955204635592752
 21
11.16532233201894
 31
0.0
  0
LINE
  5
137
330
2
100
AcDbEntity
  8
0
100
AcDbLine
 10
-1.906133500000001
 20
12.29199657859506
 30
0.0
 11
-2.898633499999999
 21
12.29199657859506
 31
0.0
  0
LINE
  5
138
330
2
100
AcDbEntity
  8
0
100
AcDbLine
 10
-1.906133500000001
 20
12.22199657859506
 30
0.0
 11
-2.898633499999999
 21
12.22199657859506
 31
0.0
  0
LINE
  5
139
330
2
100
AcDbEntity
  8
0
100
AcDbLine
 10
-2.898633499999999
 20
12.29199657859506
 30
0.0
 11
-2.898633499999999
 21
12.22199657859506
 31
0.0
  0
ARC
  5
13A
330
2
100
AcDbEntity
  8
0
100
AcDbCircle
 10
-1.906133500000001
 20
12.15199657859506
 30
0.0
 40
0.14
100
AcDbArc
 50
0.0
 51
90.0
  0
LINE
  5
13B
330
2
100
AcDbEntity
  8
0
100
AcDbLine
 10
-1.766133500000001
 20
12.03510957859507
 30
0.0
 11
-1.766133500000001
 21
12.15199657859506
 31
0.0
  0
ARC
  5
13C
330
2
100
AcDbEntity
  8
0
100
AcDbCircle
 10
-1.906133500000001
 20
12.15199657859506
 30
0.0
 40
0.07
100
AcDbArc
 50
0.0
 51
90.0
  0
LINE
  5
13D
330
2
100
AcDbEntity
  8
0
100
AcDbLine
 10
1.865866499999997
 20
12.15199657859506
 30
0.0
 11
1.865866499999997
 21
10.03510957859507
 31
0.0
  0
LINE
  5
13E
330
2
100
AcDbEntity
  8
0
100
AcDbLine
 10
1.795866500000001
 20
12.03510957859507
 30
0.0
 11
1.795866500000001
 21
10.03510957859507
 31
0.0
  0
LINE
  5
13F
330
2
100
AcDbEntity
  8
0
100
AcDbLine
 10
-0.5278602758582043
 20
10.03602330061009
 30
0.0
 11
0.5502353284444332
 21
10.03484353133512
 31
0.0
  0
ARC
  5
140
330
2
100
AcDbEntity
  8
0
100
AcDbCircle
 10
-0.6133595997162198
 20
10.03568327146118
 30
0.0
 40
0.0855
100
AcDbArc
 50
0.227863
 51
89.763378
  0
ARC
  5
141
330
2
100
AcDbEntity
  8
0
100
AcDbCircle
 10
-0.6142646715555653
 20
10.0356918001245
 30
0.0
 40
0.0855
100
AcDbArc
 50
89.156836
 51
180.0
  0
LINE
  5
142
330
2
100
AcDbEntity
  8
0
100
AcDbLine
 10
0.7221397241418366
 20
10.03517503182071
 30
0.0
 11
1.795866500000001
 21
10.03510957859507
 31
0.0
  0
ARC
  5
143
330
2
100
AcDbEntity
  8
0
100
AcDbCircle
 10
0.6366404002838202
 20
10.0348350026718
 30
0.0
 40
0.0855
100
AcDbArc
 50
0.227863
 51
89.763378
  0
ARC
  5
144
330
2
100
AcDbEntity
  8
0
100
AcDbCircle
 10
0.6357353284444329
 20
10.03484353133512
 30
0.0
 40
0.0855
100
AcDbArc
 50
89.156836
 51
180.0
  0
LINE
  5
145
330
2
100
AcDbEntity
  8
0
100
AcDbLine
 10
1.865866499999997
 20
10.03510957859507
 30
0.0
 11
1.769059499999999
 21
10.03510957859507
 31
0.0
  0
LINE
  5
146
330
2
100
AcDbEntity
  8
0
100
AcDbLine
 10
1.879803901743886
 20
11.26011669611827
 30
0.0
 11
1.981508101916619
 21
11.15761264725468
 31
0.0
  0
LINE
  5
147
330
2
100
AcDbEntity
  8
0
100
AcDbLine
 10
1.981508101916619
 20
11.15761264725468
 30
0.0
 11
1.861565112217354
 21
11.09032075169527
 31
0.0
  0
ARC
  5
148
330
2
100
AcDbEntity
  8
0
100
AcDbCircle
 10
1.935866499999998
 20
12.15199657859506
 30
0.0
 40
0.14
100
AcDbArc
 50
90.0
 51
180.0
  0
ARC
  5
149
330
2
100
AcDbEntity
  8
0
100
AcDbCircle
 10
1.935866499999998
 20
12.15199657859506
 30
0.0
 40
0.07
100
AcDbArc
 50
90.0
 51
180.0
  0
ARC
  5
14A
330
2
100
AcDbEntity
  8
0
100
AcDbCircle
 10
1.92239615886062
 20
11.30237660186476
 30
0.0
 40
0.06
100
AcDbArc
 50
179.7755834051965
 51
224.7755834051964
  0
LINE
  5
14B
330
2
100
AcDbEntity
  8
0
100
AcDbLine
 10
-0.5280013613492613
 20
12.03510957859507
 30
0.0
 11
0.5502353284444332
 21
12.03419432080927
 31
0.0
  0
ARC
  5
14C
330
2
100
AcDbEntity
  8
0
100
AcDbCircle
 10
-0.6133624901110224
 20
12.03420978620311
 30
0.0
 40
0.0855069486560551
100
AcDbArc
 50
270.2385395591082
 51
0.6029364727177151
  0
ARC
  5
14D
330
2
100
AcDbEntity
  8
0
100
AcDbCircle
 10
-0.6142646715555653
 20
12.03419432080927
 30
0.0
 40
0.0855
100
AcDbArc
 50
180.0
 51
270.843164
  0
LINE
  5
14E
330
2
100
AcDbEntity
  8
0
100
AcDbLine
 10
0.7221397241417176
 20
12.03386282032369
 30
0.0
 11
1.795866500000001
 21
12.03510957859507
 31
0.0
  0
ARC
  5
14F
330
2
100
AcDbEntity
  8
0
100
AcDbCircle
 10
0.6366404002837012
 20
12.0342028494726
 30
0.0
 40
0.0855
100
AcDbArc
 50
270.236622
 51
359.772137
  0
ARC
  5
150
330
2
100
AcDbEntity
  8
0
100
AcDbCircle
 10
0.6357353284444329
 20
12.03419432080927
 30
0.0
 40
0.0855
100
AcDbArc
 50
180.0
 51
270.843164
  0
LINE
  5
151
330
2
100
AcDbEntity
  8
0
100
AcDbLine
 10
1.795866500000001
 20
12.03510957859507
 30
0.0
 11
1.795866500000001
 21
12.15199657859506
 31
0.0
  0
LINE
  5
152
330
2
100
AcDbEntity
  8
0
100
AcDbLine
 10
1.935866499999998
 20
12.22199657859506
 30
0.0
 11
2.928366499999997
 21
12.22199657859506
 31
0.0
  0
LINE
  5
153
330
2
100
AcDbEntity
  8
0
100
AcDbLine
 10
1.935866499999998
 20
12.29199657859506
 30
0.0
 11
2.928366499999997
 21
12.29199657859506
 31
0.0
  0
LINE
  5
154
330
2
100
AcDbEntity
  8
0
100
AcDbLine
 10
2.928366499999997
 20
12.29199657859506
 30
0.0
 11
2.928366499999997
 21
12.22199657859506
 31
0.0
  0
LINE
  5
155
330
2
100
AcDbEntity
  8
0
100
AcDbLine
 10
9.061367881788723
 20
0.9866489999999999
 30
0.0
 11
9.061367881788723
 21
7.091150000000002
 31
0.0
  0
ARC
  5
156
330
2
100
AcDbEntity
  8
0
100
AcDbCircle
 10
7.958009881788723
 20
4.030078000000001
 30
0.0
 40
0.2
100
AcDbArc
 50
102.635625
 51
180.0
  0
LINE
  5
157
330
2
100
AcDbEntity
  8
0
100
AcDbLine
 10
8.991367881788722
 20
0.9137370000000011
 30
0.0
 11
8.991367881788722
 21
7.091150000000002
 31
0.0
  0
ARC
  5
159
330
2
100
AcDbEntity
  8
0
100
AcDbCircle
 10
8.873867881788723
 20
0.9866489999999999
 30
0.0
 40
0.1875
100
AcDbArc
 50
317.50125
 51
0.0
  0
LINE
  5
15A
330
2
100
AcDbEntity
  8
0
100
AcDbLine
 10
6.838792881788724
 20
0.6318529999999996
 30
0.0
 11
8.024793881788721
 21
2.292255
 31
0.0
  0
LINE
  5
15B
330
2
100
AcDbEntity
  8
0
100
AcDbLine
 10
8.803867881788722
 20
-0.0075590000000005
 30
0.0
 11
6.803867881788722
 21
-0.0075590000000005
 31
0.0
  0
LINE
  5
15C
330
2
100
AcDbEntity
  8
0
  6
HIDDEN
100
AcDbLine
 10
8.803867881788722
 20
0.0624409999999997
 30
0.0
 11
6.803867881788722
 21
0.0624409999999997
 31
0.0
  0
LINE
  5
15E
330
2
100
AcDbEntity
  8
0
100
AcDbLine
 10
6.803867881788722
 20
-0.0075590000000005
 30
0.0
 11
6.803867881788722
 21
0.5228710000000021
 31
0.0
  0
ARC
  5
15F
330
2
100
AcDbEntity
  8
0
100
AcDbCircle
 10
6.991367881788722
 20
0.5228710000000021
 30
0.0
 40
0.1875
100
AcDbArc
 50
144.462322
 51
180.0
  0
LINE
  5
160
330
2
100
AcDbEntity
  8
0
100
AcDbLine
 10
8.803867881788722
 20
-0.0075590000000005
 30
0.0
 11
8.803867881788722
 21
0.5280660000000008
 31
0.0
  0
LINE
  5
161
330
2
100
AcDbEntity
  8
0
100
AcDbLine
 10
8.803867881788722
 20
0.0624409999999997
 30
0.0
 11
8.803867881788722
 21
0.5310620000000004
 31
0.0
  0
ARC
  5
162
330
2
100
AcDbEntity
  8
0
100
AcDbCircle
 10
8.991367881788722
 20
0.5310620000000004
 30
0.0
 40
0.1875
100
AcDbArc
 50
144.462322
 51
180.0
  0
LINE
  5
163
330
2
100
AcDbEntity
  8
0
100
AcDbLine
 10
8.838792881788724
 20
0.6400450000000006
 30
0.0
 11
8.956442881788721
 21
0.8047550000000001
 31
0.0
  0
LINE
  5
164
330
2
100
AcDbEntity
  8
0
100
AcDbLine
 10
9.012109881788728
 20
0.8599790000000009
 30
0.0
 11
8.953668881788726
 21
0.7961990000000014
 31
0.0
  0
ARC
  5
165
330
2
100
AcDbEntity
  8
0
100
AcDbCircle
 10
8.803867881788722
 20
0.9137370000000011
 30
0.0
 40
0.1875
100
AcDbArc
 50
324.462322
 51
0.0
  0
LINE
  5
166
330
2
100
AcDbEntity
  8
0
100
AcDbLine
 10
8.059718881788722
 20
2.401236999999999
 30
0.0
 11
8.059718881788722
 21
3.09115
 31
0.0
  0
ARC
  5
167
330
2
100
AcDbEntity
  8
0
100
AcDbCircle
 10
7.872218881788722
 20
2.401236999999999
 30
0.0
 40
0.1875
100
AcDbArc
 50
324.462322
 51
0.0
  0
ARC
  5
168
330
2
100
AcDbEntity
  8
0
100
AcDbCircle
 10
7.958727881788722
 20
3.430078000000001
 30
0.0
 40
0.2
100
AcDbArc
 50
180.0
 51
257.364375
  0
LINE
  5
169
330
2
100
AcDbEntity
  8
0
100
AcDbLine
 10
7.758009881788727
 20
3.430078000000001
 30
0.0
 11
7.758009881788727
 21
4.030078000000001
 31
0.0
  0
ARC
  5
16A
330
2
100
AcDbEntity
  8
0
100
AcDbCircle
 10
7.881928121653657
 20
3.056905456494819
 30
0.0
 40
0.1810586732230258
100
AcDbArc
 50
10.9023117557544
 51
79.48247949848474
  0
LINE
  5
16C
330
2
100
AcDbEntity
  8
0
100
AcDbLine
 10
7.758009881788727
 20
5.430078000000001
 30
0.0
 11
7.758009881788727
 21
6.030078000000001
 31
0.0
  0
ARC
  5
16D
330
2
100
AcDbEntity
  8
0
100
AcDbCircle
 10
7.958727881788722
 20
5.430078000000001
 30
0.0
 40
0.2
100
AcDbArc
 50
180.0
 51
257.364375
  0
LINE
  5
16E
330
2
100
AcDbEntity
  8
0
100
AcDbLine
 10
8.059718881788722
 20
4.401236999999999
 30
0.0
 11
8.059718881788722
 21
5.09115
 31
0.0
  0
ARC
  5
16F
330
2
100
AcDbEntity
  8
0
100
AcDbCircle
 10
7.866435558093813
 20
4.412868312003418
 30
0.0
 40
0.1936329792093076
100
AcDbArc
 50
284.2991356234871
 51
356.5562348096794
  0
ARC
  5
170
330
2
100
AcDbEntity
  8
0
100
AcDbCircle
 10
9.050348121234784
 20
4.570000000000001
 30
0.0
 40
0.25
100
AcDbArc
 50
103.5708597820756
 51
256.4291402179244
  0
ARC
  5
171
330
2
100
AcDbEntity
  8
0
100
AcDbCircle
 10
7.881928121653657
 20
5.056905456494819
 30
0.0
 40
0.1810586732230258
100
AcDbArc
 50
10.9023117557544
 51
79.48247949848474
  0
ARC
  5
172
330
2
100
AcDbEntity
  8
0
100
AcDbCircle
 10
7.958009881788723
 20
6.030078000000001
 30
0.0
 40
0.2
100
AcDbArc
 50
102.635625
 51
180.0
  0
LINE
  5
173
330
2
100
AcDbEntity
  8
0
100
AcDbLine
 10
8.059718881788722
 20
6.401236999999999
 30
0.0
 11
8.059718881788722
 21
7.091150000000002
 31
0.0
  0
ARC
  5
175
330
2
100
AcDbEntity
  8
0
100
AcDbCircle
 10
7.866176130146656
 20
6.413082718404947
 30
0.0
 40
0.1939049193747047
100
AcDbArc
 50
284.3577701839903
 51
356.4976002491779
  0
LINE
  5
176
330
2
100
AcDbEntity
  8
0
100
AcDbLine
 10
8.059718881788722
 20
7.091150000000002
 30
0.0
 11
8.991367881788722
 21
7.091150000000002
 31
0.0
  0
LINE
  5
177
330
2
100
AcDbEntity
  8
0
100
AcDbLine
 10
9.061367881788723
 20
7.091150000000002
 30
0.0
 11
8.949877881788726
 21
7.091150000000002
 31
0.0
  0
LWPOLYLINE
  5
178
330
2
100
AcDbEntity
  8
0
100
AcDbPolyline
 90
        9
 70
     0
 43
0.0
 10
-1.855432410869247
 20
1.265928661397222
 42
-0.1432467981947568
 10
-1.880657061724703
 20
1.273306758268472
 42
-0.1071754848060475
 10
-1.905343227695289
 20
1.297857683413124
 42
-0.0783035184710328
 10
-1.92028989531765
 20
1.331478937763922
 42
-0.0656020556757086
 10
-1.926016964933757
 20
1.374941161397228
 42
-0.0656020556757101
 10
-1.92028989531765
 20
1.418403385030526
 42
-0.0783035184710357
 10
-1.905343227695289
 20
1.452024639381325
 42
-0.1071754848060445
 10
-1.880657061724703
 20
1.476575564525977
 42
-0.1432467981947535
 10
-1.855432410869247
 20
1.483953661397226
 42
-0.1432467981947515
  0
LINE
  5
179
330
2
100
AcDbEntity
  8
0
100
AcDbLine
 10
-1.855432410869247
 20
1.236603661397222
 30
0.0
 11
-1.855432410869247
 21
1.513278661397226
 31
0.0
  0
LWPOLYLINE
  5
17A
330
2
100
AcDbEntity
  8
0
100
AcDbPolyline
 90
        9
 70
     0
 43
0.0
 10
-1.855432410869247
 20
1.295253661397222
 42
-0.147269582437036
 10
-1.873128834031787
 20
1.300581503085017
 42
-0.1071386913803464
 10
-1.890680727695289
 20
1.318593589771421
 42
-0.0765137470862007
 10
-1.901222641742058
 20
1.343098327805581
 42
-0.063469041210727
 10
-1.90528105857546
 20
1.374941161397228
 42
-0.0634690412107267
 10
-1.901222641742058
 20
1.406783994988867
 42
-0.0765137470862059
 10
-1.890680727695289
 20
1.431288733023028
 42
-0.1071386913803463
 10
-1.873128834031787
 20
1.449300819709432
 42
-0.1472695824370325
 10
-1.855432410869247
 20
1.454628661397226
 42
-0.1472695824370333
  0
LWPOLYLINE
  5
17B
330
2
100
AcDbEntity
  8
0
100
AcDbPolyline
 90
        9
 70
     0
 43
0.0
 10
-1.85543241086925
 20
3.578428661397221
 42
-0.1432467981947568
 10
-1.880657061724707
 20
3.585806758268471
 42
-0.1071754848060475
 10
-1.905343227695292
 20
3.610357683413123
 42
-0.0783035184710328
 10
-1.920289895317653
 20
3.643978937763921
 42
-0.0656020556757086
 10
-1.92601696493376
 20
3.687441161397227
 42
-0.0656020556757101
 10
-1.920289895317653
 20
3.730903385030525
 42
-0.0783035184710357
 10
-1.905343227695292
 20
3.764524639381324
 42
-0.1071754848060445
 10
-1.880657061724707
 20
3.789075564525976
 42
-0.1432467981947535
 10
-1.85543241086925
 20
3.796453661397226
 42
-0.1432467981947515
  0
LINE
  5
17C
330
2
100
AcDbEntity
  8
0
100
AcDbLine
 10
-1.85543241086925
 20
3.549103661397221
 30
0.0
 11
-1.85543241086925
 21
3.825778661397226
 31
0.0
  0
LWPOLYLINE
  5
17D
330
2
100
AcDbEntity
  8
0
100
AcDbPolyline
 90
        9
 70
     0
 43
0.0
 10
-1.85543241086925
 20
3.607753661397221
 42
-0.147269582437036
 10
-1.873128834031791
 20
3.613081503085016
 42
-0.1071386913803464
 10
-1.890680727695292
 20
3.63109358977142
 42
-0.0765137470862007
 10
-1.901222641742061
 20
3.65559832780558
 42
-0.063469041210727
 10
-1.905281058575463
 20
3.687441161397227
 42
-0.0634690412107267
 10
-1.901222641742061
 20
3.719283994988866
 42
-0.0765137470862059
 10
-1.890680727695292
 20
3.743788733023027
 42
-0.1071386913803463
 10
-1.873128834031791
 20
3.761800819709431
 42
-0.1472695824370325
 10
-1.85543241086925
 20
3.767128661397226
 42
-0.1472695824370333
  0
LWPOLYLINE
  5
17E
330
2
100
AcDbEntity
  8
0
100
AcDbPolyline
 90
        9
 70
     0
 43
0.0
 10
1.855432499999996
 20
0.755791996659096
 42
0.1432467981947568
 10
1.880657150855452
 20
0.7631700935303458
 42
0.1071754848060475
 10
1.905343316826038
 20
0.7877210186749979
 42
0.0783035184710328
 10
1.920289984448399
 20
0.8213422730257962
 42
0.0656020556757086
 10
1.926017054064506
 20
0.8648044966591018
 42
0.0656020556757101
 10
1.920289984448399
 20
0.9082667202924002
 42
0.0783035184710357
 10
1.905343316826038
 20
0.9418879746431985
 42
0.1071754848060445
 10
1.880657150855452
 20
0.9664388997878506
 42
0.1432467981947535
 10
1.855432499999996
 20
0.9738169966591004
 42
0.1432467981947515
  0
LINE
  5
17F
330
2
100
AcDbEntity
  8
0
100
AcDbLine
 10
1.855432499999996
 20
0.726466996659096
 30
0.0
 11
1.855432499999996
 21
1.0031419966591
 31
0.0
  0
LWPOLYLINE
  5
180
330
2
100
AcDbEntity
  8
0
100
AcDbPolyline
 90
        9
 70
     0
 43
0.0
 10
1.855432499999996
 20
0.7851169966590961
 42
0.147269582437036
 10
1.873128923162536
 20
0.7904448383468905
 42
0.1071386913803464
 10
1.890680816826038
 20
0.8084569250332949
 42
0.0765137470862007
 10
1.901222730872807
 20
0.8329616630674552
 42
0.063469041210727
 10
1.905281147706209
 20
0.8648044966591018
 42
0.0634690412107267
 10
1.901222730872807
 20
0.8966473302507412
 42
0.0765137470862059
 10
1.890680816826038
 20
0.9211520682849015
 42
0.1071386913803463
 10
1.873128923162536
 20
0.9391641549713059
 42
0.1472695824370325
 10
1.855432499999996
 20
0.9444919966591003
 42
0.1472695824370333
  0
LWPOLYLINE
  5
181
330
2
100
AcDbEntity
  8
0
100
AcDbPolyline
 90
        9
 70
     0
 43
0.0
 10
1.855432499999996
 20
3.697851133473152
 42
0.1432467981947568
 10
1.880657150855452
 20
3.705229230344401
 42
0.1071754848060475
 10
1.905343316826038
 20
3.729780155489054
 42
0.0783035184710328
 10
1.920289984448399
 20
3.763401409839852
 42
0.0656020556757086
 10
1.926017054064506
 20
3.806863633473157
 42
0.0656020556757101
 10
1.920289984448399
 20
3.850325857106456
 42
0.0783035184710357
 10
1.905343316826038
 20
3.883947111457254
 42
0.1071754848060445
 10
1.880657150855452
 20
3.908498036601906
 42
0.1432467981947535
 10
1.855432499999996
 20
3.915876133473156
 42
0.1432467981947515
  0
LINE
  5
182
330
2
100
AcDbEntity
  8
0
100
AcDbLine
 10
1.855432499999996
 20
3.668526133473152
 30
0.0
 11
1.855432499999996
 21
3.945201133473156
 31
0.0
  0
LWPOLYLINE
  5
183
330
2
100
AcDbEntity
  8
0
100
AcDbPolyline
 90
        9
 70
     0
 43
0.0
 10
1.855432499999996
 20
3.727176133473152
 42
0.147269582437036
 10
1.873128923162536
 20
3.732503975160946
 42
0.1071386913803464
 10
1.890680816826038
 20
3.750516061847351
 42
0.0765137470862007
 10
1.901222730872807
 20
3.775020799881511
 42
0.063469041210727
 10
1.905281147706209
 20
3.806863633473157
 42
0.0634690412107267
 10
1.901222730872807
 20
3.838706467064797
 42
0.0765137470862059
 10
1.890680816826038
 20
3.863211205098957
 42
0.1071386913803463
 10
1.873128923162536
 20
3.881223291785362
 42
0.1472695824370325
 10
1.855432499999996
 20
3.886551133473156
 42
0.1472695824370333
  0
LWPOLYLINE
  5
184
330
2
100
AcDbEntity
  8
0
100
AcDbPolyline
 90
        9
 70
     0
 43
0.0
 10
-1.85543241086925
 20
5.578428661397221
 42
-0.1432467981947568
 10
-1.880657061724707
 20
5.585806758268471
 42
-0.1071754848060475
 10
-1.905343227695292
 20
5.610357683413123
 42
-0.0783035184710328
 10
-1.920289895317653
 20
5.643978937763921
 42
-0.0656020556757086
 10
-1.92601696493376
 20
5.687441161397227
 42
-0.0656020556757101
 10
-1.920289895317653
 20
5.730903385030525
 42
-0.0783035184710357
 10
-1.905343227695292
 20
5.764524639381324
 42
-0.1071754848060445
 10
-1.880657061724707
 20
5.789075564525976
 42
-0.1432467981947535
 10
-1.85543241086925
 20
5.796453661397226
 42
-0.1432467981947515
  0
LINE
  5
185
330
2
100
AcDbEntity
  8
0
100
AcDbLine
 10
-1.85543241086925
 20
5.549103661397221
 30
0.0
 11
-1.85543241086925
 21
5.825778661397226
 31
0.0
  0
LWPOLYLINE
  5
186
330
2
100
AcDbEntity
  8
0
100
AcDbPolyline
 90
        9
 70
     0
 43
0.0
 10
-1.85543241086925
 20
5.607753661397221
 42
-0.147269582437036
 10
-1.873128834031791
 20
5.613081503085016
 42
-0.1071386913803464
 10
-1.890680727695292
 20
5.63109358977142
 42
-0.0765137470862007
 10
-1.901222641742061
 20
5.65559832780558
 42
-0.063469041210727
 10
-1.905281058575463
 20
5.687441161397227
 42
-0.0634690412107267
 10
-1.901222641742061
 20
5.719283994988866
 42
-0.0765137470862059
 10
-1.890680727695292
 20
5.743788733023027
 42
-0.1071386913803463
 10
-1.873128834031791
 20
5.761800819709431
 42
-0.1472695824370325
 10
-1.85543241086925
 20
5.767128661397226
 42
-0.1472695824370333
  0
LWPOLYLINE
  5
187
330
2
100
AcDbEntity
  8
0
100
AcDbPolyline
 90
        9
 70
     0
 43
0.0
 10
1.855432499999996
 20
5.697851133473152
 42
0.1432467981947568
 10
1.880657150855452
 20
5.705229230344401
 42
0.1071754848060475
 10
1.905343316826038
 20
5.729780155489054
 42
0.0783035184710328
 10
1.920289984448399
 20
5.763401409839852
 42
0.0656020556757086
 10
1.926017054064506
 20
5.806863633473157
 42
0.0656020556757101
 10
1.920289984448399
 20
5.850325857106456
 42
0.0783035184710357
 10
1.905343316826038
 20
5.883947111457254
 42
0.1071754848060445
 10
1.880657150855452
 20
5.908498036601906
 42
0.1432467981947535
 10
1.855432499999996
 20
5.915876133473156
 42
0.1432467981947515
  0
LINE
  5
188
330
2
100
AcDbEntity
  8
0
100
AcDbLine
 10
1.855432499999996
 20
5.668526133473152
 30
0.0
 11
1.855432499999996
 21
5.945201133473156
 31
0.0
  0
LWPOLYLINE
  5
189
330
2
100
AcDbEntity
  8
0
100
AcDbPolyline
 90
        9
 70
     0
 43
0.0
 10
1.855432499999996
 20
5.727176133473152
 42
0.147269582437036
 10
1.873128923162536
 20
5.732503975160946
 42
0.1071386913803464
 10
1.890680816826038
 20
5.750516061847351
 42
0.0765137470862007
 10
1.901222730872807
 20
5.775020799881511
 42
0.063469041210727
 10
1.905281147706209
 20
5.806863633473157
 42
0.0634690412107267
 10
1.901222730872807
 20
5.838706467064797
 42
0.0765137470862059
 10
1.890680816826038
 20
5.863211205098957
 42
0.1071386913803463
 10
1.873128923162536
 20
5.881223291785362
 42
0.1472695824370325
 10
1.855432499999996
 20
5.886551133473156
 42
0.1472695824370333
  0
LINE
  5
18A
330
2
100
AcDbEntity
  8
0
100
AcDbLine
 10
8.034886505107632
 20
0.7411218953813901
 30
0.0
 11
8.034886505107632
 21
1.006729895381396
 31
0.0
  0
LWPOLYLINE
  5
18B
330
2
100
AcDbEntity
  8
0
100
AcDbPolyline
 90
        9
 70
     0
 43
0.0
 10
8.034886505107632
 20
0.7692738953813914
 42
0.1432467981947568
 10
8.05910216992887
 20
0.7763568683777908
 42
0.1071754848060475
 10
8.082800889260632
 20
0.7999257565166573
 42
0.0783035184710328
 10
8.0971496901781
 20
0.8322021606934236
 42
0.0656020556757086
 10
8.102647677009561
 20
0.8739258953813964
 42
0.0656020556757101
 10
8.0971496901781
 20
0.9156496300693631
 42
0.0783035184710357
 10
8.082800889260632
 20
0.9479260342461293
 42
0.1071754848060445
 10
8.05910216992887
 20
0.9714949223849958
 42
0.1432467981947535
 10
8.034886505107632
 20
0.9785778953813953
 42
0.1432467981947515
  0
LWPOLYLINE
  5
18D
330
2
100
AcDbEntity
  8
0
100
AcDbPolyline
 90
        9
 70
     0
 43
0.0
 10
8.034886505107632
 20
0.7974258953813909
 42
0.147269582437036
 10
8.05187507134367
 20
0.8025406234016739
 42
0.1071386913803464
 10
8.068724889260633
 20
0.8198322266206226
 42
0.0765137470862007
 10
8.078845126745531
 20
0.8433567751334161
 42
0.063469041210727
 10
8.082741206905595
 20
0.8739258953813964
 42
0.0634690412107267
 10
8.078845126745531
 20
0.9044950156293705
 42
0.0765137470862059
 10
8.068724889260633
 20
0.928019564142164
 42
0.1071386913803463
 10
8.05187507134367
 20
0.9453111673611128
 42
0.1472695824370325
 10
8.034886505107632
 20
0.9504258953813958
 42
0.1472695824370333
  0
LINE
  5
18E
330
2
100
AcDbEntity
  8
0
100
AcDbLine
 10
8.034886505107632
 20
3.679637161397221
 30
0.0
 11
8.034886505107632
 21
3.945245161397225
 31
0.0
  0
LWPOLYLINE
  5
18F
330
2
100
AcDbEntity
  8
0
100
AcDbPolyline
 90
        9
 70
     0
 43
0.0
 10
8.034886505107632
 20
3.70778916139722
 42
0.1432467981947568
 10
8.05910216992887
 20
3.71487213439362
 42
0.1071754848060475
 10
8.082800889260632
 20
3.738441022532487
 42
0.0783035184710328
 10
8.0971496901781
 20
3.770717426709253
 42
0.0656020556757086
 10
8.102647677009561
 20
3.812441161397227
 42
0.0656020556757101
 10
8.0971496901781
 20
3.854164896085194
 42
0.0783035184710357
 10
8.082800889260632
 20
3.88644130026196
 42
0.1071754848060445
 10
8.05910216992887
 20
3.910010188400825
 42
0.1432467981947535
 10
8.034886505107632
 20
3.917093161397225
 42
0.1432467981947515
  0
LWPOLYLINE
  5
191
330
2
100
AcDbEntity
  8
0
100
AcDbPolyline
 90
        9
 70
     0
 43
0.0
 10
8.034886505107632
 20
3.73594116139722
 42
0.147269582437036
 10
8.05187507134367
 20
3.741055889417503
 42
0.1071386913803464
 10
8.068724889260633
 20
3.758347492636452
 42
0.0765137470862007
 10
8.078845126745531
 20
3.781872041149245
 42
0.063469041210727
 10
8.082741206905595
 20
3.812441161397227
 42
0.0634690412107267
 10
8.078845126745531
 20
3.8430102816452
 42
0.0765137470862059
 10
8.068724889260633
 20
3.866534830157995
 42
0.1071386913803463
 10
8.05187507134367
 20
3.883826433376941
 42
0.1472695824370325
 10
8.034886505107632
 20
3.888941161397225
 42
0.1472695824370333
  0
LINE
  5
192
330
2
100
AcDbEntity
  8
0
100
AcDbLine
 10
8.034886505107632
 20
5.679637161397221
 30
0.0
 11
8.034886505107632
 21
5.945245161397225
 31
0.0
  0
LWPOLYLINE
  5
193
330
2
100
AcDbEntity
  8
0
100
AcDbPolyline
 90
        9
 70
     0
 43
0.0
 10
8.034886505107632
 20
5.70778916139722
 42
0.1432467981947568
 10
8.05910216992887
 20
5.71487213439362
 42
0.1071754848060475
 10
8.082800889260632
 20
5.738441022532487
 42
0.0783035184710328
 10
8.0971496901781
 20
5.770717426709253
 42
0.0656020556757086
 10
8.102647677009561
 20
5.812441161397227
 42
0.0656020556757101
 10
8.0971496901781
 20
5.854164896085194
 42
0.0783035184710357
 10
8.082800889260632
 20
5.88644130026196
 42
0.1071754848060445
 10
8.05910216992887
 20
5.910010188400825
 42
0.1432467981947535
 10
8.034886505107632
 20
5.917093161397225
 42
0.1432467981947515
  0
LWPOLYLINE
  5
195
330
2
100
AcDbEntity
  8
0
100
AcDbPolyline
 90
        9
 70
     0
 43
0.0
 10
8.034886505107632
 20
5.73594116139722
 42
0.147269582437036
 10
8.05187507134367
 20
5.741055889417503
 42
0.1071386913803464
 10
8.068724889260633
 20
5.758347492636452
 42
0.0765137470862007
 10
8.078845126745531
 20
5.781872041149245
 42
0.063469041210727
 10
8.082741206905595
 20
5.812441161397227
 42
0.0634690412107267
 10
8.078845126745531
 20
5.8430102816452
 42
0.0765137470862059
 10
8.068724889260633
 20
5.866534830157995
 42
0.1071386913803463
 10
8.05187507134367
 20
5.883826433376941
 42
0.1472695824370325
 10
8.034886505107632
 20
5.888941161397225
 42
0.1472695824370333
  0
LINE
  5
19A
330
2
100
AcDbEntity
  8
0
100
AcDbLine
 10
-9.061367881788723
 20
0.9866489999999999
 30
0.0
 11
-9.061367881788723
 21
7.091150000000002
 31
0.0
  0
LINE
  5
19B
330
2
100
AcDbEntity
  8
0
100
AcDbLine
 10
-8.991367881788722
 20
0.9137370000000011
 30
0.0
 11
-8.991367881788722
 21
7.091150000000002
 31
0.0
  0
LINE
  5
19C
330
2
100
AcDbEntity
  8
0
100
AcDbLine
 10
-7.758009881788727
 20
3.430078000000001
 30
0.0
 11
-7.758009881788727
 21
4.030078000000001
 31
0.0
  0
LINE
  5
19D
330
2
100
AcDbEntity
  8
0
100
AcDbLine
 10
-8.034886505107632
 20
3.554637161397221
 30
0.0
 11
-8.034886505107632
 21
3.820245161397225
 31
0.0
  0
LWPOLYLINE
  5
19E
330
2
100
AcDbEntity
  8
0
100
AcDbPolyline
 90
        9
 70
     0
 43
0.0
 10
-8.034886505107632
 20
3.58278916139722
 42
-0.1432467981947568
 10
-8.05910216992887
 20
3.58987213439362
 42
-0.1071754848060475
 10
-8.082800889260632
 20
3.613441022532487
 42
-0.0783035184710328
 10
-8.0971496901781
 20
3.645717426709253
 42
-0.0656020556757086
 10
-8.102647677009561
 20
3.687441161397227
 42
-0.0656020556757101
 10
-8.0971496901781
 20
3.729164896085194
 42
-0.0783035184710357
 10
-8.082800889260632
 20
3.76144130026196
 42
-0.1071754848060445
 10
-8.05910216992887
 20
3.785010188400825
 42
-0.1432467981947535
 10
-8.034886505107632
 20
3.792093161397225
 42
-0.1432467981947515
  0
LINE
  5
19F
330
2
100
AcDbEntity
  8
0
100
AcDbLine
 10
-6.838792881788724
 20
0.6318529999999996
 30
0.0
 11
-8.024793881788721
 21
2.292255
 31
0.0
  0
LINE
  5
1A0
330
2
100
AcDbEntity
  8
0
100
AcDbLine
 10
-8.803867881788722
 20
-0.0075590000000005
 30
0.0
 11
-6.803867881788722
 21
-0.0075590000000005
 31
0.0
  0
LINE
  5
1A1
330
2
100
AcDbEntity
  8
0
  6
HIDDEN
100
AcDbLine
 10
-8.803867881788722
 20
0.0624409999999997
 30
0.0
 11
-6.803867881788722
 21
0.0624409999999997
 31
0.0
  0
ARC
  5
1A2
330
2
100
AcDbEntity
  8
0
100
AcDbCircle
 10
-6.991367881788722
 20
0.5228710000000021
 30
0.0
 40
0.1875
100
AcDbArc
 50
0.000000000000007
 51
35.53767800000001
  0
LINE
  5
1A4
330
2
100
AcDbEntity
  8
0
100
AcDbLine
 10
-6.803867881788722
 20
-0.0075590000000005
 30
0.0
 11
-6.803867881788722
 21
0.5228710000000021
 31
0.0
  0
ARC
  5
1A5
330
2
100
AcDbEntity
  8
0
100
AcDbCircle
 10
-8.991367881788722
 20
0.5310620000000004
 30
0.0
 40
0.1875
100
AcDbArc
 50
0.000000000000007
 51
35.53767800000001
  0
LINE
  5
1A6
330
2
100
AcDbEntity
  8
0
100
AcDbLine
 10
-8.803867881788722
 20
-0.0075590000000005
 30
0.0
 11
-8.803867881788722
 21
0.5280660000000008
 31
0.0
  0
LINE
  5
1A7
330
2
100
AcDbEntity
  8
0
100
AcDbLine
 10
-8.803867881788722
 20
0.0624409999999997
 30
0.0
 11
-8.803867881788722
 21
0.5310620000000004
 31
0.0
  0
LINE
  5
1A8
330
2
100
AcDbEntity
  8
0
100
AcDbLine
 10
-8.034886505107632
 20
1.239539631379953
 30
0.0
 11
-8.034886505107632
 21
1.505147631379958
 31
0.0
  0
LWPOLYLINE
  5
1A9
330
2
100
AcDbEntity
  8
0
100
AcDbPolyline
 90
        9
 70
     0
 43
0.0
 10
-8.034886505107632
 20
1.267691631379954
 42
-0.1432467981947568
 10
-8.05910216992887
 20
1.274774604376353
 42
-0.1071754848060475
 10
-8.082800889260632
 20
1.29834349251522
 42
-0.0783035184710328
 10
-8.0971496901781
 20
1.330619896691986
 42
-0.0656020556757086
 10
-8.102647677009561
 20
1.372343631379959
 42
-0.0656020556757101
 10
-8.0971496901781
 20
1.414067366067926
 42
-0.0783035184710357
 10
-8.082800889260632
 20
1.446343770244692
 42
-0.1071754848060445
 10
-8.05910216992887
 20
1.469912658383558
 42
-0.1432467981947535
 10
-8.034886505107632
 20
1.476995631379958
 42
-0.1432467981947515
  0
LWPOLYLINE
  5
1AA
330
2
100
AcDbEntity
  8
0
100
AcDbPolyline
 90
        9
 70
     0
 43
0.0
 10
-8.034886505107632
 20
1.295843631379953
 42
-0.147269582437036
 10
-8.05187507134367
 20
1.300958359400236
 42
-0.1071386913803464
 10
-8.068724889260633
 20
1.318249962619185
 42
-0.0765137470862007
 10
-8.078845126745531
 20
1.341774511131979
 42
-0.063469041210727
 10
-8.082741206905595
 20
1.372343631379959
 42
-0.0634690412107267
 10
-8.078845126745531
 20
1.402912751627933
 42
-0.0765137470862059
 10
-8.068724889260633
 20
1.426437300140726
 42
-0.1071386913803463
 10
-8.05187507134367
 20
1.443728903359675
 42
-0.1472695824370325
 10
-8.034886505107632
 20
1.448843631379958
 42
-0.1472695824370333
  0
ARC
  5
1AB
330
2
100
AcDbEntity
  8
0
100
AcDbCircle
 10
-8.873867881788723
 20
0.9866489999999999
 30
0.0
 40
0.1875
100
AcDbArc
 50
180.0
 51
222.49875
  0
LINE
  5
1AC
330
2
100
AcDbEntity
  8
0
100
AcDbLine
 10
-9.012109881788728
 20
0.8599790000000009
 30
0.0
 11
-8.953668881788726
 21
0.7961990000000014
 31
0.0
  0
ARC
  5
1AD
330
2
100
AcDbEntity
  8
0
100
AcDbCircle
 10
-8.803867881788722
 20
0.9137370000000011
 30
0.0
 40
0.1875
100
AcDbArc
 50
180.0
 51
215.537678
  0
LINE
  5
1AE
330
2
100
AcDbEntity
  8
0
100
AcDbLine
 10
-8.838792881788724
 20
0.6400450000000006
 30
0.0
 11
-8.956442881788721
 21
0.8047550000000001
 31
0.0
  0
LINE
  5
1AF
330
2
100
AcDbEntity
  8
0
100
AcDbLine
 10
-8.059718881788722
 20
2.401236999999999
 30
0.0
 11
-8.059718881788722
 21
3.09115
 31
0.0
  0
ARC
  5
1B0
330
2
100
AcDbEntity
  8
0
100
AcDbCircle
 10
-7.872218881788722
 20
2.401236999999999
 30
0.0
 40
0.1875
100
AcDbArc
 50
180.0
 51
215.537678
  0
ARC
  5
1B1
330
2
100
AcDbEntity
  8
0
100
AcDbCircle
 10
-7.958727881788722
 20
3.430078000000001
 30
0.0
 40
0.2
100
AcDbArc
 50
282.635625
 51
0.000000000000007
  0
ARC
  5
1B2
330
2
100
AcDbEntity
  8
0
100
AcDbCircle
 10
-7.881928121653657
 20
3.056905456494819
 30
0.0
 40
0.1810586732230271
100
AcDbArc
 50
100.5175205015153
 51
169.0976882442456
  0
LINE
  5
1B3
330
2
100
AcDbEntity
  8
0
100
AcDbLine
 10
-8.059718881788722
 20
6.401236999999999
 30
0.0
 11
-8.059718881788722
 21
7.091150000000002
 31
0.0
  0
ARC
  5
1B4
330
2
100
AcDbEntity
  8
0
100
AcDbCircle
 10
-7.958727881788722
 20
5.430078000000001
 30
0.0
 40
0.2
100
AcDbArc
 50
282.635625
 51
0.000000000000007
  0
LINE
  5
1B5
330
2
100
AcDbEntity
  8
0
100
AcDbLine
 10
-8.059718881788722
 20
4.401236999999999
 30
0.0
 11
-8.059718881788722
 21
5.09115
 31
0.0
  0
ARC
  5
1B6
330
2
100
AcDbEntity
  8
0
100
AcDbCircle
 10
-7.958009881788723
 20
4.030078000000001
 30
0.0
 40
0.2
100
AcDbArc
 50
0.000000000000007
 51
77.364375
  0
LWPOLYLINE
  5
1B7
330
2
100
AcDbEntity
  8
0
100
AcDbPolyline
 90
        9
 70
     0
 43
0.0
 10
-8.034886505107632
 20
3.61094116139722
 42
-0.147269582437036
 10
-8.05187507134367
 20
3.616055889417503
 42
-0.1071386913803464
 10
-8.068724889260633
 20
3.633347492636452
 42
-0.0765137470862007
 10
-8.078845126745531
 20
3.656872041149245
 42
-0.063469041210727
 10
-8.082741206905595
 20
3.687441161397227
 42
-0.0634690412107267
 10
-8.078845126745531
 20
3.7180102816452
 42
-0.0765137470862059
 10
-8.068724889260633
 20
3.741534830157995
 42
-0.1071386913803463
 10
-8.05187507134367
 20
3.758826433376941
 42
-0.1472695824370325
 10
-8.034886505107632
 20
3.763941161397225
 42
-0.1472695824370333
  0
ARC
  5
1B8
330
2
100
AcDbEntity
  8
0
100
AcDbCircle
 10
-7.840611221765349
 20
4.43421105122963
 30
0.0
 40
0.2215749415782667
100
AcDbArc
 50
188.5583587262894
 51
250.5862708405435
  0
ARC
  5
1B9
330
2
100
AcDbEntity
  8
0
100
AcDbCircle
 10
-7.881928121653657
 20
5.056905456494819
 30
0.0
 40
0.1810586732230271
100
AcDbArc
 50
100.5175205015153
 51
169.0976882442456
  0
ARC
  5
1BA
330
2
100
AcDbEntity
  8
0
100
AcDbCircle
 10
-9.050348121234784
 20
4.570000000000001
 30
0.0
 40
0.25
100
AcDbArc
 50
283.5708597820756
 51
76.42914021792443
  0
ARC
  5
1BB
330
2
100
AcDbEntity
  8
0
100
AcDbCircle
 10
-7.958009881788723
 20
6.030078000000001
 30
0.0
 40
0.2
100
AcDbArc
 50
0.000000000000007
 51
77.364375
  0
LINE
  5
1BC
330
2
100
AcDbEntity
  8
0
100
AcDbLine
 10
-7.758009881788727
 20
5.430078000000001
 30
0.0
 11
-7.758009881788727
 21
6.030078000000001
 31
0.0
  0
LINE
  5
1BD
330
2
100
AcDbEntity
  8
0
100
AcDbLine
 10
-8.034886505107632
 20
5.554637161397221
 30
0.0
 11
-8.034886505107632
 21
5.820245161397225
 31
0.0
  0
LWPOLYLINE
  5
1BE
330
2
100
AcDbEntity
  8
0
100
AcDbPolyline
 90
        9
 70
     0
 43
0.0
 10
-8.034886505107632
 20
5.58278916139722
 42
-0.1432467981947568
 10
-8.05910216992887
 20
5.58987213439362
 42
-0.1071754848060475
 10
-8.082800889260632
 20
5.613441022532487
 42
-0.0783035184710328
 10
-8.0971496901781
 20
5.645717426709253
 42
-0.0656020556757086
 10
-8.102647677009561
 20
5.687441161397227
 42
-0.0656020556757101
 10
-8.0971496901781
 20
5.729164896085194
 42
-0.0783035184710357
 10
-8.082800889260632
 20
5.76144130026196
 42
-0.1071754848060445
 10
-8.05910216992887
 20
5.785010188400825
 42
-0.1432467981947535
 10
-8.034886505107632
 20
5.792093161397225
 42
-0.1432467981947515
  0
LWPOLYLINE
  5
1BF
330
2
100
AcDbEntity
  8
0
100
AcDbPolyline
 90
        9
 70
     0
 43
0.0
 10
-8.034886505107632
 20
5.61094116139722
 42
-0.147269582437036
 10
-8.05187507134367
 20
5.616055889417503
 42
-0.1071386913803464
 10
-8.068724889260633
 20
5.633347492636452
 42
-0.0765137470862007
 10
-8.078845126745531
 20
5.656872041149245
 42
-0.063469041210727
 10
-8.082741206905595
 20
5.687441161397227
 42
-0.0634690412107267
 10
-8.078845126745531
 20
5.7180102816452
 42
-0.0765137470862059
 10
-8.068724889260633
 20
5.741534830157995
 42
-0.1071386913803463
 10
-8.05187507134367
 20
5.758826433376941
 42
-0.1472695824370325
 10
-8.034886505107632
 20
5.763941161397225
 42
-0.1472695824370333
  0
ARC
  5
1C0
330
2
100
AcDbEntity
  8
0
100
AcDbCircle
 10
-7.866176130146667
 20
6.413082718404942
 30
0.0
 40
0.1939049193746962
100
AcDbArc
 50
183.5023997508207
 51
255.6422298160127
  0
LINE
  5
1C1
330
2
100
AcDbEntity
  8
0
100
AcDbLine
 10
-8.059718881788722
 20
7.091150000000002
 30
0.0
 11
-8.991367881788722
 21
7.091150000000002
 31
0.0
  0
LINE
  5
1C2
330
2
100
AcDbEntity
  8
0
100
AcDbLine
 10
-9.061367881788723
 20
7.091150000000002
 30
0.0
 11
-8.949877881788726
 21
7.091150000000002
 31
0.0
  0
ARC
  5
225
330
2
100
AcDbEntity
  8
0
100
AcDbCircle
 10
-8.08782474596385
 20
5.716592235993248
 30
0.0
 40
0.1545284259354844
100
AcDbArc
 50
210.8424709887117
 51
235.2517244545657
  0
ARC
  5
226
330
2
100
AcDbEntity
  8
0
100
AcDbCircle
 10
-8.087824745963857
 20
5.658290086801196
 30
0.0
 40
0.1545284259354811
100
AcDbArc
 50
124.7482755454322
 51
149.1575290112859
  0
ARC
  5
227
330
2
100
AcDbEntity
  8
0
100
AcDbCircle
 10
-8.034886505107625
 20
5.835601961634375
 30
0.0
 40
0.2864983002371524
100
AcDbArc
 50
253.9689634222568
 51
269.9999999999986
  0
ARC
  5
228
330
2
100
AcDbEntity
  8
0
100
AcDbCircle
 10
-8.055828489194166
 20
5.762717613697292
 30
0.0
 40
0.2106649640867842
100
AcDbArc
 50
235.2517244545688
 51
253.9689634222602
  0
ARC
  5
229
330
2
100
AcDbEntity
  8
0
100
AcDbCircle
 10
-8.055828489194152
 20
5.612164709097152
 30
0.0
 40
0.2106649640867918
100
AcDbArc
 50
106.0310365777433
 51
124.7482755454343
  0
ARC
  5
22A
330
2
100
AcDbEntity
  8
0
100
AcDbCircle
 10
-8.034886505107625
 20
5.539280361160075
 30
0.0
 40
0.2864983002371495
100
AcDbArc
 50
90.00000000000142
 51
106.0310365777434
  0
ARC
  5
22B
330
2
100
AcDbEntity
  8
0
100
AcDbCircle
 10
-8.136643814853638
 20
5.687441161397222
 30
0.0
 40
0.0976681881821226
100
AcDbArc
 50
180.0
 51
210.8424709887125
  0
ARC
  5
22C
330
2
100
AcDbEntity
  8
0
100
AcDbCircle
 10
-8.136643814853631
 20
5.687441161397225
 30
0.0
 40
0.09766818818213
100
AcDbArc
 50
149.1575290112895
 51
180.0000000000021
  0
ARC
  5
22D
330
2
100
AcDbEntity
  8
0
100
AcDbCircle
 10
-8.08782474596385
 20
3.716592235993248
 30
0.0
 40
0.1545284259354844
100
AcDbArc
 50
210.8424709887117
 51
235.2517244545657
  0
ARC
  5
22E
330
2
100
AcDbEntity
  8
0
100
AcDbCircle
 10
-8.087824745963857
 20
3.658290086801196
 30
0.0
 40
0.1545284259354811
100
AcDbArc
 50
124.7482755454322
 51
149.1575290112859
  0
ARC
  5
22F
330
2
100
AcDbEntity
  8
0
100
AcDbCircle
 10
-8.034886505107625
 20
3.835601961634375
 30
0.0
 40
0.2864983002371524
100
AcDbArc
 50
253.9689634222568
 51
269.9999999999986
  0
ARC
  5
230
330
2
100
AcDbEntity
  8
0
100
AcDbCircle
 10
-8.055828489194166
 20
3.762717613697292
 30
0.0
 40
0.2106649640867842
100
AcDbArc
 50
235.2517244545688
 51
253.9689634222602
  0
ARC
  5
231
330
2
100
AcDbEntity
  8
0
100
AcDbCircle
 10
-8.055828489194152
 20
3.612164709097152
 30
0.0
 40
0.2106649640867918
100
AcDbArc
 50
106.0310365777433
 51
124.7482755454343
  0
ARC
  5
232
330
2
100
AcDbEntity
  8
0
100
AcDbCircle
 10
-8.034886505107625
 20
3.539280361160075
 30
0.0
 40
0.2864983002371495
100
AcDbArc
 50
90.00000000000142
 51
106.0310365777434
  0
ARC
  5
233
330
2
100
AcDbEntity
  8
0
100
AcDbCircle
 10
-8.136643814853638
 20
3.687441161397222
 30
0.0
 40
0.0976681881821226
100
AcDbArc
 50
180.0
 51
210.8424709887125
  0
ARC
  5
234
330
2
100
AcDbEntity
  8
0
100
AcDbCircle
 10
-8.136643814853631
 20
3.687441161397225
 30
0.0
 40
0.09766818818213
100
AcDbArc
 50
149.1575290112895
 51
180.0000000000021
  0
ARC
  5
235
330
2
100
AcDbEntity
  8
0
100
AcDbCircle
 10
-8.08782474596385
 20
1.40149470597598
 30
0.0
 40
0.1545284259354844
100
AcDbArc
 50
210.8424709887117
 51
235.2517244545657
  0
ARC
  5
236
330
2
100
AcDbEntity
  8
0
100
AcDbCircle
 10
-8.087824745963857
 20
1.343192556783928
 30
0.0
 40
0.1545284259354811
100
AcDbArc
 50
124.7482755454322
 51
149.1575290112859
  0
ARC
  5
237
330
2
100
AcDbEntity
  8
0
100
AcDbCircle
 10
-8.034886505107625
 20
1.520504431617107
 30
0.0
 40
0.2864983002371524
100
AcDbArc
 50
253.9689634222568
 51
269.9999999999986
  0
ARC
  5
238
330
2
100
AcDbEntity
  8
0
100
AcDbCircle
 10
-8.055828489194166
 20
1.447620083680024
 30
0.0
 40
0.2106649640867842
100
AcDbArc
 50
235.2517244545688
 51
253.9689634222602
  0
ARC
  5
239
330
2
100
AcDbEntity
  8
0
100
AcDbCircle
 10
-8.055828489194152
 20
1.297067179079884
 30
0.0
 40
0.2106649640867918
100
AcDbArc
 50
106.0310365777433
 51
124.7482755454343
  0
ARC
  5
23A
330
2
100
AcDbEntity
  8
0
100
AcDbCircle
 10
-8.034886505107625
 20
1.224182831142807
 30
0.0
 40
0.2864983002371495
100
AcDbArc
 50
90.00000000000142
 51
106.0310365777434
  0
ARC
  5
23B
330
2
100
AcDbEntity
  8
0
100
AcDbCircle
 10
-8.136643814853638
 20
1.372343631379954
 30
0.0
 40
0.0976681881821226
100
AcDbArc
 50
180.0
 51
210.8424709887125
  0
ARC
  5
23C
330
2
100
AcDbEntity
  8
0
100
AcDbCircle
 10
-8.136643814853631
 20
1.372343631379957
 30
0.0
 40
0.09766818818213
100
AcDbArc
 50
149.1575290112895
 51
180.0000000000021
  0
ARC
  5
246
330
2
100
AcDbEntity
  8
0
100
AcDbCircle
 10
8.08782474596385
 20
5.841592235993248
 30
0.0
 40
0.1545284259354844
100
AcDbArc
 50
304.7482755454344
 51
329.1575290112884
  0
ARC
  5
247
330
2
100
AcDbEntity
  8
0
100
AcDbCircle
 10
8.087824745963857
 20
5.783290086801196
 30
0.0
 40
0.1545284259354811
100
AcDbArc
 50
30.84247098871409
 51
55.25172445456781
  0
ARC
  5
248
330
2
100
AcDbEntity
  8
0
100
AcDbCircle
 10
8.034886505107625
 20
5.960601961634375
 30
0.0
 40
0.2864983002371524
100
AcDbArc
 50
270.0000000000014
 51
286.0310365777432
  0
ARC
  5
249
330
2
100
AcDbEntity
  8
0
100
AcDbCircle
 10
8.055828489194166
 20
5.887717613697292
 30
0.0
 40
0.2106649640867842
100
AcDbArc
 50
286.0310365777398
 51
304.7482755454312
  0
ARC
  5
24A
330
2
100
AcDbEntity
  8
0
100
AcDbCircle
 10
8.055828489194152
 20
5.737164709097152
 30
0.0
 40
0.2106649640867918
100
AcDbArc
 50
55.25172445456567
 51
73.96896342225675
  0
ARC
  5
24B
330
2
100
AcDbEntity
  8
0
100
AcDbCircle
 10
8.034886505107625
 20
5.664280361160075
 30
0.0
 40
0.2864983002371495
100
AcDbArc
 50
73.96896342225659
 51
89.99999999999859
  0
ARC
  5
24C
330
2
100
AcDbEntity
  8
0
100
AcDbCircle
 10
8.136643814853638
 20
5.812441161397222
 30
0.0
 40
0.0976681881821226
100
AcDbArc
 50
329.1575290112875
 51
0.000000000000007
  0
ARC
  5
24D
330
2
100
AcDbEntity
  8
0
100
AcDbCircle
 10
8.136643814853631
 20
5.812441161397225
 30
0.0
 40
0.09766818818213
100
AcDbArc
 50
359.9999999999979
 51
30.84247098871045
  0
ARC
  5
24E
330
2
100
AcDbEntity
  8
0
100
AcDbCircle
 10
8.08782474596385
 20
3.841592235993248
 30
0.0
 40
0.1545284259354844
100
AcDbArc
 50
304.7482755454344
 51
329.1575290112884
  0
ARC
  5
24F
330
2
100
AcDbEntity
  8
0
100
AcDbCircle
 10
8.087824745963857
 20
3.783290086801196
 30
0.0
 40
0.1545284259354811
100
AcDbArc
 50
30.84247098871409
 51
55.25172445456781
  0
ARC
  5
250
330
2
100
AcDbEntity
  8
0
100
AcDbCircle
 10
8.034886505107625
 20
3.960601961634375
 30
0.0
 40
0.2864983002371524
100
AcDbArc
 50
270.0000000000014
 51
286.0310365777432
  0
ARC
  5
251
330
2
100
AcDbEntity
  8
0
100
AcDbCircle
 10
8.055828489194166
 20
3.887717613697292
 30
0.0
 40
0.2106649640867842
100
AcDbArc
 50
286.0310365777398
 51
304.7482755454312
  0
ARC
  5
252
330
2
100
AcDbEntity
  8
0
100
AcDbCircle
 10
8.055828489194152
 20
3.737164709097152
 30
0.0
 40
0.2106649640867918
100
AcDbArc
 50
55.25172445456567
 51
73.96896342225675
  0
ARC
  5
253
330
2
100
AcDbEntity
  8
0
100
AcDbCircle
 10
8.034886505107625
 20
3.664280361160075
 30
0.0
 40
0.2864983002371495
100
AcDbArc
 50
73.96896342225659
 51
89.99999999999859
  0
ARC
  5
254
330
2
100
AcDbEntity
  8
0
100
AcDbCircle
 10
8.136643814853638
 20
3.812441161397222
 30
0.0
 40
0.0976681881821226
100
AcDbArc
 50
329.1575290112875
 51
0.000000000000007
  0
ARC
  5
255
330
2
100
AcDbEntity
  8
0
100
AcDbCircle
 10
8.136643814853631
 20
3.812441161397225
 30
0.0
 40
0.09766818818213
100
AcDbArc
 50
359.9999999999979
 51
30.84247098871045
  0
ARC
  5
256
330
2
100
AcDbEntity
  8
0
100
AcDbCircle
 10
8.08782474596385
 20
0.903076969977417
 30
0.0
 40
0.1545284259354844
100
AcDbArc
 50
304.7482755454344
 51
329.1575290112884
  0
ARC
  5
257
330
2
100
AcDbEntity
  8
0
100
AcDbCircle
 10
8.087824745963857
 20
0.8447748207853651
 30
0.0
 40
0.1545284259354811
100
AcDbArc
 50
30.84247098871409
 51
55.25172445456781
  0
ARC
  5
258
330
2
100
AcDbEntity
  8
0
100
AcDbCircle
 10
8.034886505107625
 20
1.022086695618545
 30
0.0
 40
0.2864983002371524
100
AcDbArc
 50
270.0000000000014
 51
286.0310365777432
  0
ARC
  5
259
330
2
100
AcDbEntity
  8
0
100
AcDbCircle
 10
8.055828489194166
 20
0.9492023476814611
 30
0.0
 40
0.2106649640867842
100
AcDbArc
 50
286.0310365777398
 51
304.7482755454312
  0
ARC
  5
25A
330
2
100
AcDbEntity
  8
0
100
AcDbCircle
 10
8.055828489194152
 20
0.7986494430813211
 30
0.0
 40
0.2106649640867918
100
AcDbArc
 50
55.25172445456567
 51
73.96896342225675
  0
ARC
  5
25B
330
2
100
AcDbEntity
  8
0
100
AcDbCircle
 10
8.034886505107625
 20
0.7257650951442445
 30
0.0
 40
0.2864983002371495
100
AcDbArc
 50
73.96896342225659
 51
89.99999999999859
  0
ARC
  5
25C
330
2
100
AcDbEntity
  8
0
100
AcDbCircle
 10
8.136643814853638
 20
0.8739258953813911
 30
0.0
 40
0.0976681881821226
100
AcDbArc
 50
329.1575290112875
 51
0.000000000000007
  0
ARC
  5
25D
330
2
100
AcDbEntity
  8
0
100
AcDbCircle
 10
8.136643814853631
 20
0.8739258953813947
 30
0.0
 40
0.09766818818213
100
AcDbArc
 50
359.9999999999979
 51
30.84247098871045
  0
ENDSEC
  0
SECTION
  2
OBJECTS
  0
DICTIONARY
  5
9
330
0
100
AcDbDictionary
281
     1
  3
ACAD_COLOR
350
1CC
  3
ACAD_GROUP
350
23
  3
ACAD_LAYOUT
350
D
  3
ACAD_MATERIAL
350
1CB
  3
ACAD_MLINESTYLE
350
24
  3
ACAD_PLOTSETTINGS
350
25
  3
ACAD_PLOTSTYLENAME
350
8
  3
ACAD_TABLESTYLE
350
1CD
  3
ACDBHEADERROUNDTRIPXREC
350
272
  3
AcDbVariableDictionary
350
E2
  0
DICTIONARY
  5
1CC
102
{ACAD_REACTORS
330
9
102
}
330
9
100
AcDbDictionary
281
     1
  0
DICTIONARY
  5
23
102
{ACAD_REACTORS
330
9
102
}
330
9
100
AcDbDictionary
281
     1
  0
DICTIONARY
  5
D
102
{ACAD_REACTORS
330
9
102
}
330
9
100
AcDbDictionary
281
     1
  3
Layout1
350
13
  3
Model
350
C
  0
DICTIONARY
  5
1CB
102
{ACAD_REACTORS
330
9
102
}
330
9
100
AcDbDictionary
281
     1
  0
DICTIONARY
  5
24
102
{ACAD_REACTORS
330
9
102
}
330
9
100
AcDbDictionary
281
     1
  3
STANDARD
350
27
  0
DICTIONARY
  5
25
102
{ACAD_REACTORS
330
9
102
}
330
9
100
AcDbDictionary
281
     1
  0
ACDBDICTIONARYWDFLT
  5
8
102
{ACAD_REACTORS
330
9
102
}
330
9
100
AcDbDictionary
281
     1
  3
Normal
350
7
100
AcDbDictionaryWithDefault
340
7
  0
DICTIONARY
  5
1CD
102
{ACAD_REACTORS
330
9
102
}
330
9
100
AcDbDictionary
281
     1
  3
Standard
350
1CE
  0
DICTIONARY
  5
272
102
{ACAD_REACTORS
330
9
102
}
330
9
100
AcDbDictionary
281
     1
  3
COLORDICT
350
273
  3
MATERIALDICT
350
274
  0
DICTIONARY
  5
E2
102
{ACAD_REACTORS
330
9
102
}
330
9
100
AcDbDictionary
281
     1
  3
CTABLESTYLE
350
26F
  3
HIDETEXT
350
271
  0
LAYOUT
  5
13
102
{ACAD_REACTORS
330
D
102
}
102
{ACAD_XDICTIONARY
360
275
102
}
330
D
100
AcDbPlotSettings
  1

  2
C:\ACAD2000\plotters\HP LaserJet 2100 Series PS.pc3
  4

  6

 40
0.0
 41
0.0
 42
0.0
 43
0.0
 44
0.0
 45
0.0
 46
0.0
 47
0.0
 48
0.0
 49
0.0
140
0.0
141
0.0
142
1.0
143
1.0
 70
   688
 72
     0
 73
     0
 74
     5
  7

 75
    16
147
1.0
148
0.0
149
0.0
100
AcDbLayout
  1
Layout1
 70
     0
 71
     1
 10
0.0
 20
0.0
 11
12.0
 21
9.0
 12
0.0
 22
0.0
 32
0.0
 14
1.000000000000000E+20
 24
1.000000000000000E+20
 34
1.000000000000000E+20
 15
-1.000000000000000E+20
 25
-1.000000000000000E+20
 35
-1.000000000000000E+20
146
0.0
 13
0.0
 23
0.0
 33
0.0
 16
1.0
 26
0.0
 36
0.0
 17
0.0
 27
1.0
 37
0.0
 76
     0
330
E
  0
LAYOUT
  5
C
102
{ACAD_REACTORS
330
D
102
}
102
{ACAD_XDICTIONARY
360
277
102
}
330
D
100
AcDbPlotSettings
  1

  2
HP LaserJet 2100 Series PS
  4
Letter
  6

 40
3.174999952316284
 41
3.174999952316284
 42
3.175003051757813
 43
3.17498779296875
 44
215.9000091552734
 45
279.3999938964844
 46
0.0
 47
0.0
 48
0.0
 49
0.0
140
0.0
141
0.0
142
1.0
143
3.181818088418051
 70
 28336
 72
     0
 73
     1
 74
     2
  7

 75
     0
147
0.3142857235113601
148
0.0
149
0.0
100
AcDbLayout
  1
Model
 70
     1
 71
     0
 10
0.0
 20
0.0
 11
12.0
 21
9.0
 12
0.0
 22
0.0
 32
0.0
 14
0.0
 24
0.0
 34
0.0
 15
0.0
 25
0.0
 35
0.0
146
0.0
 13
0.0
 23
0.0
 33
0.0
 16
1.0
 26
0.0
 36
0.0
 17
0.0
 27
1.0
 37
0.0
 76
     0
330
2
  0
MLINESTYLE
  5
27
102
{ACAD_REACTORS
330
24
102
}
330
24
100
AcDbMlineStyle
  2
STANDARD
 70
     0
  3

 62
   256
 51
90.0
 52
90.0
 71
     2
 49
0.5
 62
   256
  6
BYLAYER
 49
-0.5
 62
   256
  6
BYLAYER
  0
ACDBPLACEHOLDER
  5
7
102
{ACAD_REACTORS
330
8
102
}
330
8
  0
ACAD_PROXY_OBJECT
  5
1CE
102
{ACAD_REACTORS
330
1CD
102
}
330
1CD
100
AcDbProxyObject
 90
      499
 91
      513
 95
   983063
 70
     0
 93
     1841
310
4214DD185B99185C9928B81E85EB51B8AE3F2E07A17AD46E2B8FC02B5E8DC0F42B1CFD028000000C1008070000C3001FDFF8000000C1003FBFF000000182007F7FE00000030400FEFFC00000060801FDFF8000000C1003FBFF00000018200000000000000681FA0B0000001820100E000186003FBFF000000182007F7FE000
310
00030400FEFFC00000060801FDFF8000000C1003FBFF000000182007F7FE000000304000AD7A3703D0AC73F4160000003040201C00030C007F7FE00000030400FEFFC00000060801FDFF8000000C1003FBFF000000182007F7FE00000030400FEFFC000000608000
340
16
340
16
340
16
 94
        0
  0
XRECORD
  5
273
102
{ACAD_REACTORS
330
272
102
}
330
272
100
AcDbXrecord
340
1CC
  0
XRECORD
  5
274
102
{ACAD_REACTORS
330
272
102
}
330
272
100
AcDbXrecord
340
1CB
  0
DICTIONARYVAR
  5
26F
102
{ACAD_REACTORS
330
E2
102
}
330
E2
100
DictionaryVariables
280
     0
  1
STANDARD
  0
DICTIONARYVAR
  5
271
102
{ACAD_REACTORS
330
E2
102
}
330
E2
100
DictionaryVariables
280
     0
  1
0
  0
DICTIONARY
  5
275
330
13
100
AcDbDictionary
280
     1
281
     1
  3
ACAD_XREC_ROUNDTRIP
360
276
  0
DICTIONARY
  5
277
330
C
100
AcDbDictionary
280
     1
281
     1
  3
ACAD_XREC_ROUNDTRIP
360
278
  0
XRECORD
  5
276
102
{ACAD_REACTORS
330
275
102
}
330
275
100
AcDbXrecord
102
SHADEPLOT
 70
     0
102
SHADEPLOTRESLEVEL
 70
     2
102
SHADEPLOTCUSTOMDPI
 70
   300
  0
XRECORD
  5
278
102
{ACAD_REACTORS
330
277
102
}
330
277
100
AcDbXrecord
102
SHADEPLOT
 70
     0
102
SHADEPLOTRESLEVEL
 70
     2
102
SHADEPLOTCUSTOMDPI
 70
   300
  0
ENDSEC
  0
EOF
