  0
SECTION
  2
HEADER
  9
$ACADVER
  1
AC1015
  9
$ACADMAINTVER
 70
     6
  9
$DWGCODEPAGE
  3
ANSI_1252
  9
$INSBASE
 10
0.0
 20
0.0
 30
0.0
  9
$EXTMIN
 10
-12.60524670270409
 20
-0.052641197673438
 30
-0.0000000000112498
  9
$EXTMAX
 10
12.60713494661432
 20
15.92494191701049
 30
0.0000000000002956
  9
$LIMMIN
 10
0.0
 20
0.0
  9
$LIMMAX
 10
26.6664
 20
34.99965
  9
$ORTHOMODE
 70
     1
  9
$REGENMODE
 70
     1
  9
$FILLMODE
 70
     1
  9
$QTEXTMODE
 70
     0
  9
$MIRRTEXT
 70
     0
  9
$LTSCALE
 40
1.0
  9
$ATTMODE
 70
     1
  9
$TEXTSIZE
 40
0.299997
  9
$TRACEWID
 40
0.05
  9
$TEXTSTYLE
  7
STANDARD
  9
$CLAYER
  8
0
  9
$CELTYPE
  6
BYLAYER
  9
$CECOLOR
 62
   256
  9
$CELTSCALE
 40
1.0
  9
$DISPSILH
 70
     0
  9
$DIMSCALE
 40
3.3333
  9
$DIMASZ
 40
0.125
  9
$DIMEXO
 40
0.062
  9
$DIMDLI
 40
0.375
  9
$DIMRND
 40
0.0
  9
$DIMDLE
 40
0.0
  9
$DIMEXE
 40
0.08
  9
$DIMTP
 40
0.0
  9
$DIMTM
 40
0.0
  9
$DIMTXT
 40
0.09
  9
$DIMCEN
 40
-0.03125
  9
$DIMTSZ
 40
0.0
  9
$DIMTOL
 70
     0
  9
$DIMLIM
 70
     0
  9
$DIMTIH
 70
     1
  9
$DIMTOH
 70
     1
  9
$DIMSE1
 70
     0
  9
$DIMSE2
 70
     0
  9
$DIMTAD
 70
     0
  9
$DIMZIN
 70
     0
  9
$DIMBLK
  1

  9
$DIMASO
 70
     0
  9
$DIMSHO
 70
     0
  9
$DIMPOST
  1

  9
$DIMAPOST
  1

  9
$DIMALT
 70
     0
  9
$DIMALTD
 70
     2
  9
$DIMALTF
 40
25.4
  9
$DIMLFAC
 40
1.0
  9
$DIMTOFL
 70
     0
  9
$DIMTVP
 40
0.0
  9
$DIMTIX
 70
     0
  9
$DIMSOXD
 70
     0
  9
$DIMSAH
 70
     0
  9
$DIMBLK1
  1

  9
$DIMBLK2
  1

  9
$DIMSTYLE
  2
STANDARD
  9
$DIMCLRD
 70
     0
  9
$DIMCLRE
 70
     0
  9
$DIMCLRT
 70
     0
  9
$DIMTFAC
 40
1.0
  9
$DIMGAP
 40
0.09
  9
$DIMJUST
 70
     0
  9
$DIMSD1
 70
     0
  9
$DIMSD2
 70
     0
  9
$DIMTOLJ
 70
     1
  9
$DIMTZIN
 70
     0
  9
$DIMALTZ
 70
     0
  9
$DIMALTTZ
 70
     0
  9
$DIMUPT
 70
     0
  9
$DIMDEC
 70
     6
  9
$DIMTDEC
 70
     6
  9
$DIMALTU
 70
     5
  9
$DIMALTTD
 70
     2
  9
$DIMTXSTY
  7
STANDARD
  9
$DIMAUNIT
 70
     0
  9
$DIMADEC
 70
     0
  9
$DIMALTRND
 40
0.0
  9
$DIMAZIN
 70
     0
  9
$DIMDSEP
 70
    46
  9
$DIMATFIT
 70
     3
  9
$DIMFRAC
 70
     0
  9
$DIMLDRBLK
  1

  9
$DIMLUNIT
 70
     5
  9
$DIMLWD
 70
    -2
  9
$DIMLWE
 70
    -2
  9
$DIMTMOVE
 70
     2
  9
$LUNITS
 70
     5
  9
$LUPREC
 70
     6
  9
$SKETCHINC
 40
0.1
  9
$FILLETRAD
 40
0.07
  9
$AUNITS
 70
     0
  9
$AUPREC
 70
     0
  9
$MENU
  1
acad
  9
$ELEVATION
 40
0.0
  9
$PELEVATION
 40
0.0
  9
$THICKNESS
 40
0.0
  9
$LIMCHECK
 70
     0
  9
$CHAMFERA
 40
0.0
  9
$CHAMFERB
 40
0.0
  9
$CHAMFERC
 40
0.0
  9
$CHAMFERD
 40
0.0
  9
$SKPOLY
 70
     0
  9
$TDCREATE
 40
2449874.908512732
  9
$TDUCREATE
 40
2449875.241846065
  9
$TDUPDATE
 40
2454166.818157824
  9
$TDUUPDATE
 40
2454167.151491157
  9
$TDINDWG
 40
0.0345578241
  9
$TDUSRTIMER
 40
0.0345578241
  9
$USRTIMER
 70
     1
  9
$ANGBASE
 50
0.0
  9
$ANGDIR
 70
     0
  9
$PDMODE
 70
     0
  9
$PDSIZE
 40
0.0
  9
$PLINEWID
 40
0.0
  9
$SPLFRAME
 70
     0
  9
$SPLINETYPE
 70
     6
  9
$SPLINESEGS
 70
     8
  9
$HANDSEED
  5
360
  9
$SURFTAB1
 70
     6
  9
$SURFTAB2
 70
     6
  9
$SURFTYPE
 70
     6
  9
$SURFU
 70
     6
  9
$SURFV
 70
     6
  9
$UCSBASE
  2

  9
$UCSNAME
  2

  9
$UCSORG
 10
0.0
 20
0.0
 30
0.0
  9
$UCSXDIR
 10
1.0
 20
0.0
 30
0.0
  9
$UCSYDIR
 10
0.0
 20
1.0
 30
0.0
  9
$UCSORTHOREF
  2

  9
$UCSORTHOVIEW
 70
     0
  9
$UCSORGTOP
 10
0.0
 20
0.0
 30
0.0
  9
$UCSORGBOTTOM
 10
0.0
 20
0.0
 30
0.0
  9
$UCSORGLEFT
 10
0.0
 20
0.0
 30
0.0
  9
$UCSORGRIGHT
 10
0.0
 20
0.0
 30
0.0
  9
$UCSORGFRONT
 10
0.0
 20
0.0
 30
0.0
  9
$UCSORGBACK
 10
0.0
 20
0.0
 30
0.0
  9
$PUCSBASE
  2

  9
$PUCSNAME
  2

  9
$PUCSORG
 10
0.0
 20
0.0
 30
0.0
  9
$PUCSXDIR
 10
1.0
 20
0.0
 30
0.0
  9
$PUCSYDIR
 10
0.0
 20
1.0
 30
0.0
  9
$PUCSORTHOREF
  2

  9
$PUCSORTHOVIEW
 70
     0
  9
$PUCSORGTOP
 10
0.0
 20
0.0
 30
0.0
  9
$PUCSORGBOTTOM
 10
0.0
 20
0.0
 30
0.0
  9
$PUCSORGLEFT
 10
0.0
 20
0.0
 30
0.0
  9
$PUCSORGRIGHT
 10
0.0
 20
0.0
 30
0.0
  9
$PUCSORGFRONT
 10
0.0
 20
0.0
 30
0.0
  9
$PUCSORGBACK
 10
0.0
 20
0.0
 30
0.0
  9
$USERI1
 70
     0
  9
$USERI2
 70
     0
  9
$USERI3
 70
     0
  9
$USERI4
 70
     0
  9
$USERI5
 70
     0
  9
$USERR1
 40
0.0
  9
$USERR2
 40
0.0
  9
$USERR3
 40
0.0
  9
$USERR4
 40
0.0
  9
$USERR5
 40
0.0
  9
$WORLDVIEW
 70
     1
  9
$SHADEDGE
 70
     3
  9
$SHADEDIF
 70
    70
  9
$TILEMODE
 70
     1
  9
$MAXACTVP
 70
    16
  9
$PINSBASE
 10
0.0
 20
0.0
 30
0.0
  9
$PLIMCHECK
 70
     0
  9
$PEXTMIN
 10
1.000000000000000E+20
 20
1.000000000000000E+20
 30
1.000000000000000E+20
  9
$PEXTMAX
 10
-1.000000000000000E+20
 20
-1.000000000000000E+20
 30
-1.000000000000000E+20
  9
$PLIMMIN
 10
0.0
 20
0.0
  9
$PLIMMAX
 10
12.0
 20
9.0
  9
$UNITMODE
 70
     0
  9
$VISRETAIN
 70
     0
  9
$PLINEGEN
 70
     1
  9
$PSLTSCALE
 70
     0
  9
$TREEDEPTH
 70
  3020
  9
$CMLSTYLE
  2
STANDARD
  9
$CMLJUST
 70
     0
  9
$CMLSCALE
 40
1.0
  9
$PROXYGRAPHICS
 70
     1
  9
$MEASUREMENT
 70
     0
  9
$CELWEIGHT
370
    -1
  9
$ENDCAPS
280
     0
  9
$JOINSTYLE
280
     0
  9
$LWDISPLAY
290
     0
  9
$INSUNITS
 70
     0
  9
$HYPERLINKBASE
  1

  9
$STYLESHEET
  1

  9
$XEDIT
290
     1
  9
$CEPSNTYPE
380
     0
  9
$PSTYLEMODE
290
     1
  9
$FINGERPRINTGUID
  2
{81491908-CD26-11D5-BE3F-00508B5FCD51}
  9
$VERSIONGUID
  2
{408C95E3-8C73-4FFE-ABE4-C9087BF49182}
  9
$EXTNAMES
290
     1
  9
$PSVPSCALE
 40
0.0
  9
$OLESTARTUP
290
     0
  0
ENDSEC
  0
SECTION
  2
CLASSES
  0
CLASS
  1
DICTIONARYVAR
  2
AcDbDictionaryVar
  3
AutoCAD 2000
 90
        0
280
     0
281
     0
  0
CLASS
  1
ACDBDICTIONARYWDFLT
  2
AcDbDictionaryWithDefault
  3
AutoCAD 2000
 90
        0
280
     0
281
     0
  0
CLASS
  1
ACDBPLACEHOLDER
  2
AcDbPlaceHolder
  3
ObjectDBX Classes
 90
        0
280
     0
281
     0
  0
CLASS
  1
LAYOUT
  2
AcDbLayout
  3
ObjectDBX Classes
 90
        0
280
     0
281
     0
  0
CLASS
  1
LONG_TRANSACTION
  2
AcDbLongTransaction
  3
ObjectDBX Classes
 90
   -65536
280
     1
281
     0
  0
CLASS
  1
LWPOLYLINE
  2
AcDbPolyline
  3
AutoCAD 2000
 90
        0
280
     0
281
     1
  0
CLASS
  1
HATCH
  2
AcDbHatch
  3
AutoCAD 2000
 90
        0
280
     0
281
     1
  0
CLASS
  1
XRECORD
  2
AcDbXrecord
  3
AutoCAD 2000
 90
        0
280
     0
281
     0
  0
CLASS
  1
LONG_TRANSACTION
  2
AcDbLongTransaction
  3
ObjectDBX Classes
 90
   -65536
280
     1
281
     0
  0
CLASS
  1
LWPOLYLINE
  2
AcDbPolyline
  3
AutoCAD 2000
 90
        0
280
     0
281
     1
  0
CLASS
  1
HATCH
  2
AcDbHatch
  3
AutoCAD 2000
 90
        0
280
     0
281
     1
  0
CLASS
  1
XRECORD
  2
AcDbXrecord
  3
AutoCAD 2000
 90
        0
280
     0
281
     0
  0
CLASS
  1
LONG_TRANSACTION
  2
AcDbLongTransaction
  3
ObjectDBX Classes
 90
   -65536
280
     1
281
     0
  0
CLASS
  1
LWPOLYLINE
  2
AcDbPolyline
  3
AutoCAD 2000
 90
        0
280
     0
281
     1
  0
CLASS
  1
HATCH
  2
AcDbHatch
  3
AutoCAD 2000
 90
        0
280
     0
281
     1
  0
CLASS
  1
XRECORD
  2
AcDbXrecord
  3
AutoCAD 2000
 90
        0
280
     0
281
     0
  0
CLASS
  1
LONG_TRANSACTION
  2
AcDbLongTransaction
  3
ObjectDBX Classes
 90
   -65536
280
     1
281
     0
  0
CLASS
  1
LWPOLYLINE
  2
AcDbPolyline
  3
AutoCAD 2000
 90
        0
280
     0
281
     1
  0
CLASS
  1
HATCH
  2
AcDbHatch
  3
AutoCAD 2000
 90
        0
280
     0
281
     1
  0
CLASS
  1
XRECORD
  2
AcDbXrecord
  3
AutoCAD 2000
 90
        0
280
     0
281
     0
  0
CLASS
  1
TABLESTYLE
  2
AcDbTableStyle
  3
ObjectDBX Classes
 90
     2047
280
     1
281
     0
  0
ENDSEC
  0
SECTION
  2
TABLES
  0
TABLE
  2
VPORT
  5
1D
330
0
100
AcDbSymbolTable
 70
     3
  0
VPORT
  5
350
330
1D
100
AcDbSymbolTableRecord
100
AcDbViewportTableRecord
  2
*Active
 70
     0
 10
0.0
 20
0.0
 11
1.0
 21
1.0
 12
3.70343261585279
 22
9.514843975569306
 13
0.0
 23
0.0
 14
0.063
 24
0.063
 15
0.25
 25
0.25
 16
0.0
 26
0.0
 36
1.0
 17
0.0
 27
0.0
 37
0.0
 40
24.89564325507246
 41
1.814583333333333
 42
50.0
 43
0.0
 44
0.0
 50
0.0
 51
0.0
 71
     0
 72
   100
 73
     1
 74
     0
 75
     0
 76
     0
 77
     0
 78
     0
281
     0
 65
     1
110
0.0
120
0.0
130
0.0
111
1.0
121
0.0
131
0.0
112
0.0
122
1.0
132
0.0
 79
     0
146
0.0
  0
ENDTAB
  0
TABLE
  2
LTYPE
  5
18
330
0
100
AcDbSymbolTable
 70
     3
  0
LTYPE
  5
19
330
18
100
AcDbSymbolTableRecord
100
AcDbLinetypeTableRecord
  2
BYBLOCK
 70
     0
  3

 72
    65
 73
     0
 40
0.0
  0
LTYPE
  5
1A
330
18
100
AcDbSymbolTableRecord
100
AcDbLinetypeTableRecord
  2
BYLAYER
 70
     0
  3

 72
    65
 73
     0
 40
0.0
  0
LTYPE
  5
A
330
18
100
AcDbSymbolTableRecord
100
AcDbLinetypeTableRecord
  2
CONTINUOUS
 70
     0
  3
Solid line
 72
    65
 73
     0
 40
0.0
  0
LTYPE
  5
1E8
330
18
100
AcDbSymbolTableRecord
100
AcDbLinetypeTableRecord
  2
HIDDEN
 70
     0
  3
_ _ _ _ _ _ _ _ _ _ _ _ _ _ _ _ _ _ _ _ _ _ _
 72
    65
 73
     2
 40
0.375
 49
0.25
 74
     0
 49
-0.125
 74
     0
  0
ENDTAB
  0
TABLE
  2
LAYER
  5
14
330
0
100
AcDbSymbolTable
 70
     6
  0
LAYER
  5
6
330
14
100
AcDbSymbolTableRecord
100
AcDbLayerTableRecord
  2
0
 70
     0
 62
     7
  6
CONTINUOUS
370
    -3
390
7
  0
LAYER
  5
1EB
330
14
100
AcDbSymbolTableRecord
100
AcDbLayerTableRecord
  2
BORDER
 70
     0
 62
     7
  6
CONTINUOUS
370
    -3
390
7
  0
ENDTAB
  0
TABLE
  2
STYLE
  5
15
330
0
100
AcDbSymbolTable
 70
     1
  0
STYLE
  5
16
330
15
100
AcDbSymbolTableRecord
100
AcDbTextStyleTableRecord
  2
STANDARD
 70
     0
 40
0.0
 41
1.0
 50
0.0
 71
     0
 42
0.299997
  3
TXT
  4

  0
ENDTAB
  0
TABLE
  2
VIEW
  5
1B
330
0
100
AcDbSymbolTable
 70
     0
  0
ENDTAB
  0
TABLE
  2
UCS
  5
1C
330
0
100
AcDbSymbolTable
 70
     0
  0
ENDTAB
  0
TABLE
  2
APPID
  5
1F
330
0
100
AcDbSymbolTable
 70
     1
  0
APPID
  5
20
330
1F
100
AcDbSymbolTableRecord
100
AcDbRegAppTableRecord
  2
ACAD
 70
     0
  0
ENDTAB
  0
TABLE
  2
DIMSTYLE
  5
21
330
0
100
AcDbSymbolTable
 70
     1
100
AcDbDimStyleTable
  0
DIMSTYLE
105
28
330
21
100
AcDbSymbolTableRecord
100
AcDbDimStyleTableRecord
  2
STANDARD
 70
     0
  3

  4

340
16
  0
ENDTAB
  0
TABLE
  2
BLOCK_RECORD
  5
1
330
0
100
AcDbSymbolTable
 70
     2
  0
BLOCK_RECORD
  5
2
330
1
100
AcDbSymbolTableRecord
100
AcDbBlockTableRecord
  2
*MODEL_SPACE
340
C
  0
BLOCK_RECORD
  5
E
330
1
100
AcDbSymbolTableRecord
100
AcDbBlockTableRecord
  2
*PAPER_SPACE
340
13
  0
BLOCK_RECORD
  5
9A
330
1
100
AcDbSymbolTableRecord
100
AcDbBlockTableRecord
  2
03A1T181
340
0
102
{BLKREFS
331
1AF
331
1CC
102
}
  0
BLOCK_RECORD
  5
1DF
330
1
100
AcDbSymbolTableRecord
100
AcDbBlockTableRecord
  2
03A1T179
340
0
102
{BLKREFS
331
28B
331
290
331
298
331
29C
331
2B2
331
2B3
331
2BD
331
2BE
331
300
331
301
331
309
331
30A
331
30B
331
30C
331
319
331
31A
331
326
331
327
331
32F
331
330
102
}
  0
ENDTAB
  0
ENDSEC
  0
SECTION
  2
BLOCKS
  0
BLOCK
  5
5
330
2
100
AcDbEntity
  8
0
100
AcDbBlockBegin
  2
*MODEL_SPACE
 70
     0
 10
0.0
 20
0.0
 30
0.0
  3
*MODEL_SPACE
  1

  4

  0
ENDBLK
  5
B
330
2
100
AcDbEntity
  8
0
100
AcDbBlockEnd
  0
BLOCK
  5
11
330
E
100
AcDbEntity
 67
     1
  8
0
100
AcDbBlockBegin
  2
*PAPER_SPACE
 70
     0
 10
0.0
 20
0.0
 30
0.0
  3
*PAPER_SPACE
  1

  4

  0
ENDBLK
  5
12
330
E
100
AcDbEntity
 67
     1
  8
0
100
AcDbBlockEnd
  0
BLOCK
  5
9F
330
9A
100
AcDbEntity
  8
0
100
AcDbBlockBegin
  2
03A1T181
 70
     0
 10
115.340838
 20
404.414012
 30
0.0
  3
03A1T181
  1

  4

  0
LINE
  5
9B
330
9A
100
AcDbEntity
  8
0
100
AcDbLine
 10
115.185005
 20
404.569844
 30
0.0
 11
115.163392
 21
404.548906
 31
0.0
  0
LINE
  5
9C
330
9A
100
AcDbEntity
  8
0
100
AcDbLine
 10
115.163392
 20
404.548906
 30
0.0
 11
115.322766
 21
404.388896
 31
0.0
  0
LINE
  5
9D
330
9A
100
AcDbEntity
  8
0
100
AcDbLine
 10
115.340838
 20
404.414012
 30
0.0
 11
115.185005
 21
404.569844
 31
0.0
  0
ARC
  5
9E
330
9A
100
AcDbEntity
  8
0
100
AcDbCircle
 10
115.278838
 20
404.345143
 30
0.0
 40
0.062
100
AcDbArc
 50
0.0
 51
44.885873
  0
ENDBLK
  5
A0
330
9A
100
AcDbEntity
  8
0
100
AcDbBlockEnd
  0
BLOCK
  5
1E6
330
1DF
100
AcDbEntity
  8
0
100
AcDbBlockBegin
  2
03A1T179
 70
     0
 10
115.601269
 20
404.185432
 30
0.0
  3
03A1T179
  1

  4

  0
LINE
  5
1E0
330
1DF
100
AcDbEntity
  8
BORDER
100
AcDbLine
 10
115.679269
 20
404.43298
 30
0.0
 11
115.679269
 21
404.26098
 31
0.0
  0
LINE
  5
1E1
330
1DF
100
AcDbEntity
  8
BORDER
100
AcDbLine
 10
115.601269
 20
404.18298
 30
0.0
 11
115.601019
 21
404.18298
 31
0.0
  0
LINE
  5
1E2
330
1DF
100
AcDbEntity
  8
BORDER
100
AcDbLine
 10
115.523019
 20
404.26098
 30
0.0
 11
115.523019
 21
404.43298
 31
0.0
  0
ARC
  5
1E3
330
1DF
100
AcDbEntity
  8
BORDER
100
AcDbCircle
 10
115.601269
 20
404.26098
 30
0.0
 40
0.078
100
AcDbArc
 50
270.0
 51
0.0
  0
ARC
  5
1E4
330
1DF
100
AcDbEntity
  8
BORDER
100
AcDbCircle
 10
115.601019
 20
404.26098
 30
0.0
 40
0.078
100
AcDbArc
 50
180.0
 51
270.0
  0
ARC
  5
1E5
330
1DF
100
AcDbEntity
  8
BORDER
100
AcDbCircle
 10
115.601458
 20
404.384831
 30
0.0
 40
0.105727
100
AcDbArc
 50
224.529466
 51
313.593114
  0
ENDBLK
  5
1E7
330
1DF
100
AcDbEntity
  8
0
100
AcDbBlockEnd
  0
ENDSEC
  0
SECTION
  2
ENTITIES
  0
LINE
  5
197
330
2
100
AcDbEntity
  8
0
100
AcDbLine
 10
-1.847082500000003
 20
13.8976188509704
 30
0.0
 11
-1.847082500000003
 21
12.0376188509704
 31
0.0
  0
LINE
  5
198
330
2
100
AcDbEntity
  8
0
100
AcDbLine
 10
1.854917499999999
 20
14.1545058509704
 30
0.0
 11
1.854917499999999
 21
12.0376188509704
 31
0.0
  0
LINE
  5
199
330
2
100
AcDbEntity
  8
0
100
AcDbLine
 10
-1.777082500000002
 20
14.0376188509704
 30
0.0
 11
-1.777082500000002
 21
12.0376188509704
 31
0.0
  0
LINE
  5
19A
330
2
100
AcDbEntity
  8
0
100
AcDbLine
 10
1.784917499999999
 20
14.0376188509704
 30
0.0
 11
1.784917499999999
 21
12.0376188509704
 31
0.0
  0
LINE
  5
19B
330
2
100
AcDbEntity
  8
0
100
AcDbLine
 10
-0.4822574999999993
 20
12.0376188509704
 30
0.0
 11
0.4822574999999993
 21
12.0376188509704
 31
0.0
  0
LINE
  5
19C
330
2
100
AcDbEntity
  8
0
100
AcDbLine
 10
-1.847082500000003
 20
12.0376188509704
 30
0.0
 11
-1.6813295
 21
12.0376188509704
 31
0.0
  0
LINE
  5
19D
330
2
100
AcDbEntity
  8
0
100
AcDbLine
 10
-1.777082500000002
 20
12.0376188509704
 30
0.0
 11
-0.7730805000000025
 21
12.0376188509704
 31
0.0
  0
LINE
  5
19E
330
2
100
AcDbEntity
  8
0
100
AcDbLine
 10
-0.6823654999999995
 20
12.1324878509704
 30
0.0
 11
-0.565547500000001
 21
12.1324878509704
 31
0.0
  0
ARC
  5
19F
330
2
100
AcDbEntity
  8
0
100
AcDbCircle
 10
-0.6823654999999995
 20
12.0469878509704
 30
0.0
 40
0.0855
100
AcDbArc
 50
89.156836
 51
180.0
  0
ARC
  5
1A0
330
2
100
AcDbEntity
  8
0
100
AcDbCircle
 10
-0.5687774999999995
 20
12.0469878509704
 30
0.0
 40
0.0855
100
AcDbArc
 50
0.227863
 51
89.763378
  0
LINE
  5
1A1
330
2
100
AcDbEntity
  8
0
100
AcDbLine
 10
0.7730815
 20
12.0376188509704
 30
0.0
 11
1.784917499999999
 21
12.0376188509704
 31
0.0
  0
ARC
  5
1A2
330
2
100
AcDbEntity
  8
0
100
AcDbCircle
 10
0.5676345000000005
 20
12.0469878509704
 30
0.0
 40
0.0855
100
AcDbArc
 50
89.156836
 51
180.0
  0
LINE
  5
1A3
330
2
100
AcDbEntity
  8
0
100
AcDbLine
 10
0.5676345000000005
 20
12.1324878509704
 30
0.0
 11
0.684452499999999
 21
12.1324878509704
 31
0.0
  0
ARC
  5
1A4
330
2
100
AcDbEntity
  8
0
100
AcDbCircle
 10
0.6812225000000005
 20
12.0469878509704
 30
0.0
 40
0.0855
100
AcDbArc
 50
0.227863
 51
89.763378
  0
LINE
  5
1A5
330
2
100
AcDbEntity
  8
0
100
AcDbLine
 10
1.854917499999999
 20
12.0376188509704
 30
0.0
 11
1.758110499999997
 21
12.0376188509704
 31
0.0
  0
ARC
  5
1A6
330
2
100
AcDbEntity
  8
0
100
AcDbCircle
 10
2.882337499999998
 20
15.8397758509704
 30
0.0
 40
0.07
100
AcDbArc
 50
0.0
 51
90.0
  0
ARC
  5
1A7
330
2
100
AcDbEntity
  8
0
100
AcDbCircle
 10
2.774891111126888
 20
15.22561102939191
 30
0.0
 40
0.178376705464983
100
AcDbArc
 50
277.1798819944672
 51
354.1457282407012
  0
LINE
  5
1A8
330
2
100
AcDbEntity
  8
0
100
AcDbLine
 10
-0.4822574999999993
 20
14.0376188509704
 30
0.0
 11
0.4900914999999984
 21
14.0376188509704
 31
0.0
  0
LINE
  5
1A9
330
2
100
AcDbEntity
  8
0
100
AcDbLine
 10
-1.708838500000002
 20
15.9097758509704
 30
0.0
 11
-1.708838500000002
 21
14.5125388509704
 31
0.0
  0
ARC
  5
1AA
330
2
100
AcDbEntity
  8
0
100
AcDbCircle
 10
-2.764864374801382
 20
15.2277536119409
 30
0.0
 40
0.1807866121948635
100
AcDbArc
 50
186.4588970692981
 51
262.2154926955322
  0
ARC
  5
1AB
330
2
100
AcDbEntity
  8
0
100
AcDbCircle
 10
-1.917082500000003
 20
14.1545058509704
 30
0.0
 40
0.14
100
AcDbArc
 50
0.0
 51
90.0
  0
ARC
  5
1AC
330
2
100
AcDbEntity
  8
0
100
AcDbCircle
 10
-1.752355500000004
 20
14.2825728509704
 30
0.0
 40
0.161992
100
AcDbArc
 50
94.850757
 51
180.506247
  0
ARC
  5
1AD
330
2
100
AcDbEntity
  8
0
100
AcDbCircle
 10
-1.917082500000003
 20
14.1545058509704
 30
0.0
 40
0.14
100
AcDbArc
 50
0.0
 51
90.0
  0
ARC
  5
1AE
330
2
100
AcDbEntity
  8
0
100
AcDbCircle
 10
-1.917082500000003
 20
14.1545058509704
 30
0.0
 40
0.14
100
AcDbArc
 50
0.0
 51
90.0
  0
INSERT
  5
1AF
330
2
100
AcDbEntity
  8
0
100
AcDbBlockReference
  2
03A1T181
 10
-1.843336500000003
 20
13.2778208509704
 30
0.0
 41
-1.0
 50
180.0
  0
LINE
  5
1B0
330
2
100
AcDbEntity
  8
0
100
AcDbLine
 10
-1.917082500000003
 20
14.2245058509704
 30
0.0
 11
-2.633101500000002
 21
14.2245058509704
 31
0.0
  0
LINE
  5
1B1
330
2
100
AcDbEntity
  8
0
100
AcDbLine
 10
-2.633101500000002
 20
14.2242298509704
 30
0.0
 11
-2.148804500000001
 21
14.2242298509704
 31
0.0
  0
LINE
  5
1B2
330
2
100
AcDbEntity
  8
0
100
AcDbLine
 10
-2.633101500000002
 20
14.2242298509704
 30
0.0
 11
-2.148804500000001
 21
14.2242298509704
 31
0.0
  0
LINE
  5
1B3
330
2
100
AcDbEntity
  8
0
100
AcDbLine
 10
-1.917082500000003
 20
14.2245058509704
 30
0.0
 11
-2.633101500000002
 21
14.2245058509704
 31
0.0
  0
LINE
  5
1B4
330
2
100
AcDbEntity
  8
0
100
AcDbLine
 10
-2.633101500000002
 20
14.8534768509704
 30
0.0
 11
-2.633101500000002
 21
14.2242298509704
 31
0.0
  0
ARC
  5
1B5
330
2
100
AcDbEntity
  8
0
100
AcDbCircle
 10
-2.833101500000002
 20
14.8534768509704
 30
0.0
 40
0.2
100
AcDbArc
 50
0.0
 51
77.364375
  0
LINE
  5
1B6
330
2
100
AcDbEntity
  8
0
  6
HIDDEN
100
AcDbLine
 10
-1.917082500000003
 20
14.2945058509704
 30
0.0
 11
-2.633101500000002
 21
14.2945058509704
 31
0.0
  0
ARC
  5
1B7
330
2
100
AcDbEntity
  8
0
100
AcDbCircle
 10
-1.917082500000003
 20
14.1545058509704
 30
0.0
 40
0.07
100
AcDbArc
 50
0.0
 51
90.0
  0
ARC
  5
1B8
330
2
100
AcDbEntity
  8
0
100
AcDbCircle
 10
-1.854790500000004
 20
14.2816938509704
 30
0.0
 40
0.0625
100
AcDbArc
 50
180.506247
 51
246.843019
  0
ARC
  5
1B9
330
2
100
AcDbEntity
  8
0
100
AcDbCircle
 10
-1.917082500000003
 20
14.1545058509704
 30
0.0
 40
0.07
100
AcDbArc
 50
0.0
 51
90.0
  0
LINE
  5
1BA
330
2
100
AcDbEntity
  8
0
100
AcDbLine
 10
-1.847082500000003
 20
14.1545058509704
 30
0.0
 11
-1.847082500000003
 21
13.8902668509704
 31
0.0
  0
ARC
  5
1BB
330
2
100
AcDbEntity
  8
0
100
AcDbCircle
 10
-1.917082500000003
 20
14.1545058509704
 30
0.0
 40
0.07
100
AcDbArc
 50
0.0
 51
90.0
  0
LINE
  5
1BC
330
2
100
AcDbEntity
  8
0
100
AcDbLine
 10
-1.777082500000002
 20
14.0376188509704
 30
0.0
 11
-0.7583925000000029
 21
14.0376188509704
 31
0.0
  0
ARC
  5
1BD
330
2
100
AcDbEntity
  8
0
100
AcDbCircle
 10
-1.771338500000002
 20
14.5062608509704
 30
0.0
 40
0.0625
100
AcDbArc
 50
274.850757
 51
0.0
  0
LINE
  5
1BE
330
2
100
AcDbEntity
  8
0
100
AcDbLine
 10
-1.777082500000002
 20
14.0376188509704
 30
0.0
 11
-1.777082500000002
 21
14.1545058509704
 31
0.0
  0
LINE
  5
1BF
330
2
100
AcDbEntity
  8
0
100
AcDbLine
 10
-1.777082500000002
 20
14.0376188509704
 30
0.0
 11
-1.777082500000002
 21
14.1545058509704
 31
0.0
  0
LINE
  5
1C0
330
2
100
AcDbEntity
  8
0
100
AcDbLine
 10
-0.6823654999999995
 20
13.9512128509704
 30
0.0
 11
-0.565547500000001
 21
13.9512128509704
 31
0.0
  0
ARC
  5
1C1
330
2
100
AcDbEntity
  8
0
100
AcDbCircle
 10
-0.6823654999999995
 20
14.0367128509704
 30
0.0
 40
0.0855
100
AcDbArc
 50
180.0
 51
270.843164
  0
ARC
  5
1C2
330
2
100
AcDbEntity
  8
0
100
AcDbCircle
 10
-0.5687774999999995
 20
14.0367128509704
 30
0.0
 40
0.0855
100
AcDbArc
 50
270.236622
 51
359.772137
  0
LINE
  5
1C3
330
2
100
AcDbEntity
  8
0
100
AcDbLine
 10
-2.874503499999999
 20
15.9097758509704
 30
0.0
 11
-1.708838500000002
 21
15.9097758509704
 31
0.0
  0
CIRCLE
  5
1C4
330
2
100
AcDbEntity
  8
0
100
AcDbCircle
 10
-2.6320035
 20
15.3973298509704
 30
0.0
 40
0.0855
  0
LINE
  5
1C5
330
2
100
AcDbEntity
  8
0
100
AcDbLine
 10
-2.9445035
 20
15.2074168509704
 30
0.0
 11
-2.9445035
 21
15.8397758509704
 31
0.0
  0
ARC
  5
1C6
330
2
100
AcDbEntity
  8
0
100
AcDbCircle
 10
-2.874503499999999
 20
15.8397758509704
 30
0.0
 40
0.07
100
AcDbArc
 50
90.0
 51
180.0
  0
LINE
  5
1C7
330
2
100
AcDbEntity
  8
0
100
AcDbLine
 10
1.716672499999998
 20
15.9097758509704
 30
0.0
 11
1.716672499999998
 21
14.5125388509704
 31
0.0
  0
LINE
  5
1C8
330
2
100
AcDbEntity
  8
0
100
AcDbLine
 10
0.7662264999999984
 20
14.0376188509704
 30
0.0
 11
1.784917499999999
 21
14.0376188509704
 31
0.0
  0
ARC
  5
1C9
330
2
100
AcDbEntity
  8
0
100
AcDbCircle
 10
0.5676345000000005
 20
14.0367128509704
 30
0.0
 40
0.0855
100
AcDbArc
 50
180.0
 51
270.843164
  0
ARC
  5
1CA
330
2
100
AcDbEntity
  8
0
100
AcDbCircle
 10
0.6812225000000005
 20
14.0367128509704
 30
0.0
 40
0.0855
100
AcDbArc
 50
270.236622
 51
359.772137
  0
LINE
  5
1CB
330
2
100
AcDbEntity
  8
0
100
AcDbLine
 10
0.5676345000000005
 20
13.9512128509704
 30
0.0
 11
0.684452499999999
 21
13.9512128509704
 31
0.0
  0
INSERT
  5
1CC
330
2
100
AcDbEntity
  8
0
100
AcDbBlockReference
  2
03A1T181
 10
1.863006500000001
 20
13.2523028509704
 30
0.0
 50
180.0
  0
LINE
  5
1CD
330
2
100
AcDbEntity
  8
0
  6
HIDDEN
100
AcDbLine
 10
1.924917499999996
 20
14.2945058509704
 30
0.0
 11
2.640935500000001
 21
14.2945058509704
 31
0.0
  0
LINE
  5
1CE
330
2
100
AcDbEntity
  8
0
100
AcDbLine
 10
1.924917499999996
 20
14.2245058509704
 30
0.0
 11
2.640935500000001
 21
14.2245058509704
 31
0.0
  0
ARC
  5
1CF
330
2
100
AcDbEntity
  8
0
100
AcDbCircle
 10
1.779172499999998
 20
14.5062608509704
 30
0.0
 40
0.0625
100
AcDbArc
 50
180.0
 51
265.149243
  0
ARC
  5
1D0
330
2
100
AcDbEntity
  8
0
100
AcDbCircle
 10
1.760189499999999
 20
14.2825728509704
 30
0.0
 40
0.161992
100
AcDbArc
 50
359.493753
 51
85.149243
  0
ARC
  5
1D1
330
2
100
AcDbEntity
  8
0
100
AcDbCircle
 10
1.862624499999999
 20
14.2816938509704
 30
0.0
 40
0.0625
100
AcDbArc
 50
293.156981
 51
359.493753
  0
ARC
  5
1D2
330
2
100
AcDbEntity
  8
0
100
AcDbCircle
 10
1.924917499999996
 20
14.1545058509704
 30
0.0
 40
0.14
100
AcDbArc
 50
90.0
 51
180.0
  0
ARC
  5
1D3
330
2
100
AcDbEntity
  8
0
100
AcDbCircle
 10
1.924917499999996
 20
14.1545058509704
 30
0.0
 40
0.07
100
AcDbArc
 50
90.0
 51
180.0
  0
LINE
  5
1D4
330
2
100
AcDbEntity
  8
0
100
AcDbLine
 10
1.784917499999999
 20
14.0376188509704
 30
0.0
 11
1.784917499999999
 21
14.1545058509704
 31
0.0
  0
LINE
  5
1D5
330
2
100
AcDbEntity
  8
0
100
AcDbLine
 10
2.640935500000001
 20
14.8534768509704
 30
0.0
 11
2.640935500000001
 21
14.2242298509704
 31
0.0
  0
LINE
  5
1D6
330
2
100
AcDbEntity
  8
0
100
AcDbLine
 10
2.640935500000001
 20
14.2242298509704
 30
0.0
 11
2.1566385
 21
14.2242298509704
 31
0.0
  0
ARC
  5
1D7
330
2
100
AcDbEntity
  8
0
100
AcDbCircle
 10
2.840935499999999
 20
14.8534768509704
 30
0.0
 40
0.2
100
AcDbArc
 50
102.635625
 51
180.0
  0
LINE
  5
1D8
330
2
100
AcDbEntity
  8
0
100
AcDbLine
 10
2.882337499999998
 20
15.9097758509704
 30
0.0
 11
1.716672499999998
 21
15.9097758509704
 31
0.0
  0
CIRCLE
  5
1D9
330
2
100
AcDbEntity
  8
0
100
AcDbCircle
 10
2.639837499999999
 20
15.3973298509704
 30
0.0
 40
0.0855
  0
LINE
  5
1DA
330
2
100
AcDbEntity
  8
0
100
AcDbLine
 10
2.952337499999999
 20
15.2074168509704
 30
0.0
 11
2.952337499999999
 21
15.8397758509704
 31
0.0
  0
LINE
  5
278
330
2
100
AcDbEntity
  8
0
100
AcDbLine
 10
-1.855432
 20
2.227461000000002
 30
0.0
 11
-1.855432000000001
 21
7.466998000000001
 31
0.0
  0
LINE
  5
279
330
2
100
AcDbEntity
  8
0
100
AcDbLine
 10
-1.785432
 20
2.227461000000002
 30
0.0
 11
-1.785432
 21
7.466998
 31
0.0
  0
ARC
  5
27A
330
2
100
AcDbEntity
  8
0
100
AcDbCircle
 10
2.715483288589612
 20
5.117613338102513
 30
0.0
 40
0.2063330242845858
100
AcDbArc
 50
11.13509790977443
 51
76.74825942233107
  0
ARC
  5
27B
330
2
100
AcDbEntity
  8
0
100
AcDbCircle
 10
-2.719031000633685
 20
5.123295624958043
 30
0.0
 40
0.2
100
AcDbArc
 50
102.635625
 51
180.0
  0
LINE
  5
27D
330
2
100
AcDbEntity
  8
0
100
AcDbLine
 10
1.855432
 20
7.466998
 30
0.0
 11
1.855432
 21
0.9522650000000024
 31
0.0
  0
LINE
  5
27E
330
2
100
AcDbEntity
  8
0
100
AcDbLine
 10
1.785432
 20
0.1400000000000006
 30
0.0
 11
1.785432
 21
7.466998
 31
0.0
  0
ARC
  5
27F
330
2
100
AcDbEntity
  8
0
100
AcDbCircle
 10
2.730432
 20
2.467548000000001
 30
0.0
 40
0.1875
100
AcDbArc
 50
324.462322
 51
0.0
  0
ARC
  5
280
330
2
100
AcDbEntity
  8
0
100
AcDbCircle
 10
2.715483288589613
 20
3.117613338102514
 30
0.0
 40
0.2063330242845848
100
AcDbArc
 50
11.1350979097743
 51
76.74825942233127
  0
ARC
  5
281
330
2
100
AcDbEntity
  8
0
100
AcDbCircle
 10
2.719030999999999
 20
4.503919999999999
 30
0.0
 40
0.1999999999999983
100
AcDbArc
 50
282.6356249999997
 51
353.9907461559482
  0
LINE
  5
282
330
2
100
AcDbEntity
  8
0
100
AcDbLine
 10
-1.715432
 20
0.0
 30
0.0
 11
1.715432
 21
0.0
 31
0.0
  0
LINE
  5
283
330
2
100
AcDbEntity
  8
0
100
AcDbLine
 10
-1.715432
 20
0.0700000000000003
 30
0.0
 11
1.715432
 21
0.0700000000000003
 31
0.0
  0
LINE
  5
284
330
2
100
AcDbEntity
  8
0
100
AcDbLine
 10
-2.917932
 20
2.467548000000001
 30
0.0
 11
-2.919031000633686
 21
3.123295624958043
 31
0.0
  0
LINE
  5
285
330
2
100
AcDbEntity
  8
0
100
AcDbLine
 10
-1.855432
 20
0.1400000000000006
 30
0.0
 11
-1.855432
 21
5.157461000000001
 31
0.0
  0
LINE
  5
286
330
2
100
AcDbEntity
  8
0
100
AcDbLine
 10
-1.785432
 20
0.1400000000000006
 30
0.0
 11
-1.785432
 21
5.157461000000001
 31
0.0
  0
ARC
  5
287
330
2
100
AcDbEntity
  8
0
100
AcDbCircle
 10
-1.715432
 20
0.1400000000000006
 30
0.0
 40
0.14
100
AcDbArc
 50
180.0
 51
270.0
  0
ARC
  5
288
330
2
100
AcDbEntity
  8
0
100
AcDbCircle
 10
-1.715432
 20
0.1400000000000006
 30
0.0
 40
0.07
100
AcDbArc
 50
180.0
 51
270.0
  0
LINE
  5
289
330
2
100
AcDbEntity
  8
0
100
AcDbLine
 10
-1.884486000000003
 20
0.9606360000000009
 30
0.0
 11
-2.883008000000004
 21
2.358566
 31
0.0
  0
ARC
  5
28A
330
2
100
AcDbEntity
  8
0
100
AcDbCircle
 10
-2.730432
 20
2.467548000000001
 30
0.0
 40
0.1875
100
AcDbArc
 50
180.0
 51
215.5376779999999
  0
INSERT
  5
28B
330
2
100
AcDbEntity
  8
0
100
AcDbBlockReference
  2
03A1T179
 10
-2.094239000000002
 20
1.298393000000003
 30
0.0
 41
-1.0
 50
270.0
  0
LINE
  5
28C
330
2
100
AcDbEntity
  8
0
100
AcDbLine
 10
-2.606531000000004
 20
4.113608000000003
 30
0.0
 11
-2.606531000000004
 21
3.513608000000001
 31
0.0
  0
CIRCLE
  5
28D
330
2
100
AcDbEntity
  8
0
100
AcDbCircle
 10
-2.605432
 20
2.657461000000001
 30
0.0
 40
0.0855
  0
ARC
  5
28E
330
2
100
AcDbEntity
  8
0
100
AcDbCircle
 10
-2.719031000633685
 20
3.123295624958043
 30
0.0
 40
0.2
100
AcDbArc
 50
102.635625
 51
180.0
  0
ARC
  5
28F
330
2
100
AcDbEntity
  8
0
100
AcDbCircle
 10
-2.806531000000003
 20
3.513608000000001
 30
0.0
 40
0.2
100
AcDbArc
 50
282.635625
 51
0.0
  0
INSERT
  5
290
330
2
100
AcDbEntity
  8
0
100
AcDbBlockReference
  2
03A1T179
 10
-2.111722
 20
3.655945000000003
 30
0.0
 41
-1.0
 50
270.0
  0
CIRCLE
  5
291
330
2
100
AcDbEntity
  8
0
100
AcDbCircle
 10
-2.605432
 20
4.657461000000001
 30
0.0
 40
0.0855
  0
LINE
  5
292
330
2
100
AcDbEntity
  8
0
100
AcDbLine
 10
-2.919031000000001
 20
4.503920000000001
 30
0.0
 11
-2.919031000633686
 21
5.123295624958043
 31
0.0
  0
ARC
  5
293
330
2
100
AcDbEntity
  8
0
100
AcDbCircle
 10
-2.719031000000001
 20
4.503920000000001
 30
0.0
 40
0.2
100
AcDbArc
 50
180.0
 51
257.364375
  0
ARC
  5
294
330
2
100
AcDbEntity
  8
0
100
AcDbCircle
 10
-2.806531000000003
 20
4.113608000000003
 30
0.0
 40
0.2
100
AcDbArc
 50
0.0
 51
77.36437500000001
  0
LINE
  5
295
330
2
100
AcDbEntity
  8
0
100
AcDbLine
 10
1.884485999999995
 20
0.9606360000000009
 30
0.0
 11
2.883006999999999
 21
2.358566
 31
0.0
  0
ARC
  5
296
330
2
100
AcDbEntity
  8
0
100
AcDbCircle
 10
1.715432
 20
0.1400000000000006
 30
0.0
 40
0.14
100
AcDbArc
 50
270.0
 51
0.0
  0
ARC
  5
297
330
2
100
AcDbEntity
  8
0
100
AcDbCircle
 10
1.715432
 20
0.1400000000000006
 30
0.0
 40
0.07
100
AcDbArc
 50
270.0
 51
0.0
  0
INSERT
  5
298
330
2
100
AcDbEntity
  8
0
100
AcDbBlockReference
  2
03A1T179
 10
2.094238999999998
 20
1.548393000000003
 30
0.0
 50
90.0
  0
LINE
  5
299
330
2
100
AcDbEntity
  8
0
100
AcDbLine
 10
2.606530999999997
 20
4.113608000000003
 30
0.0
 11
2.606530999999997
 21
3.513608000000001
 31
0.0
  0
CIRCLE
  5
29A
330
2
100
AcDbEntity
  8
0
100
AcDbCircle
 10
2.605432
 20
2.657461000000001
 30
0.0
 40
0.0855
  0
ARC
  5
29B
330
2
100
AcDbEntity
  8
0
100
AcDbCircle
 10
2.806531
 20
3.513608000000001
 30
0.0
 40
0.2
100
AcDbArc
 50
180.0
 51
257.364375
  0
INSERT
  5
29C
330
2
100
AcDbEntity
  8
0
100
AcDbBlockReference
  2
03A1T179
 10
2.111721999999997
 20
4.093445000000003
 30
0.0
 50
90.0
  0
CIRCLE
  5
29D
330
2
100
AcDbEntity
  8
0
100
AcDbCircle
 10
2.605432
 20
4.657461000000001
 30
0.0
 40
0.0855
  0
ARC
  5
29E
330
2
100
AcDbEntity
  8
0
100
AcDbCircle
 10
2.806531
 20
4.113608000000003
 30
0.0
 40
0.2
100
AcDbArc
 50
102.635625
 51
180.0
  0
LINE
  5
29F
330
2
100
AcDbEntity
  8
0
100
AcDbLine
 10
2.917932
 20
2.467548000000001
 30
0.0
 11
2.917932
 21
3.157461000000001
 31
0.0
  0
LINE
  5
2A0
330
2
100
AcDbEntity
  8
0
100
AcDbLine
 10
2.917932
 20
4.467548000000001
 30
0.0
 11
2.917932
 21
5.157461000000001
 31
0.0
  0
ARC
  5
2A1
330
2
100
AcDbEntity
  8
0
100
AcDbCircle
 10
2.719030999999998
 20
6.503920000000001
 30
0.0
 40
0.2
100
AcDbArc
 50
282.635625
 51
0.0
  0
ARC
  5
2A2
330
2
100
AcDbEntity
  8
0
100
AcDbCircle
 10
2.721122999999999
 20
7.123296000000003
 30
0.0
 40
0.2
100
AcDbArc
 50
0.0
 51
77.36437500000001
  0
ARC
  5
2A3
330
2
100
AcDbEntity
  8
0
100
AcDbCircle
 10
2.719030999999998
 20
6.503920000000001
 30
0.0
 40
0.2
100
AcDbArc
 50
282.635625
 51
0.0
  0
ARC
  5
2A4
330
2
100
AcDbEntity
  8
0
100
AcDbCircle
 10
2.719030999999998
 20
6.503920000000001
 30
0.0
 40
0.2
100
AcDbArc
 50
282.635625
 51
0.0
  0
ARC
  5
2A5
330
2
100
AcDbEntity
  8
0
100
AcDbCircle
 10
2.719030999999998
 20
6.503920000000001
 30
0.0
 40
0.2
100
AcDbArc
 50
282.635625
 51
0.0
  0
LINE
  5
2A6
330
2
100
AcDbEntity
  8
0
100
AcDbLine
 10
-2.904403000000002
 20
6.481256999999999
 30
0.0
 11
-2.904403000000002
 21
7.126415999999999
 31
0.0
  0
CIRCLE
  5
2A7
330
2
100
AcDbEntity
  8
0
100
AcDbCircle
 10
-2.605432
 20
6.657461000000001
 30
0.0
 40
0.0855
  0
CIRCLE
  5
2A8
330
2
100
AcDbEntity
  8
0
100
AcDbCircle
 10
-2.605432
 20
6.657461000000001
 30
0.0
 40
0.0855
  0
CIRCLE
  5
2A9
330
2
100
AcDbEntity
  8
0
100
AcDbCircle
 10
-2.605432
 20
6.657461000000001
 30
0.0
 40
0.0855
  0
LINE
  5
2AA
330
2
100
AcDbEntity
  8
0
100
AcDbLine
 10
-2.606531000000004
 20
6.113608000000003
 30
0.0
 11
-2.606531000000004
 21
5.513608000000001
 31
0.0
  0
LINE
  5
2AB
330
2
100
AcDbEntity
  8
0
100
AcDbLine
 10
-2.606531000000004
 20
6.113608000000003
 30
0.0
 11
-2.606531000000004
 21
5.513608000000001
 31
0.0
  0
ARC
  5
2AC
330
2
100
AcDbEntity
  8
0
100
AcDbCircle
 10
-2.806531000000003
 20
5.513608000000001
 30
0.0
 40
0.2
100
AcDbArc
 50
282.635625
 51
0.0
  0
ARC
  5
2AD
330
2
100
AcDbEntity
  8
0
100
AcDbCircle
 10
-2.806531000000003
 20
5.513608000000001
 30
0.0
 40
0.2
100
AcDbArc
 50
282.635625
 51
0.0
  0
ARC
  5
2AE
330
2
100
AcDbEntity
  8
0
100
AcDbCircle
 10
-2.738053189482185
 20
6.473450590605306
 30
0.0
 40
0.1665328780960421
100
AcDbArc
 50
177.3132135642116
 51
261.4607985465976
  0
ARC
  5
2B0
330
2
100
AcDbEntity
  8
0
100
AcDbCircle
 10
-2.806531000000003
 20
6.113608000000003
 30
0.0
 40
0.2
100
AcDbArc
 50
0.0
 51
77.36437500000001
  0
ARC
  5
2B1
330
2
100
AcDbEntity
  8
0
100
AcDbCircle
 10
-2.806531000000003
 20
6.113608000000003
 30
0.0
 40
0.2
100
AcDbArc
 50
0.0
 51
77.36437500000001
  0
INSERT
  5
2B2
330
2
100
AcDbEntity
  8
0
100
AcDbBlockReference
  2
03A1T179
 10
-2.111722
 20
5.655945000000003
 30
0.0
 41
-1.0
 50
270.0
  0
INSERT
  5
2B3
330
2
100
AcDbEntity
  8
0
100
AcDbBlockReference
  2
03A1T179
 10
-2.111722
 20
5.655945000000003
 30
0.0
 41
-1.0
 50
270.0
  0
LINE
  5
2B4
330
2
100
AcDbEntity
  8
0
  6
HIDDEN
100
AcDbLine
 10
-1.785432
 20
7.396998
 30
0.0
 11
-2.622144000000002
 21
7.396998
 31
0.0
  0
LINE
  5
2B5
330
2
100
AcDbEntity
  8
0
100
AcDbLine
 10
-1.785432
 20
7.466998
 30
0.0
 11
-2.590138000000003
 21
7.466998
 31
0.0
  0
ARC
  5
2B6
330
2
100
AcDbEntity
  8
0
100
AcDbCircle
 10
-2.784631000000005
 20
7.513608000000001
 30
0.0
 40
0.2
100
AcDbArc
 50
282.635625
 51
347.394551
  0
ARC
  5
2B7
330
2
100
AcDbEntity
  8
0
100
AcDbCircle
 10
-2.699224000000001
 20
7.123296000000003
 30
0.0
 40
0.2
100
AcDbArc
 50
102.635625
 51
180.0
  0
CIRCLE
  5
2B8
330
2
100
AcDbEntity
  8
0
100
AcDbCircle
 10
2.605432
 20
6.657461000000001
 30
0.0
 40
0.0855
  0
CIRCLE
  5
2B9
330
2
100
AcDbEntity
  8
0
100
AcDbCircle
 10
2.605432
 20
6.657461000000001
 30
0.0
 40
0.0855
  0
CIRCLE
  5
2BA
330
2
100
AcDbEntity
  8
0
100
AcDbCircle
 10
2.605432
 20
6.657461000000001
 30
0.0
 40
0.0855
  0
CIRCLE
  5
2BB
330
2
100
AcDbEntity
  8
0
100
AcDbCircle
 10
2.605432
 20
6.657461000000001
 30
0.0
 40
0.0855
  0
CIRCLE
  5
2BC
330
2
100
AcDbEntity
  8
0
100
AcDbCircle
 10
2.605432
 20
6.657461000000001
 30
0.0
 40
0.0855
  0
INSERT
  5
2BD
330
2
100
AcDbEntity
  8
0
100
AcDbBlockReference
  2
03A1T179
 10
2.111721999999997
 20
6.093445000000003
 30
0.0
 50
90.0
  0
INSERT
  5
2BE
330
2
100
AcDbEntity
  8
0
100
AcDbBlockReference
  2
03A1T179
 10
2.111721999999997
 20
6.093445000000003
 30
0.0
 50
90.0
  0
LINE
  5
2BF
330
2
100
AcDbEntity
  8
0
100
AcDbLine
 10
2.606530999999997
 20
6.113608000000003
 30
0.0
 11
2.606530999999997
 21
5.513608000000001
 31
0.0
  0
LINE
  5
2C0
330
2
100
AcDbEntity
  8
0
100
AcDbLine
 10
2.606530999999997
 20
6.113608000000003
 30
0.0
 11
2.606530999999997
 21
5.513608000000001
 31
0.0
  0
ARC
  5
2C1
330
2
100
AcDbEntity
  8
0
100
AcDbCircle
 10
2.806531
 20
5.513608000000001
 30
0.0
 40
0.2
100
AcDbArc
 50
180.0
 51
257.364375
  0
ARC
  5
2C2
330
2
100
AcDbEntity
  8
0
100
AcDbCircle
 10
2.806531
 20
5.513608000000001
 30
0.0
 40
0.2
100
AcDbArc
 50
180.0
 51
257.364375
  0
ARC
  5
2C3
330
2
100
AcDbEntity
  8
0
100
AcDbCircle
 10
2.806531
 20
6.113608000000003
 30
0.0
 40
0.2
100
AcDbArc
 50
102.635625
 51
180.0
  0
ARC
  5
2C4
330
2
100
AcDbEntity
  8
0
100
AcDbCircle
 10
2.806531
 20
6.113608000000003
 30
0.0
 40
0.2
100
AcDbArc
 50
102.635625
 51
180.0
  0
ARC
  5
2C5
330
2
100
AcDbEntity
  8
0
100
AcDbCircle
 10
2.806531
 20
6.113608000000003
 30
0.0
 40
0.2
100
AcDbArc
 50
102.635625
 51
180.0
  0
LINE
  5
2C6
330
2
100
AcDbEntity
  8
0
100
AcDbLine
 10
1.785432
 20
7.466998
 30
0.0
 11
2.612037999999998
 21
7.466998
 31
0.0
  0
LINE
  5
2C7
330
2
100
AcDbEntity
  8
0
  6
HIDDEN
100
AcDbLine
 10
1.785432
 20
7.396998
 30
0.0
 11
2.644042999999996
 21
7.396998
 31
0.0
  0
ARC
  5
2C8
330
2
100
AcDbEntity
  8
0
100
AcDbCircle
 10
2.806531
 20
7.513608000000001
 30
0.0
 40
0.2
100
AcDbArc
 50
192.6054489999999
 51
257.364375
  0
LINE
  5
2C9
330
2
100
AcDbEntity
  8
0
100
AcDbLine
 10
2.919030999999998
 20
6.503920000000001
 30
0.0
 11
2.921122999999998
 21
7.123296000000003
 31
0.0
  0
ARC
  5
2CB
330
2
100
AcDbEntity
  8
0
100
AcDbCircle
 10
9.8077887582002
 20
5.38571
 30
0.0
 40
0.2
100
AcDbArc
 50
180.0
 51
257.364375
  0
LINE
  5
2CC
330
2
100
AcDbEntity
  8
0
100
AcDbLine
 10
10.9104277582002
 20
0.9422809999999995
 30
0.0
 11
10.9104277582002
 21
7.326998000000003
 31
0.0
  0
LINE
  5
2CD
330
2
100
AcDbEntity
  8
0
100
AcDbLine
 10
10.8404277582002
 20
0.8693680000000033
 30
0.0
 11
10.8404277582002
 21
7.466998
 31
0.0
  0
LINE
  5
2CE
330
2
100
AcDbEntity
  8
0
100
AcDbLine
 10
10.6529277582002
 20
-0.0519279999999984
 30
0.0
 11
8.652927758200203
 21
-0.0519279999999984
 31
0.0
  0
LINE
  5
2D3
330
2
100
AcDbEntity
  8
0
  6
HIDDEN
100
AcDbLine
 10
10.6529277582002
 20
0.0180720000000001
 30
0.0
 11
8.652927758200203
 21
0.0180720000000001
 31
0.0
  0
LINE
  5
2D4
330
2
100
AcDbEntity
  8
0
100
AcDbLine
 10
9.9087797582002
 20
2.356868000000002
 30
0.0
 11
9.9087797582002
 21
3.046780999999999
 31
0.0
  0
LINE
  5
2D5
330
2
100
AcDbEntity
  8
0
100
AcDbLine
 10
8.687852758200204
 20
0.5874839999999999
 30
0.0
 11
9.873854758200203
 21
2.247886000000003
 31
0.0
  0
LINE
  5
2D6
330
2
100
AcDbEntity
  8
0
100
AcDbLine
 10
8.652927758200203
 20
-0.0519279999999984
 30
0.0
 11
8.652927758200203
 21
0.4785020000000024
 31
0.0
  0
ARC
  5
2D8
330
2
100
AcDbEntity
  8
0
100
AcDbCircle
 10
8.840427758200203
 20
0.4785020000000024
 30
0.0
 40
0.1875
100
AcDbArc
 50
144.462322
 51
180.0
  0
ARC
  5
2DA
330
2
100
AcDbEntity
  8
0
100
AcDbCircle
 10
9.7212797582002
 20
2.356868000000002
 30
0.0
 40
0.1875
100
AcDbArc
 50
324.462322
 51
0.0
  0
LINE
  5
2DB
330
2
100
AcDbEntity
  8
0
100
AcDbLine
 10
9.607070758200202
 20
3.38571
 30
0.0
 11
9.607070758200202
 21
3.985710000000001
 31
0.0
  0
ARC
  5
2DC
330
2
100
AcDbEntity
  8
0
100
AcDbCircle
 10
9.730989398335098
 20
3.012538097640222
 30
0.0
 40
0.1810579697858784
100
AcDbArc
 50
10.90182574582624
 51
79.48256700095121
  0
ARC
  5
2DD
330
2
100
AcDbEntity
  8
0
100
AcDbCircle
 10
9.8077887582002
 20
3.38571
 30
0.0
 40
0.2
100
AcDbArc
 50
180.0
 51
257.364375
  0
LINE
  5
2DE
330
2
100
AcDbEntity
  8
0
100
AcDbLine
 10
9.9087797582002
 20
4.356868000000002
 30
0.0
 11
9.9087797582002
 21
5.046780999999999
 31
0.0
  0
ARC
  5
2DF
330
2
100
AcDbEntity
  8
0
100
AcDbCircle
 10
9.807070758200201
 20
3.985710000000001
 30
0.0
 40
0.2
100
AcDbArc
 50
102.635625
 51
180.0
  0
ARC
  5
2E1
330
2
100
AcDbEntity
  8
0
100
AcDbCircle
 10
9.718656621928066
 20
4.367335971976663
 30
0.0
 40
0.1904110957461705
100
AcDbArc
 50
281.6773182470527
 51
356.8485389983949
  0
ARC
  5
2E2
330
2
100
AcDbEntity
  8
0
100
AcDbCircle
 10
9.730989398335094
 20
5.012538097640221
 30
0.0
 40
0.181057969785882
100
AcDbArc
 50
10.90182574582616
 51
79.48256700095013
  0
LINE
  5
2E3
330
2
100
AcDbEntity
  8
0
100
AcDbLine
 10
10.6878527582002
 20
0.595676000000001
 30
0.0
 11
10.8055027582002
 21
0.7603860000000022
 31
0.0
  0
LINE
  5
2E4
330
2
100
AcDbEntity
  8
0
100
AcDbLine
 10
10.6529277582002
 20
-0.0519279999999984
 30
0.0
 11
10.6529277582002
 21
0.4836980000000022
 31
0.0
  0
LINE
  5
2E5
330
2
100
AcDbEntity
  8
0
100
AcDbLine
 10
10.6529277582002
 20
0.0180720000000001
 30
0.0
 11
10.6529277582002
 21
0.486694
 31
0.0
  0
ARC
  5
2E6
330
2
100
AcDbEntity
  8
0
100
AcDbCircle
 10
10.8404277582002
 20
0.486694
 30
0.0
 40
0.1875
100
AcDbArc
 50
144.462322
 51
180.0
  0
ARC
  5
2E7
330
2
100
AcDbEntity
  8
0
100
AcDbCircle
 10
10.7229277582002
 20
0.9422809999999995
 30
0.0
 40
0.1875
100
AcDbArc
 50
317.50125
 51
0.0
  0
LINE
  5
2E8
330
2
100
AcDbEntity
  8
0
100
AcDbLine
 10
10.8611707582002
 20
0.8156110000000023
 30
0.0
 11
10.8027297582002
 21
0.751831000000001
 31
0.0
  0
ARC
  5
2E9
330
2
100
AcDbEntity
  8
0
100
AcDbCircle
 10
10.6529277582002
 20
0.8693680000000033
 30
0.0
 40
0.1875
100
AcDbArc
 50
324.462322
 51
0.0
  0
ARC
  5
2EA
330
2
100
AcDbEntity
  8
0
100
AcDbCircle
 10
9.978779758200201
 20
7.396998
 30
0.0
 40
0.07
100
AcDbArc
 50
90.0
 51
180.0
  0
LINE
  5
2EF
330
2
100
AcDbEntity
  8
0
100
AcDbLine
 10
9.9087797582002
 20
6.356868000000002
 30
0.0
 11
9.9087797582002
 21
7.396998
 31
0.0
  0
LINE
  5
2F0
330
2
100
AcDbEntity
  8
0
100
AcDbLine
 10
9.9087797582002
 20
6.356868000000002
 30
0.0
 11
9.9087797582002
 21
7.001628485540959
 31
0.0
  0
LINE
  5
2F2
330
2
100
AcDbEntity
  8
0
100
AcDbLine
 10
9.607070758200202
 20
5.38571
 30
0.0
 11
9.607070758200202
 21
5.985710000000001
 31
0.0
  0
ARC
  5
2F4
330
2
100
AcDbEntity
  8
0
100
AcDbCircle
 10
9.807070758200201
 20
5.985710000000001
 30
0.0
 40
0.2
100
AcDbArc
 50
102.635625
 51
180.0
  0
ARC
  5
2F5
330
2
100
AcDbEntity
  8
0
100
AcDbCircle
 10
9.807070758200201
 20
5.985710000000001
 30
0.0
 40
0.2
100
AcDbArc
 50
102.635625
 51
180.0
  0
ARC
  5
2F6
330
2
100
AcDbEntity
  8
0
100
AcDbCircle
 10
9.713445758200201
 20
6.376021999999999
 30
0.0
 40
0.2
100
AcDbArc
 50
282.635625
 51
355.93354
  0
ARC
  5
2F7
330
2
100
AcDbEntity
  8
0
100
AcDbCircle
 10
9.713445758200201
 20
6.376021999999999
 30
0.0
 40
0.2
100
AcDbArc
 50
282.635625
 51
355.93354
  0
LINE
  5
2F8
330
2
100
AcDbEntity
  8
0
100
AcDbLine
 10
10.9804277582002
 20
7.396998
 30
0.0
 11
12.6046047582002
 21
7.396998
 31
0.0
  0
LINE
  5
2F9
330
2
100
AcDbEntity
  8
0
100
AcDbLine
 10
10.9654277582002
 20
7.466998
 30
0.0
 11
12.6046047582002
 21
7.466998
 31
0.0
  0
LINE
  5
2FA
330
2
100
AcDbEntity
  8
0
100
AcDbLine
 10
9.978779758200201
 20
7.466998
 30
0.0
 11
10.8404277582002
 21
7.466998
 31
0.0
  0
ARC
  5
2FB
330
2
100
AcDbEntity
  8
0
100
AcDbCircle
 10
10.9654277582002
 20
7.341998
 30
0.0
 40
0.125
100
AcDbArc
 50
90.0
 51
180.0
  0
ARC
  5
2FC
330
2
100
AcDbEntity
  8
0
100
AcDbCircle
 10
10.9804277582002
 20
7.326998000000003
 30
0.0
 40
0.07
100
AcDbArc
 50
90.0
 51
180.0
  0
LINE
  5
2FD
330
2
100
AcDbEntity
  8
0
100
AcDbLine
 10
12.6046047582002
 20
7.466998
 30
0.0
 11
12.6046047582002
 21
7.408006
 31
0.0
  0
INSERT
  5
300
330
2
100
AcDbEntity
  8
0
100
AcDbBlockReference
  2
03A1T179
 10
9.819879758200184
 20
6.093195000000012
 30
0.0
 41
-1.0
 50
270.0
  0
INSERT
  5
301
330
2
100
AcDbEntity
  8
0
100
AcDbBlockReference
  2
03A1T179
 10
9.819879758200184
 20
6.093195000000012
 30
0.0
 41
-1.0
 50
270.0
  0
INSERT
  5
309
330
2
100
AcDbEntity
  8
0
100
AcDbBlockReference
  2
03A1T179
 10
9.819879758200223
 20
4.093445000000006
 30
0.0
 41
-1.0
 50
270.0
  0
INSERT
  5
30A
330
2
100
AcDbEntity
  8
0
100
AcDbBlockReference
  2
03A1T179
 10
9.819879758200223
 20
4.093445000000006
 30
0.0
 41
-1.0
 50
270.0
  0
INSERT
  5
30B
330
2
100
AcDbEntity
  8
0
100
AcDbBlockReference
  2
03A1T179
 10
9.819879758200205
 20
1.548393000000008
 30
0.0
 41
-1.0
 50
270.0
  0
INSERT
  5
30C
330
2
100
AcDbEntity
  8
0
100
AcDbBlockReference
  2
03A1T179
 10
9.819879758200205
 20
1.548393000000008
 30
0.0
 41
-1.0
 50
270.0
  0
LINE
  5
30D
330
2
100
AcDbEntity
  8
0
100
AcDbLine
 10
-10.9804277582002
 20
7.396998
 30
0.0
 11
-12.6046047582002
 21
7.396998
 31
0.0
  0
LINE
  5
30E
330
2
100
AcDbEntity
  8
0
100
AcDbLine
 10
-10.9654277582002
 20
7.466998
 30
0.0
 11
-12.6046047582002
 21
7.466998
 31
0.0
  0
LINE
  5
30F
330
2
100
AcDbEntity
  8
0
100
AcDbLine
 10
-10.9104277582002
 20
0.9422809999999995
 30
0.0
 11
-10.9104277582002
 21
7.326998000000003
 31
0.0
  0
LINE
  5
310
330
2
100
AcDbEntity
  8
0
100
AcDbLine
 10
-10.8404277582002
 20
0.8693680000000033
 30
0.0
 11
-10.8404277582002
 21
7.466998
 31
0.0
  0
LINE
  5
311
330
2
100
AcDbEntity
  8
0
100
AcDbLine
 10
-8.687852758200204
 20
0.5874839999999999
 30
0.0
 11
-9.873854758200203
 21
2.247886000000003
 31
0.0
  0
LINE
  5
312
330
2
100
AcDbEntity
  8
0
100
AcDbLine
 10
-10.6529277582002
 20
-0.0519279999999984
 30
0.0
 11
-8.652927758200203
 21
-0.0519279999999984
 31
0.0
  0
LINE
  5
313
330
2
100
AcDbEntity
  8
0
  6
HIDDEN
100
AcDbLine
 10
-10.6529277582002
 20
0.0180720000000001
 30
0.0
 11
-8.652927758200203
 21
0.0180720000000001
 31
0.0
  0
LINE
  5
314
330
2
100
AcDbEntity
  8
0
100
AcDbLine
 10
-8.652927758200203
 20
-0.0519279999999984
 30
0.0
 11
-8.652927758200203
 21
0.4785020000000024
 31
0.0
  0
ARC
  5
315
330
2
100
AcDbEntity
  8
0
100
AcDbCircle
 10
-8.840427758200203
 20
0.4785020000000024
 30
0.0
 40
0.1875
100
AcDbArc
 50
0.000000000000007
 51
35.53767800000001
  0
ARC
  5
316
330
2
100
AcDbEntity
  8
0
100
AcDbCircle
 10
-10.8404277582002
 20
0.486694
 30
0.0
 40
0.1875
100
AcDbArc
 50
0.000000000000007
 51
35.53767800000001
  0
LINE
  5
317
330
2
100
AcDbEntity
  8
0
100
AcDbLine
 10
-10.6529277582002
 20
-0.0519279999999984
 30
0.0
 11
-10.6529277582002
 21
0.4836980000000022
 31
0.0
  0
LINE
  5
318
330
2
100
AcDbEntity
  8
0
100
AcDbLine
 10
-10.6529277582002
 20
0.0180720000000001
 30
0.0
 11
-10.6529277582002
 21
0.486694
 31
0.0
  0
INSERT
  5
319
330
2
100
AcDbEntity
  8
0
100
AcDbBlockReference
  2
03A1T179
 10
-9.819879758200205
 20
1.298143000000014
 30
0.0
 50
90.0
  0
INSERT
  5
31A
330
2
100
AcDbEntity
  8
0
100
AcDbBlockReference
  2
03A1T179
 10
-9.819879758200205
 20
1.298143000000014
 30
0.0
 50
90.0
  0
ARC
  5
31B
330
2
100
AcDbEntity
  8
0
100
AcDbCircle
 10
-10.6529277582002
 20
0.8693680000000033
 30
0.0
 40
0.1875
100
AcDbArc
 50
180.0
 51
215.537678
  0
ARC
  5
31C
330
2
100
AcDbEntity
  8
0
100
AcDbCircle
 10
-10.7229277582002
 20
0.9422809999999995
 30
0.0
 40
0.1875
100
AcDbArc
 50
180.0
 51
222.4987500000001
  0
LINE
  5
31D
330
2
100
AcDbEntity
  8
0
100
AcDbLine
 10
-10.6878527582002
 20
0.595676000000001
 30
0.0
 11
-10.8055027582002
 21
0.7603860000000022
 31
0.0
  0
LINE
  5
31E
330
2
100
AcDbEntity
  8
0
100
AcDbLine
 10
-10.8611707582002
 20
0.8156110000000023
 30
0.0
 11
-10.8027297582002
 21
0.751831000000001
 31
0.0
  0
LINE
  5
31F
330
2
100
AcDbEntity
  8
0
100
AcDbLine
 10
-9.9087797582002
 20
4.356868000000002
 30
0.0
 11
-9.9087797582002
 21
5.046780999999999
 31
0.0
  0
LINE
  5
320
330
2
100
AcDbEntity
  8
0
100
AcDbLine
 10
-9.607070758200202
 20
3.38571
 30
0.0
 11
-9.607070758200202
 21
3.985710000000001
 31
0.0
  0
LINE
  5
321
330
2
100
AcDbEntity
  8
0
100
AcDbLine
 10
-9.9087797582002
 20
2.356868000000002
 30
0.0
 11
-9.9087797582002
 21
3.046780999999999
 31
0.0
  0
ARC
  5
322
330
2
100
AcDbEntity
  8
0
100
AcDbCircle
 10
-9.7212797582002
 20
2.356868000000002
 30
0.0
 40
0.1875
100
AcDbArc
 50
180.0
 51
215.537678
  0
ARC
  5
323
330
2
100
AcDbEntity
  8
0
100
AcDbCircle
 10
-9.730989398335098
 20
3.012538097640222
 30
0.0
 40
0.1810579697858784
100
AcDbArc
 50
100.5174329990488
 51
169.0981742541738
  0
ARC
  5
324
330
2
100
AcDbEntity
  8
0
100
AcDbCircle
 10
-9.8077887582002
 20
3.38571
 30
0.0
 40
0.2
100
AcDbArc
 50
282.635625
 51
0.000000000000007
  0
ARC
  5
325
330
2
100
AcDbEntity
  8
0
100
AcDbCircle
 10
-9.718656621928066
 20
4.367335971976663
 30
0.0
 40
0.1904110957461705
100
AcDbArc
 50
183.1514610016051
 51
258.3226817529474
  0
INSERT
  5
326
330
2
100
AcDbEntity
  8
0
100
AcDbBlockReference
  2
03A1T179
 10
-9.819879758200223
 20
3.656195
 30
0.0
 50
90.0
  0
INSERT
  5
327
330
2
100
AcDbEntity
  8
0
100
AcDbBlockReference
  2
03A1T179
 10
-9.819879758200223
 20
3.656195
 30
0.0
 50
90.0
  0
ARC
  5
328
330
2
100
AcDbEntity
  8
0
100
AcDbCircle
 10
-9.807070758200201
 20
3.985710000000001
 30
0.0
 40
0.2
100
AcDbArc
 50
0.000000000000007
 51
77.36437500000002
  0
LINE
  5
329
330
2
100
AcDbEntity
  8
0
100
AcDbLine
 10
-9.978779758200201
 20
7.466998
 30
0.0
 11
-10.8404277582002
 21
7.466998
 31
0.0
  0
ARC
  5
32A
330
2
100
AcDbEntity
  8
0
100
AcDbCircle
 10
-9.713445758200201
 20
6.376021999999999
 30
0.0
 40
0.2
100
AcDbArc
 50
184.06646
 51
257.364375
  0
ARC
  5
32B
330
2
100
AcDbEntity
  8
0
100
AcDbCircle
 10
-9.713445758200201
 20
6.376021999999999
 30
0.0
 40
0.2
100
AcDbArc
 50
184.06646
 51
257.364375
  0
LINE
  5
32C
330
2
100
AcDbEntity
  8
0
100
AcDbLine
 10
-9.607070758200202
 20
5.38571
 30
0.0
 11
-9.607070758200202
 21
5.985710000000001
 31
0.0
  0
ARC
  5
32D
330
2
100
AcDbEntity
  8
0
100
AcDbCircle
 10
-9.730989398335094
 20
5.012538097640221
 30
0.0
 40
0.181057969785882
100
AcDbArc
 50
100.5174329990499
 51
169.0981742541738
  0
ARC
  5
32E
330
2
100
AcDbEntity
  8
0
100
AcDbCircle
 10
-9.8077887582002
 20
5.38571
 30
0.0
 40
0.2
100
AcDbArc
 50
282.635625
 51
0.000000000000007
  0
INSERT
  5
32F
330
2
100
AcDbEntity
  8
0
100
AcDbBlockReference
  2
03A1T179
 10
-9.819879758200184
 20
5.656195
 30
0.0
 50
90.0
  0
INSERT
  5
330
330
2
100
AcDbEntity
  8
0
100
AcDbBlockReference
  2
03A1T179
 10
-9.819879758200184
 20
5.656195
 30
0.0
 50
90.0
  0
ARC
  5
331
330
2
100
AcDbEntity
  8
0
100
AcDbCircle
 10
-9.807070758200201
 20
5.985710000000001
 30
0.0
 40
0.2
100
AcDbArc
 50
0.000000000000007
 51
77.36437500000002
  0
ARC
  5
332
330
2
100
AcDbEntity
  8
0
100
AcDbCircle
 10
-9.807070758200201
 20
5.985710000000001
 30
0.0
 40
0.2
100
AcDbArc
 50
0.000000000000007
 51
77.36437500000002
  0
LINE
  5
333
330
2
100
AcDbEntity
  8
0
100
AcDbLine
 10
-9.9087797582002
 20
6.356868000000002
 30
0.0
 11
-9.9087797582002
 21
7.396998
 31
0.0
  0
LINE
  5
334
330
2
100
AcDbEntity
  8
0
100
AcDbLine
 10
-9.9087797582002
 20
6.356868000000002
 30
0.0
 11
-9.9087797582002
 21
7.001628485540959
 31
0.0
  0
ARC
  5
335
330
2
100
AcDbEntity
  8
0
100
AcDbCircle
 10
-9.978779758200201
 20
7.396998
 30
0.0
 40
0.07
100
AcDbArc
 50
0.000000000000007
 51
90.0
  0
ARC
  5
336
330
2
100
AcDbEntity
  8
0
100
AcDbCircle
 10
-10.9804277582002
 20
7.326998000000003
 30
0.0
 40
0.07
100
AcDbArc
 50
0.000000000000007
 51
90.0
  0
ARC
  5
337
330
2
100
AcDbEntity
  8
0
100
AcDbCircle
 10
-10.9654277582002
 20
7.341998
 30
0.0
 40
0.125
100
AcDbArc
 50
0.000000000000007
 51
90.0
  0
LINE
  5
338
330
2
100
AcDbEntity
  8
0
100
AcDbLine
 10
-12.6046047582002
 20
7.466998
 30
0.0
 11
-12.6046047582002
 21
7.408006
 31
0.0
  0
ENDSEC
  0
SECTION
  2
OBJECTS
  0
DICTIONARY
  5
9
330
0
100
AcDbDictionary
281
     1
  3
ACAD_COLOR
350
342
  3
ACAD_GROUP
350
23
  3
ACAD_LAYOUT
350
D
  3
ACAD_MATERIAL
350
341
  3
ACAD_MLINESTYLE
350
24
  3
ACAD_PLOTSETTINGS
350
25
  3
ACAD_PLOTSTYLENAME
350
8
  3
ACAD_TABLESTYLE
350
343
  3
ACDBHEADERROUNDTRIPXREC
350
359
  3
AcDbVariableDictionary
350
10F
  0
DICTIONARY
  5
342
102
{ACAD_REACTORS
330
9
102
}
330
9
100
AcDbDictionary
281
     1
  0
DICTIONARY
  5
23
102
{ACAD_REACTORS
330
9
102
}
330
9
100
AcDbDictionary
281
     1
  0
DICTIONARY
  5
D
102
{ACAD_REACTORS
330
9
102
}
330
9
100
AcDbDictionary
281
     1
  3
Layout1
350
13
  3
Model
350
C
  0
DICTIONARY
  5
341
102
{ACAD_REACTORS
330
9
102
}
330
9
100
AcDbDictionary
281
     1
  0
DICTIONARY
  5
24
102
{ACAD_REACTORS
330
9
102
}
330
9
100
AcDbDictionary
281
     1
  3
STANDARD
350
27
  0
DICTIONARY
  5
25
102
{ACAD_REACTORS
330
9
102
}
330
9
100
AcDbDictionary
281
     1
  0
ACDBDICTIONARYWDFLT
  5
8
102
{ACAD_REACTORS
330
9
102
}
330
9
100
AcDbDictionary
281
     1
  3
Normal
350
7
100
AcDbDictionaryWithDefault
340
7
  0
DICTIONARY
  5
343
102
{ACAD_REACTORS
330
9
102
}
330
9
100
AcDbDictionary
281
     1
  3
Standard
350
344
  0
DICTIONARY
  5
359
102
{ACAD_REACTORS
330
9
102
}
330
9
100
AcDbDictionary
281
     1
  3
COLORDICT
350
35A
  3
MATERIALDICT
350
35B
  0
DICTIONARY
  5
10F
102
{ACAD_REACTORS
330
9
102
}
330
9
100
AcDbDictionary
281
     1
  3
CTABLESTYLE
350
356
  3
HIDETEXT
350
358
  0
LAYOUT
  5
13
102
{ACAD_REACTORS
330
D
102
}
102
{ACAD_XDICTIONARY
360
35C
102
}
330
D
100
AcDbPlotSettings
  1

  2
HP LaserJet 2100 Series PS
  4

  6

 40
0.0
 41
0.0
 42
0.0
 43
0.0
 44
0.0
 45
0.0
 46
0.0
 47
0.0
 48
0.0
 49
0.0
140
0.0
141
0.0
142
1.0
143
1.0
 70
   688
 72
     0
 73
     0
 74
     5
  7

 75
    16
147
1.0
148
0.0
149
0.0
100
AcDbLayout
  1
Layout1
 70
     0
 71
     1
 10
0.0
 20
0.0
 11
12.0
 21
9.0
 12
0.0
 22
0.0
 32
0.0
 14
1.000000000000000E+20
 24
1.000000000000000E+20
 34
1.000000000000000E+20
 15
-1.000000000000000E+20
 25
-1.000000000000000E+20
 35
-1.000000000000000E+20
146
0.0
 13
0.0
 23
0.0
 33
0.0
 16
1.0
 26
0.0
 36
0.0
 17
0.0
 27
1.0
 37
0.0
 76
     0
330
E
  0
LAYOUT
  5
C
102
{ACAD_REACTORS
330
D
102
}
102
{ACAD_XDICTIONARY
360
35E
102
}
330
D
100
AcDbPlotSettings
  1

  2
HP LaserJet 2100 Series PS
  4
Letter
  6

 40
5.365749835968018
 41
5.408084392547607
 42
5.4080810546875
 43
5.365753173828125
 44
215.8999938964844
 45
279.3999938964844
 46
0.0
 47
0.0
 48
0.0
 49
0.0
140
0.0
141
0.0
142
1.0
143
1.0
 70
 11952
 72
     0
 73
     1
 74
     0
  7

 75
     0
147
1.0
148
-129.4832791077244
149
4.885150943139587
100
AcDbLayout
  1
Model
 70
     1
 71
     0
 10
0.0
 20
0.0
 11
12.0
 21
9.0
 12
0.0
 22
0.0
 32
0.0
 14
0.0
 24
0.0
 34
0.0
 15
0.0
 25
0.0
 35
0.0
146
0.0
 13
0.0
 23
0.0
 33
0.0
 16
1.0
 26
0.0
 36
0.0
 17
0.0
 27
1.0
 37
0.0
 76
     0
330
2
  0
MLINESTYLE
  5
27
102
{ACAD_REACTORS
330
24
102
}
330
24
100
AcDbMlineStyle
  2
STANDARD
 70
     0
  3

 62
   256
 51
90.0
 52
90.0
 71
     2
 49
0.5
 62
   256
  6
BYLAYER
 49
-0.5
 62
   256
  6
BYLAYER
  0
ACDBPLACEHOLDER
  5
7
102
{ACAD_REACTORS
330
8
102
}
330
8
  0
ACAD_PROXY_OBJECT
  5
344
102
{ACAD_REACTORS
330
343
102
}
330
343
100
AcDbProxyObject
 90
      499
 91
      520
 95
   983063
 70
     0
 93
     1841
310
4214DD185B99185C9928B81E85EB51B8AE3F2E07A17AD46E2B8FC02B5E8DC0F42B1CFD028000000C1008070000C3001FDFF8000000C1003FBFF000000182007F7FE00000030400FEFFC00000060801FDFF8000000C1003FBFF00000018200000000000000681FA0B0000001820100E000186003FBFF000000182007F7FE000
310
00030400FEFFC00000060801FDFF8000000C1003FBFF000000182007F7FE000000304000AD7A3703D0AC73F4160000003040201C00030C007F7FE00000030400FEFFC00000060801FDFF8000000C1003FBFF000000182007F7FE00000030400FEFFC000000608000
340
16
340
16
340
16
 94
        0
  0
XRECORD
  5
35A
102
{ACAD_REACTORS
330
359
102
}
330
359
100
AcDbXrecord
340
342
  0
XRECORD
  5
35B
102
{ACAD_REACTORS
330
359
102
}
330
359
100
AcDbXrecord
340
341
  0
DICTIONARYVAR
  5
356
102
{ACAD_REACTORS
330
10F
102
}
330
10F
100
DictionaryVariables
280
     0
  1
STANDARD
  0
DICTIONARYVAR
  5
358
102
{ACAD_REACTORS
330
10F
102
}
330
10F
100
DictionaryVariables
280
     0
  1
0
  0
DICTIONARY
  5
35C
330
13
100
AcDbDictionary
280
     1
281
     1
  3
ACAD_XREC_ROUNDTRIP
360
35D
  0
DICTIONARY
  5
35E
330
C
100
AcDbDictionary
280
     1
281
     1
  3
ACAD_XREC_ROUNDTRIP
360
35F
  0
XRECORD
  5
35D
102
{ACAD_REACTORS
330
35C
102
}
330
35C
100
AcDbXrecord
102
SHADEPLOT
 70
     0
102
SHADEPLOTRESLEVEL
 70
     2
102
SHADEPLOTCUSTOMDPI
 70
   300
  0
XRECORD
  5
35F
102
{ACAD_REACTORS
330
35E
102
}
330
35E
100
AcDbXrecord
102
SHADEPLOT
 70
     0
102
SHADEPLOTRESLEVEL
 70
     2
102
SHADEPLOTCUSTOMDPI
 70
   300
  0
ENDSEC
  0
EOF
