  0
SECTION
  2
HEADER
  9
$ACADVER
  1
AC1015
  9
$ACADMAINTVER
 70
     6
  9
$DWGCODEPAGE
  3
ANSI_1252
  9
$INSBASE
 10
6.406886230225164
 20
28.02514039668889
 30
0.0
  9
$EXTMIN
 10
-1.880113601034668
 20
0.0
 30
-0.0000000000112498
  9
$EXTMAX
 10
30.55168372210056
 20
30.83445854984703
 30
0.0000000000002956
  9
$LIMMIN
 10
0.0
 20
0.0
  9
$LIMMAX
 10
26.6664
 20
34.99965
  9
$ORTHOMODE
 70
     1
  9
$REGENMODE
 70
     1
  9
$FILLMODE
 70
     1
  9
$QTEXTMODE
 70
     0
  9
$MIRRTEXT
 70
     0
  9
$LTSCALE
 40
0.75
  9
$ATTMODE
 70
     1
  9
$TEXTSIZE
 40
0.299997
  9
$TRACEWID
 40
0.05
  9
$TEXTSTYLE
  7
STANDARD
  9
$CLAYER
  8
0
  9
$CELTYPE
  6
BYLAYER
  9
$CECOLOR
 62
   256
  9
$CELTSCALE
 40
1.0
  9
$DISPSILH
 70
     0
  9
$DIMSCALE
 40
3.3333
  9
$DIMASZ
 40
0.125
  9
$DIMEXO
 40
0.062
  9
$DIMDLI
 40
0.375
  9
$DIMRND
 40
0.0
  9
$DIMDLE
 40
0.0
  9
$DIMEXE
 40
0.08
  9
$DIMTP
 40
0.0
  9
$DIMTM
 40
0.0
  9
$DIMTXT
 40
0.09
  9
$DIMCEN
 40
-0.03125
  9
$DIMTSZ
 40
0.0
  9
$DIMTOL
 70
     0
  9
$DIMLIM
 70
     0
  9
$DIMTIH
 70
     1
  9
$DIMTOH
 70
     1
  9
$DIMSE1
 70
     0
  9
$DIMSE2
 70
     0
  9
$DIMTAD
 70
     0
  9
$DIMZIN
 70
     0
  9
$DIMBLK
  1

  9
$DIMASO
 70
     0
  9
$DIMSHO
 70
     0
  9
$DIMPOST
  1

  9
$DIMAPOST
  1

  9
$DIMALT
 70
     0
  9
$DIMALTD
 70
     2
  9
$DIMALTF
 40
25.4
  9
$DIMLFAC
 40
1.0
  9
$DIMTOFL
 70
     0
  9
$DIMTVP
 40
0.0
  9
$DIMTIX
 70
     0
  9
$DIMSOXD
 70
     0
  9
$DIMSAH
 70
     0
  9
$DIMBLK1
  1

  9
$DIMBLK2
  1

  9
$DIMSTYLE
  2
STANDARD
  9
$DIMCLRD
 70
     0
  9
$DIMCLRE
 70
     0
  9
$DIMCLRT
 70
     0
  9
$DIMTFAC
 40
1.0
  9
$DIMGAP
 40
0.09
  9
$DIMJUST
 70
     0
  9
$DIMSD1
 70
     0
  9
$DIMSD2
 70
     0
  9
$DIMTOLJ
 70
     1
  9
$DIMTZIN
 70
     0
  9
$DIMALTZ
 70
     0
  9
$DIMALTTZ
 70
     0
  9
$DIMUPT
 70
     0
  9
$DIMDEC
 70
     6
  9
$DIMTDEC
 70
     6
  9
$DIMALTU
 70
     5
  9
$DIMALTTD
 70
     2
  9
$DIMTXSTY
  7
STANDARD
  9
$DIMAUNIT
 70
     0
  9
$DIMADEC
 70
     0
  9
$DIMALTRND
 40
0.0
  9
$DIMAZIN
 70
     0
  9
$DIMDSEP
 70
    46
  9
$DIMATFIT
 70
     3
  9
$DIMFRAC
 70
     0
  9
$DIMLDRBLK
  1

  9
$DIMLUNIT
 70
     5
  9
$DIMLWD
 70
    -2
  9
$DIMLWE
 70
    -2
  9
$DIMTMOVE
 70
     2
  9
$LUNITS
 70
     5
  9
$LUPREC
 70
     6
  9
$SKETCHINC
 40
0.1
  9
$FILLETRAD
 40
0.125
  9
$AUNITS
 70
     0
  9
$AUPREC
 70
     0
  9
$MENU
  1
acad
  9
$ELEVATION
 40
0.0
  9
$PELEVATION
 40
0.0
  9
$THICKNESS
 40
0.0
  9
$LIMCHECK
 70
     0
  9
$CHAMFERA
 40
0.0
  9
$CHAMFERB
 40
0.0
  9
$CHAMFERC
 40
0.0
  9
$CHAMFERD
 40
0.0
  9
$SKPOLY
 70
     0
  9
$TDCREATE
 40
2449875.830341435
  9
$TDUCREATE
 40
2449876.163674769
  9
$TDUPDATE
 40
2454166.821005243
  9
$TDUUPDATE
 40
2454167.154338576
  9
$TDINDWG
 40
0.0486038889
  9
$TDUSRTIMER
 40
0.0486038889
  9
$USRTIMER
 70
     1
  9
$ANGBASE
 50
0.0
  9
$ANGDIR
 70
     0
  9
$PDMODE
 70
     0
  9
$PDSIZE
 40
0.0
  9
$PLINEWID
 40
0.0
  9
$SPLFRAME
 70
     0
  9
$SPLINETYPE
 70
     6
  9
$SPLINESEGS
 70
     8
  9
$HANDSEED
  5
74C
  9
$SURFTAB1
 70
     6
  9
$SURFTAB2
 70
     6
  9
$SURFTYPE
 70
     6
  9
$SURFU
 70
     6
  9
$SURFV
 70
     6
  9
$UCSBASE
  2

  9
$UCSNAME
  2

  9
$UCSORG
 10
0.0
 20
0.0
 30
0.0
  9
$UCSXDIR
 10
1.0
 20
0.0
 30
0.0
  9
$UCSYDIR
 10
0.0
 20
1.0
 30
0.0
  9
$UCSORTHOREF
  2

  9
$UCSORTHOVIEW
 70
     0
  9
$UCSORGTOP
 10
0.0
 20
0.0
 30
0.0
  9
$UCSORGBOTTOM
 10
0.0
 20
0.0
 30
0.0
  9
$UCSORGLEFT
 10
0.0
 20
0.0
 30
0.0
  9
$UCSORGRIGHT
 10
0.0
 20
0.0
 30
0.0
  9
$UCSORGFRONT
 10
0.0
 20
0.0
 30
0.0
  9
$UCSORGBACK
 10
0.0
 20
0.0
 30
0.0
  9
$PUCSBASE
  2

  9
$PUCSNAME
  2

  9
$PUCSORG
 10
0.0
 20
0.0
 30
0.0
  9
$PUCSXDIR
 10
1.0
 20
0.0
 30
0.0
  9
$PUCSYDIR
 10
0.0
 20
1.0
 30
0.0
  9
$PUCSORTHOREF
  2

  9
$PUCSORTHOVIEW
 70
     0
  9
$PUCSORGTOP
 10
0.0
 20
0.0
 30
0.0
  9
$PUCSORGBOTTOM
 10
0.0
 20
0.0
 30
0.0
  9
$PUCSORGLEFT
 10
0.0
 20
0.0
 30
0.0
  9
$PUCSORGRIGHT
 10
0.0
 20
0.0
 30
0.0
  9
$PUCSORGFRONT
 10
0.0
 20
0.0
 30
0.0
  9
$PUCSORGBACK
 10
0.0
 20
0.0
 30
0.0
  9
$USERI1
 70
     0
  9
$USERI2
 70
     0
  9
$USERI3
 70
     0
  9
$USERI4
 70
     0
  9
$USERI5
 70
     0
  9
$USERR1
 40
0.0
  9
$USERR2
 40
0.0
  9
$USERR3
 40
0.0
  9
$USERR4
 40
0.0
  9
$USERR5
 40
0.0
  9
$WORLDVIEW
 70
     1
  9
$SHADEDGE
 70
     3
  9
$SHADEDIF
 70
    70
  9
$TILEMODE
 70
     1
  9
$MAXACTVP
 70
    16
  9
$PINSBASE
 10
0.0
 20
0.0
 30
0.0
  9
$PLIMCHECK
 70
     0
  9
$PEXTMIN
 10
1.000000000000000E+20
 20
1.000000000000000E+20
 30
1.000000000000000E+20
  9
$PEXTMAX
 10
-1.000000000000000E+20
 20
-1.000000000000000E+20
 30
-1.000000000000000E+20
  9
$PLIMMIN
 10
0.0
 20
0.0
  9
$PLIMMAX
 10
12.0
 20
9.0
  9
$UNITMODE
 70
     0
  9
$VISRETAIN
 70
     0
  9
$PLINEGEN
 70
     1
  9
$PSLTSCALE
 70
     0
  9
$TREEDEPTH
 70
  3020
  9
$CMLSTYLE
  2
STANDARD
  9
$CMLJUST
 70
     0
  9
$CMLSCALE
 40
1.0
  9
$PROXYGRAPHICS
 70
     1
  9
$MEASUREMENT
 70
     0
  9
$CELWEIGHT
370
    -1
  9
$ENDCAPS
280
     0
  9
$JOINSTYLE
280
     0
  9
$LWDISPLAY
290
     0
  9
$INSUNITS
 70
     0
  9
$HYPERLINKBASE
  1

  9
$STYLESHEET
  1

  9
$XEDIT
290
     1
  9
$CEPSNTYPE
380
     0
  9
$PSTYLEMODE
290
     1
  9
$FINGERPRINTGUID
  2
{E4A8876C-C792-11D5-BE3F-00508B5FCD51}
  9
$VERSIONGUID
  2
{21BC73CA-85B0-4722-987D-1E76AE1148E6}
  9
$EXTNAMES
290
     1
  9
$PSVPSCALE
 40
0.0
  9
$OLESTARTUP
290
     0
  0
ENDSEC
  0
SECTION
  2
CLASSES
  0
CLASS
  1
DICTIONARYVAR
  2
AcDbDictionaryVar
  3
AutoCAD 2000
 90
        0
280
     0
281
     0
  0
CLASS
  1
ACDBDICTIONARYWDFLT
  2
AcDbDictionaryWithDefault
  3
AutoCAD 2000
 90
        0
280
     0
281
     0
  0
CLASS
  1
ACDBPLACEHOLDER
  2
AcDbPlaceHolder
  3
ObjectDBX Classes
 90
        0
280
     0
281
     0
  0
CLASS
  1
LAYOUT
  2
AcDbLayout
  3
ObjectDBX Classes
 90
        0
280
     0
281
     0
  0
CLASS
  1
LONG_TRANSACTION
  2
AcDbLongTransaction
  3
ObjectDBX Classes
 90
   -65536
280
     1
281
     0
  0
CLASS
  1
LWPOLYLINE
  2
AcDbPolyline
  3
AutoCAD 2000
 90
        0
280
     0
281
     1
  0
CLASS
  1
HATCH
  2
AcDbHatch
  3
AutoCAD 2000
 90
        0
280
     0
281
     1
  0
CLASS
  1
XRECORD
  2
AcDbXrecord
  3
AutoCAD 2000
 90
        0
280
     0
281
     0
  0
CLASS
  1
LONG_TRANSACTION
  2
AcDbLongTransaction
  3
ObjectDBX Classes
 90
   -65536
280
     1
281
     0
  0
CLASS
  1
LWPOLYLINE
  2
AcDbPolyline
  3
AutoCAD 2000
 90
        0
280
     0
281
     1
  0
CLASS
  1
HATCH
  2
AcDbHatch
  3
AutoCAD 2000
 90
        0
280
     0
281
     1
  0
CLASS
  1
XRECORD
  2
AcDbXrecord
  3
AutoCAD 2000
 90
        0
280
     0
281
     0
  0
CLASS
  1
LONG_TRANSACTION
  2
AcDbLongTransaction
  3
ObjectDBX Classes
 90
   -65536
280
     1
281
     0
  0
CLASS
  1
LWPOLYLINE
  2
AcDbPolyline
  3
AutoCAD 2000
 90
        0
280
     0
281
     1
  0
CLASS
  1
HATCH
  2
AcDbHatch
  3
AutoCAD 2000
 90
        0
280
     0
281
     1
  0
CLASS
  1
XRECORD
  2
AcDbXrecord
  3
AutoCAD 2000
 90
        0
280
     0
281
     0
  0
CLASS
  1
LONG_TRANSACTION
  2
AcDbLongTransaction
  3
ObjectDBX Classes
 90
   -65536
280
     1
281
     0
  0
CLASS
  1
LWPOLYLINE
  2
AcDbPolyline
  3
AutoCAD 2000
 90
        0
280
     0
281
     1
  0
CLASS
  1
HATCH
  2
AcDbHatch
  3
AutoCAD 2000
 90
        0
280
     0
281
     1
  0
CLASS
  1
XRECORD
  2
AcDbXrecord
  3
AutoCAD 2000
 90
        0
280
     0
281
     0
  0
CLASS
  1
TABLESTYLE
  2
AcDbTableStyle
  3
ObjectDBX Classes
 90
     2047
280
     1
281
     0
  0
ENDSEC
  0
SECTION
  2
TABLES
  0
TABLE
  2
VPORT
  5
8
330
0
100
AcDbSymbolTable
 70
     3
  0
VPORT
  5
73B
330
8
100
AcDbSymbolTableRecord
100
AcDbViewportTableRecord
  2
*Active
 70
     0
 10
0.0
 20
0.0
 11
1.0
 21
1.0
 12
10.00872914717543
 22
9.174697431508328
 13
0.0
 23
0.0
 14
0.063
 24
0.063
 15
0.25
 25
0.25
 16
0.0
 26
0.0
 36
1.0
 17
0.0
 27
0.0
 37
0.0
 40
27.90060881707062
 41
1.814583333333333
 42
50.0
 43
0.0
 44
0.0
 50
0.0
 51
0.0
 71
     0
 72
   100
 73
     1
 74
     0
 75
     0
 76
     0
 77
     0
 78
     0
281
     0
 65
     1
110
0.0
120
0.0
130
0.0
111
1.0
121
0.0
131
0.0
112
0.0
122
1.0
132
0.0
 79
     0
146
0.0
  0
ENDTAB
  0
TABLE
  2
LTYPE
  5
5
330
0
100
AcDbSymbolTable
 70
     3
  0
LTYPE
  5
11
330
5
100
AcDbSymbolTableRecord
100
AcDbLinetypeTableRecord
  2
BYBLOCK
 70
     0
  3

 72
    65
 73
     0
 40
0.0
  0
LTYPE
  5
12
330
5
100
AcDbSymbolTableRecord
100
AcDbLinetypeTableRecord
  2
BYLAYER
 70
     0
  3

 72
    65
 73
     0
 40
0.0
  0
LTYPE
  5
13
330
5
100
AcDbSymbolTableRecord
100
AcDbLinetypeTableRecord
  2
CONTINUOUS
 70
     0
  3
Solid line
 72
    65
 73
     0
 40
0.0
  0
LTYPE
  5
2D
330
5
100
AcDbSymbolTableRecord
100
AcDbLinetypeTableRecord
  2
HIDDEN
 70
     0
  3
_ _ _ _ _ _ _ _ _ _ _ _ _ _ _ _ _ _ _ _ _ _ _
 72
    65
 73
     2
 40
0.375
 49
0.25
 74
     0
 49
-0.125
 74
     0
  0
ENDTAB
  0
TABLE
  2
LAYER
  5
2
330
0
100
AcDbSymbolTable
 70
    11
  0
LAYER
  5
E
330
2
100
AcDbSymbolTableRecord
100
AcDbLayerTableRecord
  2
0
 70
     0
 62
     7
  6
CONTINUOUS
370
    -3
390
63D
  0
ENDTAB
  0
TABLE
  2
STYLE
  5
3
330
0
100
AcDbSymbolTable
 70
     2
  0
STYLE
  5
F
330
3
100
AcDbSymbolTableRecord
100
AcDbTextStyleTableRecord
  2
STANDARD
 70
     0
 40
0.0
 41
1.0
 50
0.0
 71
     0
 42
0.299997
  3
TXT
  4

  0
ENDTAB
  0
TABLE
  2
VIEW
  5
6
330
0
100
AcDbSymbolTable
 70
     0
  0
ENDTAB
  0
TABLE
  2
UCS
  5
7
330
0
100
AcDbSymbolTable
 70
     0
  0
ENDTAB
  0
TABLE
  2
APPID
  5
9
330
0
100
AcDbSymbolTable
 70
     1
  0
APPID
  5
10
330
9
100
AcDbSymbolTableRecord
100
AcDbRegAppTableRecord
  2
ACAD
 70
     0
  0
ENDTAB
  0
TABLE
  2
DIMSTYLE
  5
A
330
0
100
AcDbSymbolTable
 70
     1
100
AcDbDimStyleTable
  0
DIMSTYLE
105
5D8
330
A
100
AcDbSymbolTableRecord
100
AcDbDimStyleTableRecord
  2
STANDARD
 70
     0
  3

  4

340
F
  0
ENDTAB
  0
TABLE
  2
BLOCK_RECORD
  5
1
330
0
100
AcDbSymbolTable
 70
     7
  0
BLOCK_RECORD
  5
17
330
1
100
AcDbSymbolTableRecord
100
AcDbBlockTableRecord
  2
*MODEL_SPACE
340
640
  0
BLOCK_RECORD
  5
14
330
1
100
AcDbSymbolTableRecord
100
AcDbBlockTableRecord
  2
*PAPER_SPACE
340
641
  0
BLOCK_RECORD
  5
24
330
1
100
AcDbSymbolTableRecord
100
AcDbBlockTableRecord
  2
03A1T181
340
0
102
{BLKREFS
331
4B9
331
4BA
102
}
  0
ENDTAB
  0
ENDSEC
  0
SECTION
  2
BLOCKS
  0
BLOCK
  5
44
330
17
100
AcDbEntity
  8
0
100
AcDbBlockBegin
  2
*MODEL_SPACE
 70
     0
 10
0.0
 20
0.0
 30
0.0
  3
*MODEL_SPACE
  1

  4

  0
ENDBLK
  5
45
330
17
100
AcDbEntity
  8
0
100
AcDbBlockEnd
  0
BLOCK
  5
42
330
14
100
AcDbEntity
 67
     1
  8
0
100
AcDbBlockBegin
  2
*PAPER_SPACE
 70
     0
 10
0.0
 20
0.0
 30
0.0
  3
*PAPER_SPACE
  1

  4

  0
ENDBLK
  5
43
330
14
100
AcDbEntity
 67
     1
  8
0
100
AcDbBlockEnd
  0
BLOCK
  5
2B2
330
24
100
AcDbEntity
  8
0
100
AcDbBlockBegin
  2
03A1T181
 70
     0
 10
115.3408379671317
 20
404.4140115700495
 30
0.0
  3
03A1T181
  1

  4

  0
LINE
  5
2B3
330
24
100
AcDbEntity
  8
0
100
AcDbLine
 10
115.1850054339115
 20
404.5698441032697
 30
0.0
 11
115.1633921169356
 21
404.5489062024494
 31
0.0
  0
LINE
  5
2B4
330
24
100
AcDbEntity
  8
0
100
AcDbLine
 10
115.1633921169356
 20
404.5489062024494
 30
0.0
 11
115.3227658261553
 21
404.3888963159391
 31
0.0
  0
LINE
  5
2B5
330
24
100
AcDbEntity
  8
0
100
AcDbLine
 10
115.3408379671317
 20
404.4140115700495
 30
0.0
 11
115.1850054339115
 21
404.5698441032697
 31
0.0
  0
ARC
  5
2B6
330
24
100
AcDbEntity
  8
0
100
AcDbCircle
 10
115.2788379671317
 20
404.3451431080383
 30
0.0
 40
0.062
100
AcDbArc
 50
0.0
 51
44.8858732068359
  0
ENDBLK
  5
2B7
330
24
100
AcDbEntity
  8
0
100
AcDbBlockEnd
  0
ENDSEC
  0
SECTION
  2
ENTITIES
  0
LINE
  5
42F
330
17
100
AcDbEntity
  8
0
100
AcDbLine
 10
1.56766055588461
 20
14.02921134256378
 30
0.0
 11
1.568428472512011
 21
16.05790359600465
 31
0.0
  0
LINE
  5
431
330
17
100
AcDbEntity
  8
0
100
AcDbLine
 10
-0.5638293354267852
 20
14.02921134256378
 30
0.0
 11
0.5741504471960024
 21
14.02921134256378
 31
0.0
  0
LINE
  5
432
330
17
100
AcDbEntity
  8
0
100
AcDbLine
 10
0.8587373620573171
 20
14.0295513718029
 30
0.0
 11
1.56766055588461
 21
14.02921134256378
 31
0.0
  0
LINE
  5
436
330
17
100
AcDbEntity
  8
0
100
AcDbLine
 10
-1.478630632813855
 20
14.02921134256378
 30
0.0
 11
-1.557339444115391
 21
14.02921134256378
 31
0.0
  0
LINE
  5
437
330
17
100
AcDbEntity
  8
0
100
AcDbLine
 10
1.283369367186149
 20
14.02921134256378
 30
0.0
 11
1.56766055588461
 21
14.02921134256378
 31
0.0
  0
LINE
  5
43B
330
17
100
AcDbEntity
  8
0
100
AcDbLine
 10
0.6596504471960021
 20
14.11471134256378
 30
0.0
 11
0.7764683765967195
 21
14.11471134256378
 31
0.0
  0
ARC
  5
43C
330
17
100
AcDbEntity
  8
0
100
AcDbCircle
 10
0.7732380381996595
 20
14.02921134256378
 30
0.0
 40
0.0855
100
AcDbArc
 50
0.2278630604534111
 51
89.76337813599629
  0
ARC
  5
43D
330
17
100
AcDbEntity
  8
0
100
AcDbCircle
 10
0.6596504471960021
 20
14.02921134256378
 30
0.0
 40
0.0855
100
AcDbArc
 50
89.15683566431996
 51
180.0000000000001
  0
LINE
  5
444
330
17
100
AcDbEntity
  8
0
100
AcDbLine
 10
-1.557339444115391
 20
16.02921134256378
 30
0.0
 11
-1.557339444115391
 21
14.02921134256378
 31
0.0
  0
LINE
  5
445
330
17
100
AcDbEntity
  8
0
100
AcDbLine
 10
-1.557339444115391
 20
15.03391633841168
 30
0.0
 11
-1.557339444115391
 21
16.09138406951894
 31
0.0
  0
LINE
  5
446
330
17
100
AcDbEntity
  8
0
  6
HIDDEN
100
AcDbLine
 10
10.37962453675788
 20
0.9188152602923747
 30
0.0
 11
10.37962453675788
 21
9.277232082887677
 31
0.0
  0
ARC
  5
447
330
17
100
AcDbEntity
  8
0
100
AcDbCircle
 10
9.450494738838478
 20
6.091965332121953
 30
0.0
 40
0.0855
100
AcDbArc
 50
89.99999999999999
 51
270.0
  0
ARC
  5
448
330
17
100
AcDbEntity
  8
0
100
AcDbCircle
 10
9.261876293005633
 20
6.469724916173101
 30
0.0
 40
0.2
100
AcDbArc
 50
282.6356250930193
 51
0.0
  0
ARC
  5
449
330
17
100
AcDbEntity
  8
0
100
AcDbCircle
 10
9.354637562884866
 20
5.470599710936655
 30
0.0
 40
0.2
100
AcDbArc
 50
180.0
 51
257.3643749069813
  0
LINE
  5
44A
330
17
100
AcDbEntity
  8
0
100
AcDbLine
 10
9.450494738838478
 20
6.006465332121957
 30
0.0
 11
9.62419095281671
 21
6.006465332121957
 31
0.0
  0
LINE
  5
44B
330
17
100
AcDbEntity
  8
0
100
AcDbLine
 10
9.450494738838478
 20
6.177465332121949
 30
0.0
 11
9.626582439125448
 21
6.177465332121949
 31
0.0
  0
LINE
  5
44C
330
17
100
AcDbEntity
  8
0
100
AcDbLine
 10
9.154637562884863
 20
6.079412541273145
 30
0.0
 11
9.154637562884863
 21
5.479412541273144
 31
0.0
  0
ARC
  5
44D
330
17
100
AcDbEntity
  8
0
100
AcDbCircle
 10
9.349376293005632
 20
6.079412541273145
 30
0.0
 40
0.2
100
AcDbArc
 50
102.6356250930188
 51
180.0
  0
LINE
  5
44E
330
17
100
AcDbEntity
  8
0
100
AcDbLine
 10
9.456345980916671
 20
8.433352529636048
 30
0.0
 11
9.456345980916671
 21
9.320000000000002
 31
0.0
  0
ARC
  5
44F
330
17
100
AcDbEntity
  8
0
100
AcDbCircle
 10
9.261012488203674
 20
9.08910016637318
 30
0.0
 40
0.2
100
AcDbArc
 50
4.066459635116879
 51
12.40128461368125
  0
LINE
  5
450
330
17
100
AcDbEntity
  8
0
100
AcDbLine
 10
9.456345980916671
 20
4.433352529636046
 30
0.0
 11
9.456345980916671
 21
5.123265332121955
 31
0.0
  0
ARC
  5
451
330
17
100
AcDbEntity
  8
0
100
AcDbCircle
 10
9.261012488203674
 20
5.08910016637318
 30
0.0
 40
0.2
100
AcDbArc
 50
4.066459635116879
 51
77.36437490698107
  0
ARC
  5
452
330
17
100
AcDbEntity
  8
0
100
AcDbCircle
 10
9.349376293005632
 20
4.079412541273143
 30
0.0
 40
0.2
100
AcDbArc
 50
102.6356250930188
 51
180.0
  0
ARC
  5
453
330
17
100
AcDbEntity
  8
0
100
AcDbCircle
 10
9.261876293005633
 20
4.469724916173099
 30
0.0
 40
0.2
100
AcDbArc
 50
282.6356250930193
 51
0.0
  0
ARC
  5
454
330
17
100
AcDbEntity
  8
0
100
AcDbCircle
 10
9.354637562884866
 20
3.470599710936654
 30
0.0
 40
0.2
100
AcDbArc
 50
180.0
 51
257.3643749069813
  0
ARC
  5
455
330
17
100
AcDbEntity
  8
0
100
AcDbCircle
 10
9.261012488203674
 20
3.089100166373179
 30
0.0
 40
0.2
100
AcDbArc
 50
4.066459635116879
 51
77.36437490698107
  0
LINE
  5
456
330
17
100
AcDbEntity
  8
0
100
AcDbLine
 10
9.154637562884863
 20
4.079412541273143
 30
0.0
 11
9.154637562884863
 21
3.479412541273142
 31
0.0
  0
LINE
  5
457
330
17
100
AcDbEntity
  8
0
100
AcDbLine
 10
9.450494738838478
 20
4.177465332121948
 30
0.0
 11
9.626582439125448
 21
4.177465332121948
 31
0.0
  0
LINE
  5
458
330
17
100
AcDbEntity
  8
0
100
AcDbLine
 10
9.450494738838478
 20
4.006465332121955
 30
0.0
 11
9.62419095281671
 21
4.006465332121955
 31
0.0
  0
ARC
  5
459
330
17
100
AcDbEntity
  8
0
100
AcDbCircle
 10
9.450494738838478
 20
4.091965332121951
 30
0.0
 40
0.0855
100
AcDbArc
 50
89.99999999999999
 51
270.0
  0
ARC
  5
45A
330
17
100
AcDbEntity
  8
0
100
AcDbCircle
 10
10.38799473883847
 20
0.6141781346078474
 30
0.0
 40
0.1875
100
AcDbArc
 50
144.4623222080255
 51
180.0000000000001
  0
ARC
  5
45B
330
17
100
AcDbEntity
  8
0
100
AcDbCircle
 10
9.268845980916671
 20
2.433352529636046
 30
0.0
 40
0.1875
100
AcDbArc
 50
324.4623222080256
 51
0.0
  0
ARC
  5
45C
330
17
100
AcDbEntity
  8
0
100
AcDbCircle
 10
8.387994738838478
 20
0.6059863956983733
 30
0.0
 40
0.1875
100
AcDbArc
 50
144.4623222080256
 51
179.9999999999999
  0
ARC
  5
45D
330
17
100
AcDbEntity
  8
0
100
AcDbCircle
 10
10.38799473883847
 20
0.6141781346078474
 30
0.0
 40
0.1875
100
AcDbArc
 50
144.4623222080255
 51
180.0
  0
LINE
  5
45E
330
17
100
AcDbEntity
  8
0
100
AcDbLine
 10
10.20049473883847
 20
0.0014741434234846
 30
0.0
 11
10.20049473883847
 21
0.6141781346078474
 31
0.0
  0
LINE
  5
45F
330
17
100
AcDbEntity
  8
0
100
AcDbLine
 10
8.20049473883847
 20
0.0014741434234882
 30
0.0
 11
8.200494738838478
 21
0.6059863956983733
 31
0.0
  0
LINE
  5
460
330
17
100
AcDbEntity
  8
0
100
AcDbLine
 10
10.23541971298721
 20
0.7231602959301782
 30
0.0
 11
10.44962453675788
 21
1.013790221234979
 31
0.0
  0
LINE
  5
461
330
17
100
AcDbEntity
  8
0
100
AcDbLine
 10
8.235419712987214
 20
0.7149685570207041
 30
0.0
 11
9.421421006767934
 21
2.324370368313716
 31
0.0
  0
LINE
  5
462
330
17
100
AcDbEntity
  8
0
100
AcDbLine
 10
9.456345980916671
 20
2.433352529636046
 30
0.0
 11
9.456345980916671
 21
3.123265332121953
 31
0.0
  0
ARC
  5
463
330
17
100
AcDbEntity
  8
0
100
AcDbCircle
 10
9.450494738838478
 20
1.498265332121953
 30
0.0
 40
0.0855
100
AcDbArc
 50
89.99999999999999
 51
270.0
  0
LINE
  5
464
330
17
100
AcDbEntity
  8
0
100
AcDbLine
 10
9.450494738838478
 20
1.41276533212195
 30
0.0
 11
9.62419095281671
 21
1.41276533212195
 31
0.0
  0
LINE
  5
465
330
17
100
AcDbEntity
  8
0
100
AcDbLine
 10
9.450494738838478
 20
1.583765332121949
 30
0.0
 11
9.626582439125448
 21
1.583765332121949
 31
0.0
  0
ARC
  5
466
330
17
100
AcDbEntity
  8
0
100
AcDbCircle
 10
9.261012488203674
 20
7.08910016637318
 30
0.0
 40
0.2
100
AcDbArc
 50
4.066459635116879
 51
77.36437490698107
  0
LINE
  5
467
330
17
100
AcDbEntity
  8
0
100
AcDbLine
 10
9.456345980916671
 20
6.433352529636048
 30
0.0
 11
9.456345980916671
 21
7.123265332121955
 31
0.0
  0
ARC
  5
468
330
17
100
AcDbEntity
  8
0
100
AcDbCircle
 10
9.349376293005632
 20
8.079412541273145
 30
0.0
 40
0.2
100
AcDbArc
 50
102.6356250930188
 51
180.0
  0
LINE
  5
469
330
17
100
AcDbEntity
  8
0
100
AcDbLine
 10
9.154637562884863
 20
8.079412541273145
 30
0.0
 11
9.154637562884863
 21
7.479412541273144
 31
0.0
  0
LINE
  5
46A
330
17
100
AcDbEntity
  8
0
100
AcDbLine
 10
9.450494738838478
 20
8.177465332121949
 30
0.0
 11
9.626582439125448
 21
8.177465332121949
 31
0.0
  0
LINE
  5
46B
330
17
100
AcDbEntity
  8
0
100
AcDbLine
 10
9.450494738838478
 20
8.006465332121957
 30
0.0
 11
9.62419095281671
 21
8.006465332121957
 31
0.0
  0
ARC
  5
46C
330
17
100
AcDbEntity
  8
0
100
AcDbCircle
 10
9.354637562884866
 20
7.470599710936655
 30
0.0
 40
0.2
100
AcDbArc
 50
180.0
 51
257.3643749069813
  0
ARC
  5
46D
330
17
100
AcDbEntity
  8
0
100
AcDbCircle
 10
9.261876293005633
 20
8.469724916173101
 30
0.0
 40
0.2
100
AcDbArc
 50
282.6356250930193
 51
0.0
  0
ARC
  5
46E
330
17
100
AcDbEntity
  8
0
100
AcDbCircle
 10
9.450494738838478
 20
8.091965332121953
 30
0.0
 40
0.0855
100
AcDbArc
 50
89.99999999999999
 51
270.0
  0
LINE
  5
46F
330
17
100
AcDbEntity
  8
0
  6
HIDDEN
100
AcDbLine
 10
10.20049473883847
 20
0.0714741434234849
 30
0.0
 11
8.200494738838474
 21
0.0714741434234867
 31
0.0
  0
ARC
  5
470
330
17
100
AcDbEntity
  8
0
100
AcDbCircle
 10
-0.5307533939570934
 20
4.967006426667068
 30
0.0
 40
0.2
100
AcDbArc
 50
180.0
 51
257.3643749069813
  0
ARC
  5
471
330
17
100
AcDbEntity
  8
0
100
AcDbCircle
 10
-0.530753393957097
 20
5.567006426667069
 30
0.0
 40
0.2
100
AcDbArc
 50
102.6356250930188
 51
180.0
  0
LINE
  5
472
330
17
100
AcDbEntity
  8
0
100
AcDbLine
 10
-0.7307533939570963
 20
5.567006426667069
 30
0.0
 11
-0.7307533939570963
 21
4.967006426667068
 31
0.0
  0
LINE
  5
474
330
17
100
AcDbEntity
  8
0
100
AcDbLine
 10
-0.4109596381456804
 20
7.957318801567022
 30
0.0
 11
-0.4098831918765029
 21
9.080694051767102
 31
0.0
  0
ARC
  5
475
330
17
100
AcDbEntity
  8
0
100
AcDbCircle
 10
-0.6098831918765004
 20
9.080694051767102
 30
0.0
 40
0.2
100
AcDbArc
 50
0.0
 51
59.65774892583364
  0
LINE
  5
476
330
17
100
AcDbEntity
  8
0
100
AcDbLine
 10
-0.4109813549160801
 20
3.957318801567022
 30
0.0
 11
-0.4098831918765011
 21
4.576694051767101
 31
0.0
  0
ARC
  5
477
330
17
100
AcDbEntity
  8
0
100
AcDbCircle
 10
-0.6098831918765004
 20
4.576694051767101
 30
0.0
 40
0.2
100
AcDbArc
 50
0.0
 51
77.36437490698107
  0
ARC
  5
478
330
17
100
AcDbEntity
  8
0
100
AcDbCircle
 10
-0.5307533939570952
 20
2.967006426667069
 30
0.0
 40
0.2
100
AcDbArc
 50
180.0
 51
257.3643749069813
  0
ARC
  5
479
330
17
100
AcDbEntity
  8
0
100
AcDbCircle
 10
-0.6182533939570938
 20
2.576694051767106
 30
0.0
 40
0.2
100
AcDbArc
 50
0.0
 51
77.36437490698107
  0
LINE
  5
47A
330
17
100
AcDbEntity
  8
0
100
AcDbLine
 10
-0.730753393957098
 20
3.567006426667069
 30
0.0
 11
-0.730753393957098
 21
2.967006426667069
 31
0.0
  0
ARC
  5
47B
330
17
100
AcDbEntity
  8
0
100
AcDbCircle
 10
-0.5307533939570988
 20
3.567006426667069
 30
0.0
 40
0.2
100
AcDbArc
 50
102.6356250930188
 51
180.0
  0
ARC
  5
47C
330
17
100
AcDbEntity
  8
0
100
AcDbCircle
 10
-0.6109813549160776
 20
3.957318801567022
 30
0.0
 40
0.2
100
AcDbArc
 50
282.6356250930193
 51
0.0
  0
ARC
  5
47D
330
17
100
AcDbEntity
  8
0
100
AcDbCircle
 10
-0.6068515569966735
 20
1.920946415029974
 30
0.0
 40
0.1875
100
AcDbArc
 50
324.4623222080255
 51
0.0
  0
LINE
  5
47F
330
17
100
AcDbEntity
  8
0
100
AcDbLine
 10
-1.495594686718517
 20
0.3991192372166523
 30
0.0
 11
-0.4542765311454104
 21
1.811964253707643
 31
0.0
  0
CIRCLE
  5
480
330
17
100
AcDbEntity
  8
0
100
AcDbCircle
 10
-0.7318515569966735
 20
2.110859217515873
 30
0.0
 40
0.0855
  0
ARC
  5
481
330
17
100
AcDbEntity
  8
0
100
AcDbCircle
 10
-0.6098831918765004
 20
6.576694051767101
 30
0.0
 40
0.2
100
AcDbArc
 50
0.0
 51
77.36437490698107
  0
ARC
  5
483
330
17
100
AcDbEntity
  8
0
100
AcDbCircle
 10
-0.6109596381456797
 20
7.957318801567022
 30
0.0
 40
0.2
100
AcDbArc
 50
282.6356250930193
 51
0.0
  0
LINE
  5
484
330
17
100
AcDbEntity
  8
0
100
AcDbLine
 10
-0.7307533939570963
 20
7.567006426667069
 30
0.0
 11
-0.7307533939570963
 21
6.967006426667068
 31
0.0
  0
ARC
  5
485
330
17
100
AcDbEntity
  8
0
100
AcDbCircle
 10
-0.530753393957097
 20
7.567006426667069
 30
0.0
 40
0.2
100
AcDbArc
 50
102.6356250930188
 51
180.0
  0
ARC
  5
486
330
17
100
AcDbEntity
  8
0
100
AcDbCircle
 10
-0.5307533939570934
 20
6.967006426667068
 30
0.0
 40
0.2
100
AcDbArc
 50
180.0
 51
257.3643749069813
  0
CIRCLE
  5
487
330
17
100
AcDbEntity
  8
0
100
AcDbCircle
 10
-0.7318515569966717
 20
8.110859217515875
 30
0.0
 40
0.0855
  0
LINE
  5
488
330
17
100
AcDbEntity
  8
0
100
AcDbLine
 10
1.492500000000002
 20
0.0700000000000003
 30
0.0
 11
-1.492499999999999
 21
0.0699999999999985
 31
0.0
  0
LINE
  5
489
330
17
100
AcDbEntity
  8
0
100
AcDbLine
 10
1.562500000000002
 20
0.1400000000000006
 30
0.0
 11
1.562500000000002
 21
9.25189304675356
 31
0.0
  0
LINE
  5
48A
330
17
100
AcDbEntity
  8
0
100
AcDbLine
 10
1.6325
 20
0.1400000000000006
 30
0.0
 11
1.632500000000002
 21
9.25189304675356
 31
0.0
  0
LINE
  5
48B
330
17
100
AcDbEntity
  8
0
100
AcDbLine
 10
1.4925
 20
0.0
 30
0.0
 11
-1.492499999999999
 21
0.0
 31
0.0
  0
ARC
  5
48C
330
17
100
AcDbEntity
  8
0
100
AcDbCircle
 10
1.492500000000002
 20
0.1400000000000006
 30
0.0
 40
0.07
100
AcDbArc
 50
270.0
 51
0.0
  0
ARC
  5
48D
330
17
100
AcDbEntity
  8
0
100
AcDbCircle
 10
-1.492499999999999
 20
0.1399999999999988
 30
0.0
 40
0.07
100
AcDbArc
 50
180.0
 51
270.0
  0
ARC
  5
48E
330
17
100
AcDbEntity
  8
0
100
AcDbCircle
 10
-1.492499999999999
 20
0.1400000000000006
 30
0.0
 40
0.14
100
AcDbArc
 50
180.0
 51
270.0
  0
ARC
  5
48F
330
17
100
AcDbEntity
  8
0
100
AcDbCircle
 10
1.4925
 20
0.1400000000000006
 30
0.0
 40
0.14
100
AcDbArc
 50
270.0
 51
0.0
  0
ARC
  5
490
330
17
100
AcDbEntity
  8
0
100
AcDbCircle
 10
-1.492499999999995
 20
0.1400000000000006
 30
0.0
 40
0.14
100
AcDbArc
 50
180.0
 51
270.0
  0
ARC
  5
491
330
17
100
AcDbEntity
  8
0
100
AcDbCircle
 10
-1.492499999999997
 20
0.1400000000000006
 30
0.0
 40
0.07
100
AcDbArc
 50
180.0
 51
270.0
  0
LINE
  5
492
330
17
100
AcDbEntity
  8
0
100
AcDbLine
 10
-1.632499999999996
 20
0.1400000000000006
 30
0.0
 11
-1.632499999999997
 21
9.253985576348201
 31
0.0
  0
LINE
  5
493
330
17
100
AcDbEntity
  8
0
100
AcDbLine
 10
-1.562499999999997
 20
0.1400000000000006
 30
0.0
 11
-1.562499999999998
 21
9.253985576348201
 31
0.0
  0
CIRCLE
  5
494
330
17
100
AcDbEntity
  8
0
100
AcDbCircle
 10
0.8336364895159303
 20
8.110859217515875
 30
0.0
 40
0.0855
  0
ARC
  5
495
330
17
100
AcDbEntity
  8
0
100
AcDbCircle
 10
0.632538326476352
 20
6.967006426667068
 30
0.0
 40
0.2
100
AcDbArc
 50
282.6356250930186
 51
0.0000000000000254
  0
ARC
  5
496
330
17
100
AcDbEntity
  8
0
100
AcDbCircle
 10
0.6325383264763556
 20
7.567006426667069
 30
0.0
 40
0.2
100
AcDbArc
 50
0.0000000000000254
 51
77.36437490698125
  0
LINE
  5
497
330
17
100
AcDbEntity
  8
0
100
AcDbLine
 10
0.8325383264763548
 20
7.567006426667069
 30
0.0
 11
0.8325383264763548
 21
6.967006426667068
 31
0.0
  0
ARC
  5
49A
330
17
100
AcDbEntity
  8
0
100
AcDbCircle
 10
0.711668124395759
 20
6.576694051767101
 30
0.0
 40
0.2
100
AcDbArc
 50
102.6356250930189
 51
180.0
  0
CIRCLE
  5
49B
330
17
100
AcDbEntity
  8
0
100
AcDbCircle
 10
0.8336364895159338
 20
2.110859217515873
 30
0.0
 40
0.0855
  0
LINE
  5
49C
330
17
100
AcDbEntity
  8
0
100
AcDbLine
 10
1.597379619237776
 20
0.3991192372166523
 30
0.0
 11
0.5560614636646708
 21
1.811964253707643
 31
0.0
  0
ARC
  5
49E
330
17
100
AcDbEntity
  8
0
100
AcDbCircle
 10
0.7086364895159338
 20
1.920946415029974
 30
0.0
 40
0.1875
100
AcDbArc
 50
180.0
 51
215.5376777919745
  0
ARC
  5
4A0
330
17
100
AcDbEntity
  8
0
100
AcDbCircle
 10
0.6325383264763591
 20
3.567006426667069
 30
0.0
 40
0.2
100
AcDbArc
 50
0.0000000000000254
 51
77.36437490698125
  0
LINE
  5
4A1
330
17
100
AcDbEntity
  8
0
100
AcDbLine
 10
0.8325383264763584
 20
3.567006426667069
 30
0.0
 11
0.8325383264763584
 21
2.967006426667069
 31
0.0
  0
ARC
  5
4A2
330
17
100
AcDbEntity
  8
0
100
AcDbCircle
 10
0.7200383264763541
 20
2.576694051767106
 30
0.0
 40
0.2
100
AcDbArc
 50
102.6356250930189
 51
180.0
  0
ARC
  5
4A3
330
17
100
AcDbEntity
  8
0
100
AcDbCircle
 10
0.6325383264763556
 20
2.967006426667069
 30
0.0
 40
0.2
100
AcDbArc
 50
282.6356250930186
 51
0.0000000000000254
  0
ARC
  5
4A4
330
17
100
AcDbEntity
  8
0
100
AcDbCircle
 10
0.711668124395759
 20
4.576694051767101
 30
0.0
 40
0.2
100
AcDbArc
 50
102.6356250930189
 51
180.0
  0
ARC
  5
4A6
330
17
100
AcDbEntity
  8
0
100
AcDbCircle
 10
0.711668124395759
 20
9.080694051767102
 30
0.0
 40
0.2
100
AcDbArc
 50
121.1301702402823
 51
180.0
  0
LINE
  5
4A9
330
17
100
AcDbEntity
  8
0
100
AcDbLine
 10
0.8325383264763548
 20
5.567006426667069
 30
0.0
 11
0.8325383264763548
 21
4.967006426667068
 31
0.0
  0
ARC
  5
4AA
330
17
100
AcDbEntity
  8
0
100
AcDbCircle
 10
0.6325383264763556
 20
5.567006426667069
 30
0.0
 40
0.2
100
AcDbArc
 50
0.0000000000000254
 51
77.36437490698125
  0
ARC
  5
4AB
330
17
100
AcDbEntity
  8
0
100
AcDbCircle
 10
0.632538326476352
 20
4.967006426667068
 30
0.0
 40
0.2
100
AcDbArc
 50
282.6356250930186
 51
0.0000000000000254
  0
LINE
  5
4AC
330
17
100
AcDbEntity
  8
0
100
AcDbLine
 10
10.20049473883847
 20
0.0014741434234846
 30
0.0
 11
8.200494738838474
 21
0.0014741434234864
 31
0.0
  0
LINE
  5
4AD
330
17
100
AcDbEntity
  8
0
100
AcDbLine
 10
10.44962453675788
 20
2.683118473996665
 30
0.0
 11
10.44962453675788
 21
9.277232082887673
 31
0.0
  0
LINE
  5
4AE
330
17
100
AcDbEntity
  8
0
100
AcDbLine
 10
10.44962453675788
 20
2.683118473996665
 30
0.0
 11
10.44962453675788
 21
1.013790221234977
 31
0.0
  0
LINE
  5
4AF
330
17
100
AcDbEntity
  8
0
100
AcDbLine
 10
10.51962453675788
 20
9.347232082887674
 30
0.0
 11
11.94962453675788
 21
9.347232082887674
 31
0.0
  0
LINE
  5
4B0
330
17
100
AcDbEntity
  8
0
100
AcDbLine
 10
10.51962453675788
 20
9.417232082887677
 30
0.0
 11
11.94962453675788
 21
9.417232082887677
 31
0.0
  0
ARC
  5
4B1
330
17
100
AcDbEntity
  8
0
100
AcDbCircle
 10
10.51962453675788
 20
9.277232082887673
 30
0.0
 40
0.07
100
AcDbArc
 50
90.0
 51
180.0
  0
ARC
  5
4B2
330
17
100
AcDbEntity
  8
0
100
AcDbCircle
 10
10.51962453675788
 20
9.277232082887677
 30
0.0
 40
0.14
100
AcDbArc
 50
90.0
 51
162.212647605403
  0
LINE
  5
4B5
330
17
100
AcDbEntity
  8
0
100
AcDbLine
 10
1.498428472512011
 20
16.04290359600465
 30
0.0
 11
1.497660555884609
 21
14.02921134256378
 31
0.0
  0
LINE
  5
4B7
330
17
100
AcDbEntity
  8
0
100
AcDbLine
 10
-1.48733944411539
 20
15.03391633841168
 30
0.0
 11
-1.48733944411539
 21
16.02921134256378
 31
0.0
  0
LINE
  5
4B8
330
17
100
AcDbEntity
  8
0
100
AcDbLine
 10
-1.48733944411539
 20
16.07638406951894
 30
0.0
 11
-1.48733944411539
 21
14.02921134256378
 31
0.0
  0
INSERT
  5
4B9
330
17
100
AcDbEntity
  8
0
100
AcDbBlockReference
  2
03A1T181
 10
1.583322802512919
 20
14.74952412158856
 30
0.0
 50
180.0
  0
INSERT
  5
4BA
330
17
100
AcDbEntity
  8
0
100
AcDbBlockReference
  2
03A1T181
 10
-1.569654628212996
 20
14.73319209529355
 30
0.0
 41
-1.0
 50
180.0000000000001
  0
LINE
  5
4DC
330
17
100
AcDbEntity
  8
0
100
AcDbLine
 10
9.456345980916671
 20
9.320000000000002
 30
0.0
 11
10.46420878749967
 21
9.319999999999999
 31
0.0
  0
LINE
  5
4DD
330
17
100
AcDbEntity
  8
0
100
AcDbLine
 10
11.94962453675788
 20
9.347232082887674
 30
0.0
 11
11.94962453675788
 21
9.417232082887677
 31
0.0
  0
LINE
  5
4DE
330
17
100
AcDbEntity
  8
0
  6
HIDDEN
100
AcDbLine
 10
1.632500000000004
 20
9.18189304675356
 30
0.0
 11
0.5391608392923821
 21
9.18189304675356
 31
0.0
  0
LINE
  5
4DF
330
17
100
AcDbEntity
  8
0
100
AcDbLine
 10
1.632500000000004
 20
9.25189304675356
 30
0.0
 11
0.6082712960321803
 21
9.25189304675356
 31
0.0
  0
LINE
  5
4E0
330
17
100
AcDbEntity
  8
0
100
AcDbLine
 10
-1.632499999999997
 20
9.253985576348201
 30
0.0
 11
-0.5100330666469084
 21
9.253985576348201
 31
0.0
  0
LINE
  5
4E1
330
17
100
AcDbEntity
  8
0
  6
HIDDEN
100
AcDbLine
 10
-1.565594686718519
 20
9.183985576348201
 30
0.0
 11
-0.4386206421182326
 21
9.183985576348201
 31
0.0
  0
CIRCLE
  5
4E4
330
17
100
AcDbEntity
  8
0
100
AcDbCircle
 10
0.8336364895159338
 20
4.110859217515873
 30
0.0
 40
0.0855
  0
CIRCLE
  5
4E5
330
17
100
AcDbEntity
  8
0
100
AcDbCircle
 10
-0.7318515569966735
 20
4.110859217515873
 30
0.0
 40
0.0855
  0
CIRCLE
  5
4E6
330
17
100
AcDbEntity
  8
0
100
AcDbCircle
 10
-0.7318515569966735
 20
6.110859217515872
 30
0.0
 40
0.0855
  0
CIRCLE
  5
4E7
330
17
100
AcDbEntity
  8
0
100
AcDbCircle
 10
0.8336364895159338
 20
6.110859217515872
 30
0.0
 40
0.0855
  0
LINE
  5
4E8
330
17
100
AcDbEntity
  8
0
100
AcDbLine
 10
-0.7340259513000529
 20
16.84844316922423
 30
0.0
 11
-0.7340259513000529
 21
16.14638406951893
 31
0.0
  0
ARC
  5
4E9
330
17
100
AcDbEntity
  8
0
100
AcDbCircle
 10
-0.5340259513000536
 20
16.84844316922423
 30
0.0
 40
0.2
100
AcDbArc
 50
102.6356250930188
 51
180.0
  0
ARC
  5
4EA
330
17
100
AcDbEntity
  8
0
100
AcDbCircle
 10
-0.6142539122590325
 20
17.23875554412418
 30
0.0
 40
0.2
100
AcDbArc
 50
282.6356250930193
 51
0.0
  0
LINE
  5
4EB
330
17
100
AcDbEntity
  8
0
100
AcDbLine
 10
-0.4142539122590332
 20
17.23875554412418
 30
0.0
 11
-0.4142539122590332
 21
17.71525860804626
 31
0.0
  0
CIRCLE
  5
4EC
330
17
100
AcDbEntity
  8
0
100
AcDbCircle
 10
-0.7351241143396283
 20
17.39229596007304
 30
0.0
 40
0.0855
  0
LINE
  5
4ED
330
17
100
AcDbEntity
  8
0
100
AcDbLine
 10
-1.66322798235456
 20
17.71525860804625
 30
0.0
 11
-1.66322798235456
 21
16.48136893229455
 31
0.0
  0
ARC
  5
4EE
330
17
100
AcDbEntity
  8
0
100
AcDbCircle
 10
-1.619711136134814
 20
16.25768120078504
 30
0.0
 40
0.1619917846052916
100
AcDbArc
 50
359.4937530729897
 51
85.14924345818581
  0
ARC
  5
4EF
330
17
100
AcDbEntity
  8
0
100
AcDbCircle
 10
-1.520223235124679
 20
16.25680213507911
 30
0.0
 40
0.0625
100
AcDbArc
 50
293.1569814276937
 51
359.4937530729893
  0
ARC
  5
4F0
330
17
100
AcDbEntity
  8
0
100
AcDbCircle
 10
-1.60072798235456
 20
16.48136893229455
 30
0.0
 40
0.0625
100
AcDbArc
 50
180.0
 51
265.1492434581849
  0
LINE
  5
4F1
330
17
100
AcDbEntity
  8
0
100
AcDbLine
 10
-0.4142539122590332
 20
17.71525860804626
 30
0.0
 11
-1.66322798235456
 21
17.71525860804625
 31
0.0
  0
LINE
  5
4F2
330
17
100
AcDbEntity
  8
0
100
AcDbLine
 10
-1.41733944411539
 20
16.14638406951894
 30
0.0
 11
-0.7340259513000511
 21
16.14638406951893
 31
0.0
  0
LINE
  5
4F3
330
17
100
AcDbEntity
  8
0
  6
HIDDEN
100
AcDbLine
 10
-1.432339444115391
 20
16.21638406951894
 30
0.0
 11
-0.7340259513000511
 21
16.21638406951894
 31
0.0
  0
ARC
  5
4F4
330
17
100
AcDbEntity
  8
0
100
AcDbCircle
 10
-1.41733944411539
 20
16.07638406951894
 30
0.0
 40
0.07
100
AcDbArc
 50
89.99999999999976
 51
180.0
  0
ARC
  5
4F5
330
17
100
AcDbEntity
  8
0
100
AcDbCircle
 10
-1.432339444115391
 20
16.09138406951894
 30
0.0
 40
0.125
100
AcDbArc
 50
90.0
 51
180.0
  0
ARC
  5
4F6
330
17
100
AcDbEntity
  8
0
100
AcDbCircle
 10
1.443428472512011
 20
16.05790359600465
 30
0.0
 40
0.125
100
AcDbArc
 50
0.0
 51
90.0
  0
ARC
  5
4F7
330
17
100
AcDbEntity
  8
0
100
AcDbCircle
 10
1.42842847251201
 20
16.04290359600465
 30
0.0
 40
0.07
100
AcDbArc
 50
0.0
 51
90.00000000000024
  0
LINE
  5
4F8
330
17
100
AcDbEntity
  8
0
  6
HIDDEN
100
AcDbLine
 10
1.443428472512011
 20
16.18290359600465
 30
0.0
 11
0.7451149796966714
 21
16.18290359600465
 31
0.0
  0
LINE
  5
4F9
330
17
100
AcDbEntity
  8
0
100
AcDbLine
 10
1.42842847251201
 20
16.11290359600465
 30
0.0
 11
0.7451149796966714
 21
16.11290359600464
 31
0.0
  0
LINE
  5
4FA
330
17
100
AcDbEntity
  8
0
100
AcDbLine
 10
0.4253429406556535
 20
17.68177813453197
 30
0.0
 11
1.67431701075118
 21
17.68177813453196
 31
0.0
  0
ARC
  5
4FB
330
17
100
AcDbEntity
  8
0
100
AcDbCircle
 10
1.61181701075118
 20
16.44788845878026
 30
0.0
 40
0.0625
100
AcDbArc
 50
274.8507565418151
 51
0.0
  0
ARC
  5
4FC
330
17
100
AcDbEntity
  8
0
100
AcDbCircle
 10
1.531312263521299
 20
16.22332166156482
 30
0.0
 40
0.0625
100
AcDbArc
 50
180.5062469270108
 51
246.8430185723063
  0
ARC
  5
4FD
330
17
100
AcDbEntity
  8
0
100
AcDbCircle
 10
1.630800164531435
 20
16.22420072727076
 30
0.0
 40
0.1619917846052916
100
AcDbArc
 50
94.85075654181419
 51
180.5062469270104
  0
LINE
  5
4FE
330
17
100
AcDbEntity
  8
0
100
AcDbLine
 10
1.67431701075118
 20
17.68177813453196
 30
0.0
 11
1.67431701075118
 21
16.44788845878026
 31
0.0
  0
CIRCLE
  5
4FF
330
17
100
AcDbEntity
  8
0
100
AcDbCircle
 10
0.7462131427362486
 20
17.35881548655875
 30
0.0
 40
0.0855
  0
ARC
  5
502
330
17
100
AcDbEntity
  8
0
100
AcDbCircle
 10
0.5451149796966739
 20
16.81496269570994
 30
0.0
 40
0.2
100
AcDbArc
 50
0.0000000000000254
 51
77.36437490698125
  0
LINE
  5
503
330
17
100
AcDbEntity
  8
0
100
AcDbLine
 10
0.7451149796966732
 20
16.81496269570994
 30
0.0
 11
0.7451149796966732
 21
16.11290359600464
 31
0.0
  0
LINE
  5
570
330
17
100
AcDbEntity
  8
0
100
AcDbLine
 10
1.628017451255042
 20
7.632824006816124
 30
0.0
 11
1.800017451255068
 21
7.632824006816124
 31
0.0
  0
LINE
  5
571
330
17
100
AcDbEntity
  8
0
100
AcDbLine
 10
1.878017451255042
 20
7.554824006816121
 30
0.0
 11
1.878017451255042
 21
7.554574006816127
 31
0.0
  0
LINE
  5
572
330
17
100
AcDbEntity
  8
0
100
AcDbLine
 10
1.800017451255068
 20
7.476574006816124
 30
0.0
 11
1.628017451255042
 21
7.476574006816124
 31
0.0
  0
ARC
  5
573
330
17
100
AcDbEntity
  8
0
100
AcDbCircle
 10
1.800017451255068
 20
7.554824006816121
 30
0.0
 40
0.078
100
AcDbArc
 50
0.0000000000000799
 51
90.00000000000003
  0
ARC
  5
574
330
17
100
AcDbEntity
  8
0
100
AcDbCircle
 10
1.800017451255068
 20
7.554574006816127
 30
0.0
 40
0.078
100
AcDbArc
 50
270.0000000000001
 51
0.0000000000001599
  0
ARC
  5
575
330
17
100
AcDbEntity
  8
0
100
AcDbCircle
 10
1.676165717349571
 20
7.55501273632372
 30
0.0
 40
0.1057271041002034
100
AcDbArc
 50
314.5294659509043
 51
43.59311377856191
  0
LINE
  5
576
330
17
100
AcDbEntity
  8
0
100
AcDbLine
 10
1.646654129040238
 20
5.632824006816124
 30
0.0
 11
1.818654129040263
 21
5.632824006816124
 31
0.0
  0
LINE
  5
577
330
17
100
AcDbEntity
  8
0
100
AcDbLine
 10
1.896654129040238
 20
5.554824006816121
 30
0.0
 11
1.896654129040238
 21
5.554574006816127
 31
0.0
  0
LINE
  5
578
330
17
100
AcDbEntity
  8
0
100
AcDbLine
 10
1.818654129040263
 20
5.476574006816124
 30
0.0
 11
1.646654129040238
 21
5.476574006816124
 31
0.0
  0
ARC
  5
579
330
17
100
AcDbEntity
  8
0
100
AcDbCircle
 10
1.818654129040263
 20
5.554824006816121
 30
0.0
 40
0.078
100
AcDbArc
 50
0.0000000000000799
 51
90.00000000000003
  0
ARC
  5
57A
330
17
100
AcDbEntity
  8
0
100
AcDbCircle
 10
1.818654129040263
 20
5.554574006816127
 30
0.0
 40
0.078
100
AcDbArc
 50
270.0000000000001
 51
0.0000000000001599
  0
ARC
  5
57B
330
17
100
AcDbEntity
  8
0
100
AcDbCircle
 10
1.694802395134767
 20
5.55501273632372
 30
0.0
 40
0.1057271041002034
100
AcDbArc
 50
314.5294659509043
 51
43.59311377856191
  0
LINE
  5
57C
330
17
100
AcDbEntity
  8
0
100
AcDbLine
 10
1.646654129040238
 20
3.632824006816124
 30
0.0
 11
1.818654129040263
 21
3.632824006816124
 31
0.0
  0
LINE
  5
57D
330
17
100
AcDbEntity
  8
0
100
AcDbLine
 10
1.896654129040238
 20
3.554824006816121
 30
0.0
 11
1.896654129040238
 21
3.554574006816127
 31
0.0
  0
LINE
  5
57E
330
17
100
AcDbEntity
  8
0
100
AcDbLine
 10
1.818654129040263
 20
3.476574006816124
 30
0.0
 11
1.646654129040238
 21
3.476574006816124
 31
0.0
  0
ARC
  5
57F
330
17
100
AcDbEntity
  8
0
100
AcDbCircle
 10
1.818654129040263
 20
3.554824006816121
 30
0.0
 40
0.078
100
AcDbArc
 50
0.0000000000000799
 51
90.00000000000003
  0
ARC
  5
580
330
17
100
AcDbEntity
  8
0
100
AcDbCircle
 10
1.818654129040263
 20
3.554574006816127
 30
0.0
 40
0.078
100
AcDbArc
 50
270.0000000000001
 51
0.0000000000001599
  0
ARC
  5
581
330
17
100
AcDbEntity
  8
0
100
AcDbCircle
 10
1.694802395134767
 20
3.55501273632372
 30
0.0
 40
0.1057271041002034
100
AcDbArc
 50
314.5294659509043
 51
43.59311377856191
  0
LINE
  5
582
330
17
100
AcDbEntity
  8
0
100
AcDbLine
 10
1.629171377144568
 20
1.087772397857238
 30
0.0
 11
1.801171377144593
 21
1.087772397857238
 31
0.0
  0
LINE
  5
583
330
17
100
AcDbEntity
  8
0
100
AcDbLine
 10
1.879171377144568
 20
1.009772397857235
 30
0.0
 11
1.879171377144568
 21
1.009522397857241
 31
0.0
  0
LINE
  5
584
330
17
100
AcDbEntity
  8
0
100
AcDbLine
 10
1.801171377144593
 20
0.931522397857238
 30
0.0
 11
1.629171377144568
 21
0.931522397857238
 31
0.0
  0
ARC
  5
585
330
17
100
AcDbEntity
  8
0
100
AcDbCircle
 10
1.801171377144593
 20
1.009772397857235
 30
0.0
 40
0.078
100
AcDbArc
 50
0.0000000000000799
 51
90.00000000000003
  0
ARC
  5
586
330
17
100
AcDbEntity
  8
0
100
AcDbCircle
 10
1.801171377144593
 20
1.009522397857241
 30
0.0
 40
0.078
100
AcDbArc
 50
270.0000000000001
 51
0.0000000000001599
  0
ARC
  5
587
330
17
100
AcDbEntity
  8
0
100
AcDbCircle
 10
1.677319643239096
 20
1.009961127364834
 30
0.0
 40
0.1057271041002034
100
AcDbArc
 50
314.5294659509043
 51
43.59311377856191
  0
ARC
  5
588
330
17
100
AcDbEntity
  8
0
100
AcDbCircle
 10
-1.78463084913894
 20
0.759522397857241
 30
0.0
 40
0.078
100
AcDbArc
 50
89.99999999999997
 51
179.9999999999999
  0
ARC
  5
589
330
17
100
AcDbEntity
  8
0
100
AcDbCircle
 10
-1.78463084913894
 20
0.7592723978572469
 30
0.0
 40
0.078
100
AcDbArc
 50
179.9999999999999
 51
269.9999999999999
  0
LINE
  5
58A
330
17
100
AcDbEntity
  8
0
100
AcDbLine
 10
-1.632499999999995
 20
0.8375223978572457
 30
0.0
 11
-1.78463084913894
 21
0.8375223978572439
 31
0.0
  0
LINE
  5
58B
330
17
100
AcDbEntity
  8
0
100
AcDbLine
 10
-1.78463084913894
 20
0.6812723978572439
 30
0.0
 11
-1.632499999999995
 21
0.6812723978572457
 31
0.0
  0
ARC
  5
58C
330
17
100
AcDbEntity
  8
0
100
AcDbCircle
 10
-1.660779115233444
 20
0.7597111273648398
 30
0.0
 40
0.1057271041002034
100
AcDbArc
 50
136.4068862214381
 51
225.4705340490957
  0
LINE
  5
58D
330
17
100
AcDbEntity
  8
0
100
AcDbLine
 10
-1.862630849138915
 20
0.759522397857241
 30
0.0
 11
-1.862630849138915
 21
0.7592723978572469
 31
0.0
  0
ARC
  5
58E
330
17
100
AcDbEntity
  8
0
100
AcDbCircle
 10
-1.802113601034668
 20
3.117574006816115
 30
0.0
 40
0.078
100
AcDbArc
 50
89.99999999999997
 51
179.9999999999999
  0
ARC
  5
58F
330
17
100
AcDbEntity
  8
0
100
AcDbCircle
 10
-1.678261867129171
 20
3.117762736323714
 30
0.0
 40
0.1057271041002034
100
AcDbArc
 50
136.4068862214381
 51
225.4705340490957
  0
ARC
  5
590
330
17
100
AcDbEntity
  8
0
100
AcDbCircle
 10
-1.802113601034668
 20
3.117324006816121
 30
0.0
 40
0.078
100
AcDbArc
 50
179.9999999999999
 51
269.9999999999999
  0
LINE
  5
591
330
17
100
AcDbEntity
  8
0
100
AcDbLine
 10
-1.802113601034668
 20
3.039324006816118
 30
0.0
 11
-1.630113601034642
 21
3.039324006816118
 31
0.0
  0
LINE
  5
592
330
17
100
AcDbEntity
  8
0
100
AcDbLine
 10
-1.880113601034642
 20
3.117574006816115
 30
0.0
 11
-1.880113601034642
 21
3.117324006816121
 31
0.0
  0
LINE
  5
593
330
17
100
AcDbEntity
  8
0
100
AcDbLine
 10
-1.630113601034642
 20
3.195574006816118
 30
0.0
 11
-1.802113601034668
 21
3.195574006816118
 31
0.0
  0
ARC
  5
594
330
17
100
AcDbEntity
  8
0
100
AcDbCircle
 10
-1.802113601034668
 20
5.117324006816121
 30
0.0
 40
0.078
100
AcDbArc
 50
89.99999999999997
 51
179.9999999999999
  0
ARC
  5
595
330
17
100
AcDbEntity
  8
0
100
AcDbCircle
 10
-1.802113601034668
 20
5.117074006816127
 30
0.0
 40
0.078
100
AcDbArc
 50
179.9999999999999
 51
269.9999999999999
  0
LINE
  5
596
330
17
100
AcDbEntity
  8
0
100
AcDbLine
 10
-1.630113601034642
 20
5.195324006816124
 30
0.0
 11
-1.802113601034668
 21
5.195324006816124
 31
0.0
  0
LINE
  5
597
330
17
100
AcDbEntity
  8
0
100
AcDbLine
 10
-1.802113601034668
 20
5.039074006816124
 30
0.0
 11
-1.630113601034642
 21
5.039074006816124
 31
0.0
  0
ARC
  5
598
330
17
100
AcDbEntity
  8
0
100
AcDbCircle
 10
-1.678261867129171
 20
5.11751273632372
 30
0.0
 40
0.1057271041002034
100
AcDbArc
 50
136.4068862214381
 51
225.4705340490957
  0
LINE
  5
599
330
17
100
AcDbEntity
  8
0
100
AcDbLine
 10
-1.880113601034642
 20
5.117324006816121
 30
0.0
 11
-1.880113601034642
 21
5.117074006816127
 31
0.0
  0
ARC
  5
59A
330
17
100
AcDbEntity
  8
0
100
AcDbCircle
 10
-1.802113601034668
 20
7.117324006816121
 30
0.0
 40
0.078
100
AcDbArc
 50
89.99999999999997
 51
179.9999999999999
  0
ARC
  5
59B
330
17
100
AcDbEntity
  8
0
100
AcDbCircle
 10
-1.802113601034668
 20
7.117074006816127
 30
0.0
 40
0.078
100
AcDbArc
 50
179.9999999999999
 51
269.9999999999999
  0
LINE
  5
59C
330
17
100
AcDbEntity
  8
0
100
AcDbLine
 10
-1.630113601034642
 20
7.195324006816124
 30
0.0
 11
-1.802113601034668
 21
7.195324006816124
 31
0.0
  0
LINE
  5
59D
330
17
100
AcDbEntity
  8
0
100
AcDbLine
 10
-1.802113601034668
 20
7.039074006816124
 30
0.0
 11
-1.630113601034642
 21
7.039074006816124
 31
0.0
  0
ARC
  5
59E
330
17
100
AcDbEntity
  8
0
100
AcDbCircle
 10
-1.678261867129171
 20
7.11751273632372
 30
0.0
 40
0.1057271041002034
100
AcDbArc
 50
136.4068862214381
 51
225.4705340490957
  0
LINE
  5
59F
330
17
100
AcDbEntity
  8
0
100
AcDbLine
 10
-1.880113601034642
 20
7.117324006816121
 30
0.0
 11
-1.880113601034642
 21
7.117074006816127
 31
0.0
  0
ARC
  5
5D7
330
17
100
AcDbEntity
  8
0
100
AcDbCircle
 10
10.51962453675788
 20
9.277232082887677
 30
0.0
 40
0.14
100
AcDbArc
 50
162.212647605403
 51
180.0
  0
LINE
  5
703
330
17
100
AcDbEntity
  8
0
100
AcDbLine
 10
0.5200383264763477
 20
3.957318801566972
 30
0.0
 11
0.5189401634367687
 21
4.576694051767051
 31
0.0
  0
ARC
  5
704
330
17
100
AcDbEntity
  8
0
100
AcDbCircle
 10
0.7200383264763453
 20
3.957318801566972
 30
0.0
 40
0.2
100
AcDbArc
 50
180.0
 51
257.3643749069807
  0
LINE
  5
705
330
17
100
AcDbEntity
  8
0
100
AcDbLine
 10
-0.4193515569966735
 20
1.957318801567027
 30
0.0
 11
-0.4182533939570945
 21
2.576694051767106
 31
0.0
  0
LINE
  5
706
330
17
100
AcDbEntity
  8
0
100
AcDbLine
 10
0.5116681243957544
 20
1.957318801566977
 30
0.0
 11
0.5105699613561754
 21
2.576694051767056
 31
0.0
  0
ARC
  5
708
330
17
100
AcDbEntity
  8
0
100
AcDbCircle
 10
-0.6109813549160812
 20
5.957318801567022
 30
0.0
 40
0.2
100
AcDbArc
 50
282.6356250930193
 51
0.0
  0
LINE
  5
709
330
17
100
AcDbEntity
  8
0
100
AcDbLine
 10
-0.4109813549160837
 20
5.957318801567022
 30
0.0
 11
-0.4098831918765047
 21
6.576694051767101
 31
0.0
  0
ARC
  5
70A
330
17
100
AcDbEntity
  8
0
100
AcDbCircle
 10
0.7200383264763417
 20
5.957318801566972
 30
0.0
 40
0.2
100
AcDbArc
 50
180.0
 51
257.3643749069807
  0
LINE
  5
70B
330
17
100
AcDbEntity
  8
0
100
AcDbLine
 10
0.5200383264763442
 20
5.957318801566972
 30
0.0
 11
0.5189401634367652
 21
6.576694051767051
 31
0.0
  0
LINE
  5
70D
330
17
100
AcDbEntity
  8
0
100
AcDbLine
 10
0.5127445706649372
 20
7.957318801567022
 30
0.0
 11
0.5116681243957597
 21
9.080694051767102
 31
0.0
  0
ARC
  5
70E
330
17
100
AcDbEntity
  8
0
100
AcDbCircle
 10
0.7127445706649365
 20
7.957318801567022
 30
0.0
 40
0.2
100
AcDbArc
 50
180.0
 51
257.3643749069807
  0
ARC
  5
710
330
17
100
AcDbEntity
  8
0
100
AcDbCircle
 10
0.6253429406556528
 20
17.20527507060989
 30
0.0
 40
0.2
100
AcDbArc
 50
180.0
 51
257.3643749069807
  0
LINE
  5
711
330
17
100
AcDbEntity
  8
0
100
AcDbLine
 10
0.4253429406556535
 20
17.20527507060989
 30
0.0
 11
0.4253429406556535
 21
17.68177813453197
 31
0.0
  0
LINE
  5
71A
330
17
100
AcDbEntity
  8
0
100
AcDbLine
 10
-0.6493293354267831
 20
14.11471134256378
 30
0.0
 11
-0.7661472648275005
 21
14.11471134256378
 31
0.0
  0
ARC
  5
71B
330
17
100
AcDbEntity
  8
0
100
AcDbCircle
 10
-0.6493293354267831
 20
14.02921134256378
 30
0.0
 40
0.0855
100
AcDbArc
 50
359.9999999999999
 51
90.84316433568006
  0
ARC
  5
71C
330
17
100
AcDbEntity
  8
0
100
AcDbCircle
 10
-0.7629169264304405
 20
14.02921134256378
 30
0.0
 40
0.0855
100
AcDbArc
 50
90.23662186400371
 51
179.7721369395466
  0
LINE
  5
71D
330
17
100
AcDbEntity
  8
0
100
AcDbLine
 10
-0.8484162502880981
 20
14.0295513718029
 30
0.0
 11
-1.557339444115391
 21
14.02921134256378
 31
0.0
  0
LINE
  5
71E
330
17
100
AcDbEntity
  8
0
100
AcDbLine
 10
-0.5638293354267852
 20
16.02921134256378
 30
0.0
 11
0.5741504471960024
 21
16.02921134256378
 31
0.0
  0
LINE
  5
71F
330
17
100
AcDbEntity
  8
0
100
AcDbLine
 10
-0.8484162502880981
 20
16.02887131332466
 30
0.0
 11
-1.48733944411539
 21
16.02921134256378
 31
0.0
  0
ARC
  5
720
330
17
100
AcDbEntity
  8
0
100
AcDbCircle
 10
-0.7629169264304405
 20
16.02921134256378
 30
0.0
 40
0.0855
100
AcDbArc
 50
180.2278630604534
 51
269.7633781359963
  0
ARC
  5
721
330
17
100
AcDbEntity
  8
0
100
AcDbCircle
 10
-0.6493293354267831
 20
16.02921134256378
 30
0.0
 40
0.0855
100
AcDbArc
 50
269.1568356643199
 51
0.0000000000000649
  0
LINE
  5
722
330
17
100
AcDbEntity
  8
0
100
AcDbLine
 10
-0.6493293354267831
 20
15.94371134256378
 30
0.0
 11
-0.7661472648275005
 21
15.94371134256378
 31
0.0
  0
LINE
  5
723
330
17
100
AcDbEntity
  8
0
100
AcDbLine
 10
0.8587373620573171
 20
16.02887131332466
 30
0.0
 11
1.498423238340354
 21
16.02917813344803
 31
0.0
  0
LINE
  5
724
330
17
100
AcDbEntity
  8
0
100
AcDbLine
 10
0.6596504471960021
 20
15.94371134256378
 30
0.0
 11
0.7764683765967195
 21
15.94371134256378
 31
0.0
  0
ARC
  5
725
330
17
100
AcDbEntity
  8
0
100
AcDbCircle
 10
0.6596504471960021
 20
16.02921134256378
 30
0.0
 40
0.0855
100
AcDbArc
 50
179.9999999999999
 51
270.8431643356801
  0
ARC
  5
726
330
17
100
AcDbEntity
  8
0
100
AcDbCircle
 10
0.7732380381996595
 20
16.02921134256378
 30
0.0
 40
0.0855
100
AcDbArc
 50
270.2366218640037
 51
359.7721369395466
  0
ENDSEC
  0
SECTION
  2
OBJECTS
  0
DICTIONARY
  5
C
330
0
100
AcDbDictionary
281
     1
  3
ACAD_COLOR
350
72B
  3
ACAD_GROUP
350
D
  3
ACAD_LAYOUT
350
63E
  3
ACAD_MATERIAL
350
72A
  3
ACAD_MLINESTYLE
350
1A
  3
ACAD_PLOTSETTINGS
350
63F
  3
ACAD_PLOTSTYLENAME
350
63C
  3
ACAD_TABLESTYLE
350
72C
  3
ACDBHEADERROUNDTRIPXREC
350
745
  3
ACDBVARIABLEDICTIONARY
350
46
  0
DICTIONARY
  5
72B
102
{ACAD_REACTORS
330
C
102
}
330
C
100
AcDbDictionary
281
     1
  0
DICTIONARY
  5
D
102
{ACAD_REACTORS
330
C
102
}
330
C
100
AcDbDictionary
281
     1
  0
DICTIONARY
  5
63E
102
{ACAD_REACTORS
330
C
102
}
330
C
100
AcDbDictionary
281
     1
  3
Layout1
350
641
  3
Model
350
640
  0
DICTIONARY
  5
72A
102
{ACAD_REACTORS
330
C
102
}
330
C
100
AcDbDictionary
281
     1
  0
DICTIONARY
  5
1A
102
{ACAD_REACTORS
330
C
102
}
330
C
100
AcDbDictionary
281
     1
  3
STANDARD
350
1B
  0
DICTIONARY
  5
63F
102
{ACAD_REACTORS
330
C
102
}
330
C
100
AcDbDictionary
281
     1
  0
ACDBDICTIONARYWDFLT
  5
63C
102
{ACAD_REACTORS
330
C
102
}
330
C
100
AcDbDictionary
281
     1
  3
Normal
350
63D
100
AcDbDictionaryWithDefault
340
63D
  0
DICTIONARY
  5
72C
102
{ACAD_REACTORS
330
C
102
}
330
C
100
AcDbDictionary
281
     1
  3
Standard
350
72D
  0
DICTIONARY
  5
745
102
{ACAD_REACTORS
330
C
102
}
330
C
100
AcDbDictionary
281
     1
  3
COLORDICT
350
746
  3
MATERIALDICT
350
747
  0
DICTIONARY
  5
46
102
{ACAD_REACTORS
330
C
102
}
330
C
100
AcDbDictionary
281
     1
  3
CTABLESTYLE
350
741
  3
DIMADEC
350
47
  0
LAYOUT
  5
641
102
{ACAD_REACTORS
330
63E
102
}
102
{ACAD_XDICTIONARY
360
748
102
}
330
63E
100
AcDbPlotSettings
  1

  2
HP LaserJet 2100 Series PS
  4

  6

 40
0.0
 41
0.0
 42
0.0
 43
0.0
 44
0.0
 45
0.0
 46
0.0
 47
0.0
 48
0.0
 49
0.0
140
0.0
141
0.0
142
1.0
143
1.0
 70
   688
 72
     0
 73
     0
 74
     5
  7

 75
    16
147
1.0
148
0.0
149
0.0
100
AcDbLayout
  1
Layout1
 70
     0
 71
     1
 10
0.0
 20
0.0
 11
12.0
 21
9.0
 12
0.0
 22
0.0
 32
0.0
 14
1.000000000000000E+20
 24
1.000000000000000E+20
 34
1.000000000000000E+20
 15
-1.000000000000000E+20
 25
-1.000000000000000E+20
 35
-1.000000000000000E+20
146
0.0
 13
0.0
 23
0.0
 33
0.0
 16
1.0
 26
0.0
 36
0.0
 17
0.0
 27
1.0
 37
0.0
 76
     0
330
14
  0
LAYOUT
  5
640
102
{ACAD_REACTORS
330
63E
102
}
102
{ACAD_XDICTIONARY
360
74A
102
}
330
63E
100
AcDbPlotSettings
  1

  2
HP LaserJet 2100 Series PS
  4
Letter
  6

 40
5.365749835968018
 41
5.408084392547607
 42
5.4080810546875
 43
5.365753173828125
 44
215.8999938964844
 45
279.3999938964844
 46
0.0
 47
0.0
 48
0.0
 49
0.0
140
0.0
141
0.0
142
1.0
143
1.0
 70
 11952
 72
     0
 73
     1
 74
     0
  7

 75
     0
147
1.0
148
-76.5375990987023
149
5.266920935854677
100
AcDbLayout
  1
Model
 70
     1
 71
     0
 10
0.0
 20
0.0
 11
12.0
 21
9.0
 12
0.0
 22
0.0
 32
0.0
 14
0.0
 24
0.0
 34
0.0
 15
0.0
 25
0.0
 35
0.0
146
0.0
 13
0.0
 23
0.0
 33
0.0
 16
1.0
 26
0.0
 36
0.0
 17
0.0
 27
1.0
 37
0.0
 76
     0
330
17
  0
MLINESTYLE
  5
1B
102
{ACAD_REACTORS
330
1A
102
}
330
1A
100
AcDbMlineStyle
  2
STANDARD
 70
     0
  3

 62
   256
 51
90.0
 52
90.0
 71
     2
 49
0.5
 62
   256
  6
BYLAYER
 49
-0.5
 62
   256
  6
BYLAYER
  0
ACDBPLACEHOLDER
  5
63D
102
{ACAD_REACTORS
330
63C
102
}
330
63C
  0
ACAD_PROXY_OBJECT
  5
72D
102
{ACAD_REACTORS
330
72C
102
}
330
72C
100
AcDbProxyObject
 90
      499
 91
      520
 95
   983063
 70
     0
 93
     1841
310
4214DD185B99185C9928B81E85EB51B8AE3F2E07A17AD46E2B8FC02B5E8DC0F42B1CFD028000000C1008070000C3001FDFF8000000C1003FBFF000000182007F7FE00000030400FEFFC00000060801FDFF8000000C1003FBFF00000018200000000000000681FA0B0000001820100E000186003FBFF000000182007F7FE000
310
00030400FEFFC00000060801FDFF8000000C1003FBFF000000182007F7FE000000304000AD7A3703D0AC73F4160000003040201C00030C007F7FE00000030400FEFFC00000060801FDFF8000000C1003FBFF000000182007F7FE00000030400FEFFC000000608000
340
F
340
F
340
F
 94
        0
  0
XRECORD
  5
746
102
{ACAD_REACTORS
330
745
102
}
330
745
100
AcDbXrecord
340
72B
  0
XRECORD
  5
747
102
{ACAD_REACTORS
330
745
102
}
330
745
100
AcDbXrecord
340
72A
  0
DICTIONARYVAR
  5
741
102
{ACAD_REACTORS
330
46
102
}
330
46
100
DictionaryVariables
280
     0
  1
STANDARD
  0
DICTIONARYVAR
  5
47
102
{ACAD_REACTORS
330
46
102
}
330
46
100
DictionaryVariables
280
     0
  1
0
  0
DICTIONARY
  5
748
330
641
100
AcDbDictionary
280
     1
281
     1
  3
ACAD_XREC_ROUNDTRIP
360
749
  0
DICTIONARY
  5
74A
330
640
100
AcDbDictionary
280
     1
281
     1
  3
ACAD_XREC_ROUNDTRIP
360
74B
  0
XRECORD
  5
749
102
{ACAD_REACTORS
330
748
102
}
330
748
100
AcDbXrecord
102
SHADEPLOT
 70
     0
102
SHADEPLOTRESLEVEL
 70
     2
102
SHADEPLOTCUSTOMDPI
 70
   300
  0
XRECORD
  5
74B
102
{ACAD_REACTORS
330
74A
102
}
330
74A
100
AcDbXrecord
102
SHADEPLOT
 70
     0
102
SHADEPLOTRESLEVEL
 70
     2
102
SHADEPLOTCUSTOMDPI
 70
   300
  0
ENDSEC
  0
EOF
