  0
SECTION
  2
HEADER
  9
$ACADVER
  1
AC1015
  9
$ACADMAINTVER
 70
     6
  9
$DWGCODEPAGE
  3
ANSI_1252
  9
$INSBASE
 10
0.0
 20
0.0
 30
0.0
  9
$EXTMIN
 10
-2.46093738062882
 20
-0.028686430338638
 30
-0.0015258207003583
  9
$EXTMAX
 10
7.792968820190254
 20
21.68762214212636
 30
0.0000000349246037
  9
$LIMMIN
 10
0.0
 20
0.0
  9
$LIMMAX
 10
52.5
 20
40.0
  9
$ORTHOMODE
 70
     1
  9
$REGENMODE
 70
     1
  9
$FILLMODE
 70
     1
  9
$QTEXTMODE
 70
     0
  9
$MIRRTEXT
 70
     0
  9
$LTSCALE
 40
0.5
  9
$ATTMODE
 70
     1
  9
$TEXTSIZE
 40
0.45
  9
$TRACEWID
 40
0.05
  9
$TEXTSTYLE
  7
STANDARD
  9
$CLAYER
  8
0
  9
$CELTYPE
  6
ByLayer
  9
$CECOLOR
 62
   256
  9
$CELTSCALE
 40
1.0
  9
$DISPSILH
 70
     0
  9
$DIMSCALE
 40
5.0
  9
$DIMASZ
 40
0.125
  9
$DIMEXO
 40
0.062
  9
$DIMDLI
 40
0.375
  9
$DIMRND
 40
0.0
  9
$DIMDLE
 40
0.0
  9
$DIMEXE
 40
0.08
  9
$DIMTP
 40
0.0
  9
$DIMTM
 40
0.0
  9
$DIMTXT
 40
0.09
  9
$DIMCEN
 40
-0.06
  9
$DIMTSZ
 40
0.0
  9
$DIMTOL
 70
     0
  9
$DIMLIM
 70
     0
  9
$DIMTIH
 70
     1
  9
$DIMTOH
 70
     1
  9
$DIMSE1
 70
     0
  9
$DIMSE2
 70
     0
  9
$DIMTAD
 70
     0
  9
$DIMZIN
 70
     0
  9
$DIMBLK
  1

  9
$DIMASO
 70
     0
  9
$DIMSHO
 70
     0
  9
$DIMPOST
  1

  9
$DIMAPOST
  1

  9
$DIMALT
 70
     0
  9
$DIMALTD
 70
     2
  9
$DIMALTF
 40
25.4
  9
$DIMLFAC
 40
1.0
  9
$DIMTOFL
 70
     0
  9
$DIMTVP
 40
0.0
  9
$DIMTIX
 70
     0
  9
$DIMSOXD
 70
     0
  9
$DIMSAH
 70
     0
  9
$DIMBLK1
  1

  9
$DIMBLK2
  1

  9
$DIMSTYLE
  2
Standard
  9
$DIMCLRD
 70
     0
  9
$DIMCLRE
 70
     0
  9
$DIMCLRT
 70
     0
  9
$DIMTFAC
 40
1.0
  9
$DIMGAP
 40
0.09
  9
$DIMJUST
 70
     0
  9
$DIMSD1
 70
     0
  9
$DIMSD2
 70
     0
  9
$DIMTOLJ
 70
     1
  9
$DIMTZIN
 70
     0
  9
$DIMALTZ
 70
     0
  9
$DIMALTTZ
 70
     0
  9
$DIMUPT
 70
     0
  9
$DIMDEC
 70
     4
  9
$DIMTDEC
 70
     4
  9
$DIMALTU
 70
     5
  9
$DIMALTTD
 70
     2
  9
$DIMTXSTY
  7
STANDARD
  9
$DIMAUNIT
 70
     0
  9
$DIMADEC
 70
     0
  9
$DIMALTRND
 40
0.0
  9
$DIMAZIN
 70
     0
  9
$DIMDSEP
 70
    46
  9
$DIMATFIT
 70
     3
  9
$DIMFRAC
 70
     0
  9
$DIMLDRBLK
  1

  9
$DIMLUNIT
 70
     5
  9
$DIMLWD
 70
    -2
  9
$DIMLWE
 70
    -2
  9
$DIMTMOVE
 70
     2
  9
$LUNITS
 70
     5
  9
$LUPREC
 70
     4
  9
$SKETCHINC
 40
0.1
  9
$FILLETRAD
 40
0.125
  9
$AUNITS
 70
     0
  9
$AUPREC
 70
     0
  9
$MENU
  1
acad
  9
$ELEVATION
 40
0.0
  9
$PELEVATION
 40
0.0
  9
$THICKNESS
 40
0.0
  9
$LIMCHECK
 70
     0
  9
$CHAMFERA
 40
0.0
  9
$CHAMFERB
 40
0.0
  9
$CHAMFERC
 40
0.0
  9
$CHAMFERD
 40
0.0
  9
$SKPOLY
 70
     0
  9
$TDCREATE
 40
2448964.720649769
  9
$TDUCREATE
 40
2448965.053983102
  9
$TDUPDATE
 40
2453788.658899294
  9
$TDUUPDATE
 40
2453788.992232627
  9
$TDINDWG
 40
0.0314125926
  9
$TDUSRTIMER
 40
0.0314125926
  9
$USRTIMER
 70
     1
  9
$ANGBASE
 50
0.0
  9
$ANGDIR
 70
     0
  9
$PDMODE
 70
     0
  9
$PDSIZE
 40
0.0
  9
$PLINEWID
 40
0.0
  9
$SPLFRAME
 70
     0
  9
$SPLINETYPE
 70
     6
  9
$SPLINESEGS
 70
     8
  9
$HANDSEED
  5
12E
  9
$SURFTAB1
 70
     6
  9
$SURFTAB2
 70
     6
  9
$SURFTYPE
 70
     6
  9
$SURFU
 70
     6
  9
$SURFV
 70
     6
  9
$UCSBASE
  2

  9
$UCSNAME
  2

  9
$UCSORG
 10
0.0
 20
0.0
 30
0.0
  9
$UCSXDIR
 10
1.0
 20
0.0
 30
0.0
  9
$UCSYDIR
 10
0.0
 20
1.0
 30
0.0
  9
$UCSORTHOREF
  2

  9
$UCSORTHOVIEW
 70
     0
  9
$UCSORGTOP
 10
0.0
 20
0.0
 30
0.0
  9
$UCSORGBOTTOM
 10
0.0
 20
0.0
 30
0.0
  9
$UCSORGLEFT
 10
0.0
 20
0.0
 30
0.0
  9
$UCSORGRIGHT
 10
0.0
 20
0.0
 30
0.0
  9
$UCSORGFRONT
 10
0.0
 20
0.0
 30
0.0
  9
$UCSORGBACK
 10
0.0
 20
0.0
 30
0.0
  9
$PUCSBASE
  2

  9
$PUCSNAME
  2

  9
$PUCSORG
 10
0.0
 20
0.0
 30
0.0
  9
$PUCSXDIR
 10
1.0
 20
0.0
 30
0.0
  9
$PUCSYDIR
 10
0.0
 20
1.0
 30
0.0
  9
$PUCSORTHOREF
  2

  9
$PUCSORTHOVIEW
 70
     0
  9
$PUCSORGTOP
 10
0.0
 20
0.0
 30
0.0
  9
$PUCSORGBOTTOM
 10
0.0
 20
0.0
 30
0.0
  9
$PUCSORGLEFT
 10
0.0
 20
0.0
 30
0.0
  9
$PUCSORGRIGHT
 10
0.0
 20
0.0
 30
0.0
  9
$PUCSORGFRONT
 10
0.0
 20
0.0
 30
0.0
  9
$PUCSORGBACK
 10
0.0
 20
0.0
 30
0.0
  9
$USERI1
 70
     0
  9
$USERI2
 70
     0
  9
$USERI3
 70
     0
  9
$USERI4
 70
     0
  9
$USERI5
 70
     0
  9
$USERR1
 40
0.0
  9
$USERR2
 40
0.0
  9
$USERR3
 40
0.0
  9
$USERR4
 40
0.0
  9
$USERR5
 40
0.0
  9
$WORLDVIEW
 70
     1
  9
$SHADEDGE
 70
     3
  9
$SHADEDIF
 70
    70
  9
$TILEMODE
 70
     1
  9
$MAXACTVP
 70
    16
  9
$PINSBASE
 10
0.0
 20
0.0
 30
0.0
  9
$PLIMCHECK
 70
     0
  9
$PEXTMIN
 10
1.000000000000000E+20
 20
1.000000000000000E+20
 30
1.000000000000000E+20
  9
$PEXTMAX
 10
-1.000000000000000E+20
 20
-1.000000000000000E+20
 30
-1.000000000000000E+20
  9
$PLIMMIN
 10
0.0
 20
0.0
  9
$PLIMMAX
 10
12.0
 20
9.0
  9
$UNITMODE
 70
     0
  9
$VISRETAIN
 70
     0
  9
$PLINEGEN
 70
     0
  9
$PSLTSCALE
 70
     0
  9
$TREEDEPTH
 70
  3020
  9
$CMLSTYLE
  2
Standard
  9
$CMLJUST
 70
     0
  9
$CMLSCALE
 40
1.0
  9
$PROXYGRAPHICS
 70
     1
  9
$MEASUREMENT
 70
     0
  9
$CELWEIGHT
370
    -1
  9
$ENDCAPS
280
     0
  9
$JOINSTYLE
280
     0
  9
$LWDISPLAY
290
     0
  9
$INSUNITS
 70
     0
  9
$HYPERLINKBASE
  1

  9
$STYLESHEET
  1

  9
$XEDIT
290
     1
  9
$CEPSNTYPE
380
     0
  9
$PSTYLEMODE
290
     1
  9
$FINGERPRINTGUID
  2
{07DDD43B-22A5-4B83-B95D-6C67F9BBDA71}
  9
$VERSIONGUID
  2
{CCA62662-B459-44CA-B3E5-3F0C005B4A7D}
  9
$EXTNAMES
290
     1
  9
$PSVPSCALE
 40
0.0
  9
$OLESTARTUP
290
     0
  0
ENDSEC
  0
SECTION
  2
CLASSES
  0
CLASS
  1
ACDBDICTIONARYWDFLT
  2
AcDbDictionaryWithDefault
  3
AutoCAD 2000
 90
        0
280
     0
281
     0
  0
CLASS
  1
ACDBPLACEHOLDER
  2
AcDbPlaceHolder
  3
ObjectDBX Classes
 90
        0
280
     0
281
     0
  0
CLASS
  1
LAYOUT
  2
AcDbLayout
  3
ObjectDBX Classes
 90
        0
280
     0
281
     0
  0
CLASS
  1
DICTIONARYVAR
  2
AcDbDictionaryVar
  3
AutoCAD 2000
 90
        0
280
     0
281
     0
  0
ENDSEC
  0
SECTION
  2
TABLES
  0
TABLE
  2
VPORT
  5
19
330
0
100
AcDbSymbolTable
 70
     2
  0
VPORT
  5
124
330
19
100
AcDbSymbolTableRecord
100
AcDbViewportTableRecord
  2
*Active
 70
     0
 10
0.0
 20
0.0
 11
1.0
 21
1.0
 12
25.01953130968558
 22
19.98565678483068
 13
0.0
 23
0.0
 14
0.0625
 24
0.0625
 15
0.25
 25
0.25
 16
0.0
 26
0.0
 36
1.0
 17
0.0
 27
0.0
 37
0.0
 40
40.66238595166325
 41
1.925925925925926
 42
50.0
 43
0.0
 44
0.0
 50
0.0
 51
0.0
 71
     0
 72
   100
 73
     1
 74
     1
 75
     0
 76
     0
 77
     0
 78
     0
281
     0
 65
     1
110
0.0
120
0.0
130
0.0
111
1.0
121
0.0
131
0.0
112
0.0
122
1.0
132
0.0
 79
     0
146
0.0
  0
ENDTAB
  0
TABLE
  2
LTYPE
  5
14
330
0
100
AcDbSymbolTable
 70
     2
  0
LTYPE
  5
15
330
14
100
AcDbSymbolTableRecord
100
AcDbLinetypeTableRecord
  2
ByBlock
 70
     0
  3

 72
    65
 73
     0
 40
0.0
  0
LTYPE
  5
16
330
14
100
AcDbSymbolTableRecord
100
AcDbLinetypeTableRecord
  2
ByLayer
 70
     0
  3

 72
    65
 73
     0
 40
0.0
  0
LTYPE
  5
8
330
14
100
AcDbSymbolTableRecord
100
AcDbLinetypeTableRecord
  2
CONTINUOUS
 70
     0
  3
Solid line
 72
    65
 73
     0
 40
0.0
  0
LTYPE
  5
27
330
14
100
AcDbSymbolTableRecord
100
AcDbLinetypeTableRecord
  2
DASHED
 70
     0
  3
__ __ __ __ __ __ __ __ __ __ __ __ __ __ __
 72
    65
 73
     2
 40
0.75
 49
0.5
 74
     0
 49
-0.25
 74
     0
  0
ENDTAB
  0
TABLE
  2
LAYER
  5
10
330
0
100
AcDbSymbolTable
 70
     2
  0
LAYER
  5
4
330
10
100
AcDbSymbolTableRecord
100
AcDbLayerTableRecord
  2
0
 70
     0
 62
     7
  6
CONTINUOUS
370
    -3
390
5
  0
ENDTAB
  0
TABLE
  2
STYLE
  5
11
330
0
100
AcDbSymbolTable
 70
     1
  0
STYLE
  5
12
330
11
100
AcDbSymbolTableRecord
100
AcDbTextStyleTableRecord
  2
STANDARD
 70
     0
 40
0.0
 41
1.0
 50
0.0
 71
     0
 42
0.45
  3
TXT
  4

  0
ENDTAB
  0
TABLE
  2
VIEW
  5
17
330
0
100
AcDbSymbolTable
 70
     0
  0
ENDTAB
  0
TABLE
  2
UCS
  5
18
330
0
100
AcDbSymbolTable
 70
     0
  0
ENDTAB
  0
TABLE
  2
APPID
  5
1B
330
0
100
AcDbSymbolTable
 70
     1
  0
APPID
  5
1C
330
1B
100
AcDbSymbolTableRecord
100
AcDbRegAppTableRecord
  2
ACAD
 70
     0
  0
ENDTAB
  0
TABLE
  2
DIMSTYLE
  5
1D
330
0
100
AcDbSymbolTable
 70
     1
100
AcDbDimStyleTable
  0
DIMSTYLE
105
23
330
1D
100
AcDbSymbolTableRecord
100
AcDbDimStyleTableRecord
  2
Standard
 70
     0
  3

  4

340
12
  0
ENDTAB
  0
TABLE
  2
BLOCK_RECORD
  5
1
330
0
100
AcDbSymbolTable
 70
     3
  0
BLOCK_RECORD
  5
2
330
1
100
AcDbSymbolTableRecord
100
AcDbBlockTableRecord
  2
*Model_Space
340
A
  0
BLOCK_RECORD
  5
C
330
1
100
AcDbSymbolTableRecord
100
AcDbBlockTableRecord
  2
*Paper_Space
340
F
  0
ENDTAB
  0
ENDSEC
  0
SECTION
  2
BLOCKS
  0
BLOCK
  5
3
330
2
100
AcDbEntity
  8
0
100
AcDbBlockBegin
  2
*Model_Space
 70
     0
 10
0.0
 20
0.0
 30
0.0
  3
*Model_Space
  1

  4

  0
ENDBLK
  5
9
330
2
100
AcDbEntity
  8
0
100
AcDbBlockEnd
  0
BLOCK
  5
D
330
C
100
AcDbEntity
 67
     1
  8
0
100
AcDbBlockBegin
  2
*Paper_Space
 70
     0
 10
0.0
 20
0.0
 30
0.0
  3
*Paper_Space
  1

  4

  0
ENDBLK
  5
E
330
C
100
AcDbEntity
 67
     1
  8
0
100
AcDbBlockEnd
  0
ENDSEC
  0
SECTION
  2
ENTITIES
  0
LINE
  5
98
330
2
100
AcDbEntity
  8
0
  6
DASHED
100
AcDbLine
 10
0.6952387132591227
 20
2.624999999999998
 30
0.0
 11
0.6952387132591227
 21
21.6875
 31
0.0
  0
LINE
  5
99
330
2
100
AcDbEntity
  8
0
100
AcDbLine
 10
0.7577387132591227
 20
2.625000000000002
 30
0.0
 11
0.7577387132591227
 21
21.6875
 31
0.0
  0
LINE
  5
9A
330
2
100
AcDbEntity
  8
0
100
AcDbLine
 10
1.144965429754159
 20
0.1250000000000018
 30
0.0
 11
1.144965429754159
 21
19.1875
 31
0.0
  0
LINE
  5
9B
330
2
100
AcDbEntity
  8
0
100
AcDbLine
 10
1.185139655359556
 20
0.1250000000000018
 30
0.0
 11
1.185139655359556
 21
19.1875
 31
0.0
  0
LINE
  5
9C
330
2
100
AcDbEntity
  8
0
100
AcDbLine
 10
-1.144965429754144
 20
0.1250000000000018
 30
0.0
 11
-1.144965429754144
 21
19.1875
 31
0.0
  0
LINE
  5
9D
330
2
100
AcDbEntity
  8
0
100
AcDbLine
 10
-1.185139655359556
 20
0.1249999999999982
 30
0.0
 11
-1.185139655359556
 21
19.1875
 31
0.0
  0
LINE
  5
9E
330
2
100
AcDbEntity
  8
0
100
AcDbLine
 10
-2.457528547562113
 20
3.249999999999998
 30
0.0
 11
-2.457528547562113
 21
19.1875
 31
0.0
  0
LINE
  5
9F
330
2
100
AcDbEntity
  8
0
100
AcDbLine
 10
6.542471452437887
 20
3.249999999999998
 30
0.0
 11
6.542471452437887
 21
21.6875
 31
0.0
  0
LINE
  5
A0
330
2
100
AcDbEntity
  8
0
100
AcDbLine
 10
7.792471452437887
 20
21.6875
 30
0.0
 11
7.792471452437887
 21
4.124999999999998
 31
0.0
  0
LINE
  5
A1
330
2
100
AcDbEntity
  8
0
100
AcDbLine
 10
6.542471452437887
 20
3.249999999999998
 30
0.0
 11
3.060076537551602
 21
3.249999999999998
 31
0.0
  0
LINE
  5
A2
330
2
100
AcDbEntity
  8
0
100
AcDbLine
 10
-0.9606874188059251
 20
0.2530051987014286
 30
0.0
 11
0.6243349050253713
 21
2.41907853926938
 31
0.0
  0
LINE
  5
A3
330
2
100
AcDbEntity
  8
0
100
AcDbLine
 10
1.060139655359556
 20
0.0000000000000018
 30
0.0
 11
-1.060139655359556
 21
-0.0000000000000018
 31
0.0
  0
LINE
  5
A4
330
2
100
AcDbEntity
  8
0
100
AcDbLine
 10
1.082465429754159
 20
0.0625000000000018
 30
0.0
 11
-1.082465429754144
 21
0.0625000000000018
 31
0.0
  0
LINE
  5
A5
330
2
100
AcDbEntity
  8
0
  6
DASHED
100
AcDbLine
 10
0.7577387132591227
 20
3.249999999999998
 30
0.0
 11
-1.185139655359556
 21
3.249999999999998
 31
0.0
  0
ARC
  5
A6
330
2
100
AcDbEntity
  8
0
100
AcDbCircle
 10
-1.060139655359556
 20
0.1249999999999982
 30
0.0
 40
0.125
100
AcDbArc
 50
180.0
 51
270.0
  0
ARC
  5
A7
330
2
100
AcDbEntity
  8
0
100
AcDbCircle
 10
-1.082465429754144
 20
0.1250000000000018
 30
0.0
 40
0.0625
100
AcDbArc
 50
180.0
 51
270.0
  0
LINE
  5
A8
330
2
100
AcDbEntity
  8
0
100
AcDbLine
 10
-1.185139655359556
 20
3.249999999999998
 30
0.0
 11
-2.457528547562113
 21
3.249999999999998
 31
0.0
  0
LINE
  5
A9
330
2
100
AcDbEntity
  8
0
  6
DASHED
100
AcDbLine
 10
3.042718335953985
 20
2.581774220226828
 30
0.0
 11
1.127607228156528
 21
0.0817742202268281
 31
0.0
  0
LINE
  5
AA
330
2
100
AcDbEntity
  8
0
100
AcDbLine
 10
1.150423252164323
 20
0.0385484404536509
 30
0.0
 11
3.065534359961767
 21
2.538548440453651
 31
0.0
  0
ARC
  5
AB
330
2
100
AcDbEntity
  8
0
100
AcDbCircle
 10
1.060139655359556
 20
0.1250000000000018
 30
0.0
 40
0.125
100
AcDbArc
 50
270.0
 51
0.0
  0
ARC
  5
AC
330
2
100
AcDbEntity
  8
0
100
AcDbCircle
 10
1.082465429754159
 20
0.1250000000000018
 30
0.0
 40
0.0625
100
AcDbArc
 50
270.0
 51
0.0
  0
LINE
  5
AD
330
2
100
AcDbEntity
  8
0
  6
DASHED
100
AcDbLine
 10
2.997576537551602
 20
2.562500000000002
 30
0.0
 11
1.082465588724112
 21
2.562500000000002
 31
0.0
  0
LINE
  5
AE
330
2
100
AcDbEntity
  8
0
  6
DASHED
100
AcDbLine
 10
2.975250763157014
 20
2.499999999999998
 30
0.0
 11
1.060139761513987
 21
2.499999999999998
 31
0.0
  0
ARC
  5
AF
330
2
100
AcDbEntity
  8
0
100
AcDbCircle
 10
0.8202387132591227
 20
2.625000000000002
 30
0.0
 40
0.0625
100
AcDbArc
 50
180.0
 51
270.0
  0
ARC
  5
B0
330
2
100
AcDbEntity
  8
0
100
AcDbCircle
 10
0.8202387132591227
 20
2.624999999999998
 30
0.0
 40
0.125
100
AcDbArc
 50
180.0
 51
270.0
  0
LINE
  5
B1
330
2
100
AcDbEntity
  8
0
100
AcDbLine
 10
1.082465429754159
 20
2.562500000000002
 30
0.0
 11
0.8202387132591227
 21
2.562500000000002
 31
0.0
  0
LINE
  5
B2
330
2
100
AcDbEntity
  8
0
  6
DASHED
100
AcDbLine
 10
1.060139655359556
 20
2.500000000000002
 30
0.0
 11
0.8202387132591227
 21
2.499999999999998
 31
0.0
  0
ARC
  5
B3
330
2
100
AcDbEntity
  8
0
100
AcDbCircle
 10
2.975250763157014
 20
2.624999999999998
 30
0.0
 40
0.125
100
AcDbArc
 50
270.0
 51
0.0
  0
ARC
  5
B4
330
2
100
AcDbEntity
  8
0
100
AcDbCircle
 10
2.997576537551602
 20
2.625000000000002
 30
0.0
 40
0.0625
100
AcDbArc
 50
269.9999999999999
 51
0.0
  0
LINE
  5
B5
330
2
100
AcDbEntity
  8
0
  6
DASHED
100
AcDbLine
 10
3.060076537551602
 20
2.625000000000002
 30
0.0
 11
3.060076537551602
 21
3.249999999999998
 31
0.0
  0
LINE
  5
B6
330
2
100
AcDbEntity
  8
0
100
AcDbLine
 10
3.100250763157014
 20
2.624999999999998
 30
0.0
 11
3.100250763157014
 21
3.249999999999998
 31
0.0
  0
LINE
  5
B7
330
2
100
AcDbEntity
  8
0
100
AcDbLine
 10
7.792471452437887
 20
4.124999999999998
 30
0.0
 11
6.542471452437887
 21
3.249999999999998
 31
0.0
  0
CIRCLE
  5
BA
330
2
100
AcDbEntity
  8
0
100
AcDbCircle
 10
-2.082528547562113
 20
7.249927516327913
 30
0.0
 40
0.125
  0
CIRCLE
  5
BB
330
2
100
AcDbEntity
  8
0
100
AcDbCircle
 10
-2.082528547562113
 20
4.937427516327913
 30
0.0
 40
0.125
  0
CIRCLE
  5
BC
330
2
100
AcDbEntity
  8
0
100
AcDbCircle
 10
-1.895028547562113
 20
5.999927516327913
 30
0.0
 40
0.125
  0
CIRCLE
  5
BE
330
2
100
AcDbEntity
  8
0
100
AcDbCircle
 10
-1.895028547562113
 20
8.374927516327913
 30
0.0
 40
0.125
  0
CIRCLE
  5
BF
330
2
100
AcDbEntity
  8
0
100
AcDbCircle
 10
-2.082528547562113
 20
9.624927516327913
 30
0.0
 40
0.125
  0
ARC
  5
C0
330
2
100
AcDbEntity
  8
0
100
AcDbCircle
 10
1.425136063677506
 20
4.368640935741743
 30
0.0
 40
0.109375
100
AcDbArc
 50
325.447099779401
 51
108.7990959509591
  0
CIRCLE
  5
C1
330
2
100
AcDbEntity
  8
0
100
AcDbCircle
 10
1.479971452437887
 20
4.410147375343774
 30
0.0
 40
0.109375
  0
ARC
  5
C2
330
2
100
AcDbEntity
  8
0
100
AcDbCircle
 10
1.800136063677506
 20
5.868640935741743
 30
0.0
 40
0.109375
100
AcDbArc
 50
325.447099779401
 51
108.7990959509591
  0
CIRCLE
  5
C3
330
2
100
AcDbEntity
  8
0
100
AcDbCircle
 10
1.854971452437887
 20
5.910147375343774
 30
0.0
 40
0.109375
  0
ARC
  5
C4
330
2
100
AcDbEntity
  8
0
100
AcDbCircle
 10
1.425136063677506
 20
8.368640935741743
 30
0.0
 40
0.109375
100
AcDbArc
 50
325.447099779401
 51
108.7990959509591
  0
CIRCLE
  5
C5
330
2
100
AcDbEntity
  8
0
100
AcDbCircle
 10
1.479971452437887
 20
8.410147375343774
 30
0.0
 40
0.109375
  0
ARC
  5
C6
330
2
100
AcDbEntity
  8
0
100
AcDbCircle
 10
1.800136063677506
 20
9.868640935741743
 30
0.0
 40
0.109375
100
AcDbArc
 50
325.447099779401
 51
108.7990959509591
  0
CIRCLE
  5
C7
330
2
100
AcDbEntity
  8
0
100
AcDbCircle
 10
1.854971452437887
 20
9.910147375343774
 30
0.0
 40
0.109375
  0
CIRCLE
  5
C9
330
2
100
AcDbEntity
  8
0
100
AcDbCircle
 10
-1.895028547562113
 20
11.31026445095528
 30
0.0
 40
0.125
  0
CIRCLE
  5
CA
330
2
100
AcDbEntity
  8
0
100
AcDbCircle
 10
-2.082528547562113
 20
12.56026445095528
 30
0.0
 40
0.125
  0
CIRCLE
  5
CB
330
2
100
AcDbEntity
  8
0
100
AcDbCircle
 10
-1.895028547562113
 20
14.17479628273213
 30
0.0
 40
0.125
  0
CIRCLE
  5
CD
330
2
100
AcDbEntity
  8
0
100
AcDbCircle
 10
-2.082528547562113
 20
15.42479628273213
 30
0.0
 40
0.125
  0
ARC
  5
D0
330
2
100
AcDbEntity
  8
0
100
AcDbCircle
 10
1.425136063677506
 20
12.36864093574174
 30
0.0
 40
0.109375
100
AcDbArc
 50
325.447099779401
 51
108.7990959509591
  0
CIRCLE
  5
D1
330
2
100
AcDbEntity
  8
0
100
AcDbCircle
 10
1.479971452437887
 20
12.41014737534377
 30
0.0
 40
0.109375
  0
ARC
  5
D4
330
2
100
AcDbEntity
  8
0
100
AcDbCircle
 10
1.800136063677506
 20
13.86864093574174
 30
0.0
 40
0.109375
100
AcDbArc
 50
325.447099779401
 51
108.7990959509591
  0
CIRCLE
  5
D5
330
2
100
AcDbEntity
  8
0
100
AcDbCircle
 10
1.854971452437887
 20
13.91014737534377
 30
0.0
 40
0.109375
  0
ARC
  5
D6
330
2
100
AcDbEntity
  8
0
100
AcDbCircle
 10
1.425136063677506
 20
16.36864093574175
 30
0.0
 40
0.109375
100
AcDbArc
 50
325.447099779401
 51
108.7990959509591
  0
CIRCLE
  5
D7
330
2
100
AcDbEntity
  8
0
100
AcDbCircle
 10
1.479971452437887
 20
16.41014737534378
 30
0.0
 40
0.109375
  0
CIRCLE
  5
DA
330
2
100
AcDbEntity
  8
0
100
AcDbCircle
 10
7.417471452437887
 20
7.249999999999998
 30
0.0
 40
0.125
  0
CIRCLE
  5
DB
330
2
100
AcDbEntity
  8
0
100
AcDbCircle
 10
7.417471452437887
 20
4.937499999999998
 30
0.0
 40
0.125
  0
CIRCLE
  5
DC
330
2
100
AcDbEntity
  8
0
100
AcDbCircle
 10
7.229971452437887
 20
5.999999999999998
 30
0.0
 40
0.125
  0
CIRCLE
  5
DD
330
2
100
AcDbEntity
  8
0
100
AcDbCircle
 10
7.229971452437887
 20
8.374999999999998
 30
0.0
 40
0.125
  0
CIRCLE
  5
DE
330
2
100
AcDbEntity
  8
0
100
AcDbCircle
 10
7.417471452437887
 20
9.624999999999998
 30
0.0
 40
0.125
  0
CIRCLE
  5
E1
330
2
100
AcDbEntity
  8
0
100
AcDbCircle
 10
7.229971452437887
 20
11.31033693462737
 30
0.0
 40
0.125
  0
CIRCLE
  5
E2
330
2
100
AcDbEntity
  8
0
100
AcDbCircle
 10
7.417471452437887
 20
12.56033693462737
 30
0.0
 40
0.125
  0
CIRCLE
  5
E3
330
2
100
AcDbEntity
  8
0
100
AcDbCircle
 10
7.229971452437887
 20
14.17486876640422
 30
0.0
 40
0.125
  0
CIRCLE
  5
E5
330
2
100
AcDbEntity
  8
0
100
AcDbCircle
 10
7.417471452437887
 20
15.42486876640422
 30
0.0
 40
0.125
  0
LINE
  5
E6
330
2
100
AcDbEntity
  8
0
100
AcDbLine
 10
6.542471452437887
 20
21.6875
 30
0.0
 11
3.144965429754159
 21
21.6875
 31
0.0
  0
LINE
  5
E7
330
2
100
AcDbEntity
  8
0
100
AcDbLine
 10
-1.144965429754144
 20
19.1875
 30
0.0
 11
0.7577387132591227
 21
21.6875
 31
0.0
  0
LINE
  5
E8
330
2
100
AcDbEntity
  8
0
100
AcDbLine
 10
0.6952387132591227
 20
21.6875
 30
0.0
 11
-1.185139655359556
 21
19.1875
 31
0.0
  0
LINE
  5
E9
330
2
100
AcDbEntity
  8
0
100
AcDbLine
 10
0.6952387132591227
 20
21.6875
 30
0.0
 11
-2.457528547562113
 21
19.1875
 31
0.0
  0
CIRCLE
  5
EA
330
2
100
AcDbEntity
  8
0
100
AcDbCircle
 10
-1.895028547562113
 20
17.16432811450898
 30
0.0
 40
0.125
  0
CIRCLE
  5
EC
330
2
100
AcDbEntity
  8
0
100
AcDbCircle
 10
-2.082528547562113
 20
18.41432811450898
 30
0.0
 40
0.125
  0
LINE
  5
ED
330
2
100
AcDbEntity
  8
0
100
AcDbLine
 10
-1.185139655359556
 20
19.1875
 30
0.0
 11
-1.144965429754144
 21
19.1875
 31
0.0
  0
LINE
  5
EE
330
2
100
AcDbEntity
  8
0
100
AcDbLine
 10
1.185139655359556
 20
19.1875
 30
0.0
 11
3.185139655359556
 21
21.6875
 31
0.0
  0
LINE
  5
EF
330
2
100
AcDbEntity
  8
0
100
AcDbLine
 10
1.144965429754159
 20
19.1875
 30
0.0
 11
3.144965429754159
 21
21.6875
 31
0.0
  0
ARC
  5
F0
330
2
100
AcDbEntity
  8
0
100
AcDbCircle
 10
1.800136063677506
 20
17.86864093574175
 30
0.0
 40
0.109375
100
AcDbArc
 50
325.447099779401
 51
108.7990959509591
  0
CIRCLE
  5
F1
330
2
100
AcDbEntity
  8
0
100
AcDbCircle
 10
1.854971452437887
 20
17.91014737534378
 30
0.0
 40
0.109375
  0
LINE
  5
F2
330
2
100
AcDbEntity
  8
0
100
AcDbLine
 10
1.185139655359556
 20
19.1875
 30
0.0
 11
1.144965429754159
 21
19.1875
 31
0.0
  0
LINE
  5
F3
330
2
100
AcDbEntity
  8
0
100
AcDbLine
 10
0.7577387132591227
 20
21.6875
 30
0.0
 11
0.6952387132591227
 21
21.6875
 31
0.0
  0
CIRCLE
  5
F4
330
2
100
AcDbEntity
  8
0
100
AcDbCircle
 10
7.229971452437887
 20
17.16440059818107
 30
0.0
 40
0.125
  0
CIRCLE
  5
F6
330
2
100
AcDbEntity
  8
0
100
AcDbCircle
 10
7.417471452437887
 20
18.41440059818107
 30
0.0
 40
0.125
  0
LINE
  5
F7
330
2
100
AcDbEntity
  8
0
100
AcDbLine
 10
6.542471452437887
 20
21.6875
 30
0.0
 11
7.792471452437887
 21
21.6875
 31
0.0
  0
LINE
  5
F8
330
2
100
AcDbEntity
  8
0
100
AcDbLine
 10
1.637468078846403
 20
10.32110850553634
 30
0.0
 11
1.377144205123194
 21
10.390862077271
 31
0.0
  0
ARC
  5
F9
330
2
100
AcDbEntity
  8
0
100
AcDbCircle
 10
1.385219359330389
 20
10.42099896305122
 30
0.0
 40
0.0311999999999995
100
AcDbArc
 50
135.0000000000046
 51
255.0000000000078
  0
LINE
  5
FA
330
2
100
AcDbEntity
  8
0
100
AcDbLine
 10
1.363157627757367
 20
10.44306069462424
 30
0.0
 11
1.553727929745882
 21
10.63363099661277
 31
0.0
  0
ARC
  5
FB
330
2
100
AcDbEntity
  8
0
100
AcDbCircle
 10
1.575789661318906
 20
10.61156926503975
 30
0.0
 40
0.0312000000000006
100
AcDbArc
 50
15.00000000000562
 51
135.0000000000069
  0
LINE
  5
FC
330
2
100
AcDbEntity
  8
0
100
AcDbLine
 10
1.605926547099124
 20
10.61964441924696
 30
0.0
 11
1.675680118833803
 21
10.35932054552375
 31
0.0
  0
ARC
  5
FD
330
2
100
AcDbEntity
  8
0
100
AcDbCircle
 10
1.645543233053592
 20
10.35124539131655
 30
0.0
 40
0.0311999999999928
100
AcDbArc
 50
255.0000000000156
 51
15.00000000000899
  0
LINE
  5
FE
330
2
100
AcDbEntity
  8
0
100
AcDbLine
 10
1.355775204100958
 20
10.41067996490096
 30
0.0
 11
1.496934134244064
 21
10.55183889504407
 31
0.0
  0
ARC
  5
FF
330
2
100
AcDbEntity
  8
0
100
AcDbCircle
 10
1.518995865817088
 20
10.52977716347105
 30
0.0
 40
0.0312000000000006
100
AcDbArc
 50
15.00000000000562
 51
135.0000000000069
  0
LINE
  5
100
330
2
100
AcDbEntity
  8
0
100
AcDbLine
 10
1.549132751597306
 20
10.53785231767825
 30
0.0
 11
1.604868539398289
 21
10.32984352580508
 31
0.0
  0
LWPOLYLINE
  5
101
330
2
100
AcDbEntity
  8
0
100
AcDbPolyline
 90
        6
 70
     1
 43
0.0
 10
-2.117942394121821
 20
9.081338997177925
 10
-2.048188822387148
 20
8.821015123454723
 42
0.5773502691896287
 10
-1.995990205033907
 20
8.807028546088896
 10
-1.80541990304538
 20
8.997598848077425
 42
0.577350269189627
 10
-1.8194064804112
 20
9.049797465430666
 10
-2.079730354134403
 20
9.119551037165339
 42
0.577350269189625
  0
LWPOLYLINE
  5
102
330
2
100
AcDbEntity
  8
0
100
AcDbPolyline
 90
        6
 70
     1
 43
0.0
 10
-2.117942394121821
 20
12.01667593180529
 10
-2.048188822387148
 20
11.75635205808209
 42
0.5773502691896287
 10
-1.995990205033907
 20
11.74236548071627
 10
-1.80541990304538
 20
11.93293578270479
 42
0.577350269189627
 10
-1.8194064804112
 20
11.98513440005804
 10
-2.079730354134403
 20
12.05488797179271
 42
0.577350269189625
  0
LWPOLYLINE
  5
103
330
2
100
AcDbEntity
  8
0
100
AcDbPolyline
 90
        6
 70
     1
 43
0.0
 10
-2.117942394121821
 20
14.88120776358215
 10
-2.048188822387148
 20
14.62088388985894
 42
0.5773502691896287
 10
-1.995990205033907
 20
14.60689731249312
 10
-1.80541990304538
 20
14.79746761448165
 42
0.577350269189627
 10
-1.8194064804112
 20
14.84966623183489
 10
-2.079730354134403
 20
14.91941980356956
 42
0.577350269189625
  0
LINE
  5
104
330
2
100
AcDbEntity
  8
0
100
AcDbLine
 10
1.730775204100958
 20
11.91067996490096
 30
0.0
 11
1.871934134244064
 21
12.05183889504407
 31
0.0
  0
ARC
  5
105
330
2
100
AcDbEntity
  8
0
100
AcDbCircle
 10
1.893995865817088
 20
12.02977716347105
 30
0.0
 40
0.0312000000000006
100
AcDbArc
 50
15.00000000000562
 51
135.0000000000069
  0
LINE
  5
106
330
2
100
AcDbEntity
  8
0
100
AcDbLine
 10
1.924132751597306
 20
12.03785231767825
 30
0.0
 11
1.979868539398289
 21
11.82984352580508
 31
0.0
  0
LINE
  5
107
330
2
100
AcDbEntity
  8
0
100
AcDbLine
 10
2.012468078846403
 20
11.82110850553634
 30
0.0
 11
1.752144205123194
 21
11.890862077271
 31
0.0
  0
ARC
  5
108
330
2
100
AcDbEntity
  8
0
100
AcDbCircle
 10
1.760219359330389
 20
11.92099896305122
 30
0.0
 40
0.0311999999999995
100
AcDbArc
 50
135.0000000000046
 51
255.0000000000078
  0
LINE
  5
109
330
2
100
AcDbEntity
  8
0
100
AcDbLine
 10
1.738157627757367
 20
11.94306069462424
 30
0.0
 11
1.928727929745882
 21
12.13363099661277
 31
0.0
  0
ARC
  5
10A
330
2
100
AcDbEntity
  8
0
100
AcDbCircle
 10
1.950789661318906
 20
12.11156926503975
 30
0.0
 40
0.0312000000000006
100
AcDbArc
 50
15.00000000000562
 51
135.0000000000069
  0
LINE
  5
10B
330
2
100
AcDbEntity
  8
0
100
AcDbLine
 10
1.980926547099124
 20
12.11964441924696
 30
0.0
 11
2.050680118833803
 21
11.85932054552375
 31
0.0
  0
ARC
  5
10C
330
2
100
AcDbEntity
  8
0
100
AcDbCircle
 10
2.020543233053592
 20
11.85124539131655
 30
0.0
 40
0.0311999999999928
100
AcDbArc
 50
255.0000000000156
 51
15.00000000000899
  0
LINE
  5
10D
330
2
100
AcDbEntity
  8
0
100
AcDbLine
 10
1.582632690086008
 20
14.2796020659343
 30
0.0
 11
1.322308816362799
 21
14.34935563766897
 31
0.0
  0
ARC
  5
10E
330
2
100
AcDbEntity
  8
0
100
AcDbCircle
 10
1.330383970569994
 20
14.37949252344919
 30
0.0
 40
0.0311999999999995
100
AcDbArc
 50
135.0000000000046
 51
255.0000000000078
  0
LINE
  5
10F
330
2
100
AcDbEntity
  8
0
100
AcDbLine
 10
1.308322238996972
 20
14.40155425502221
 30
0.0
 11
1.498892540985501
 21
14.59212455701074
 31
0.0
  0
ARC
  5
110
330
2
100
AcDbEntity
  8
0
100
AcDbCircle
 10
1.520954272558525
 20
14.57006282543772
 30
0.0
 40
0.0312000000000006
100
AcDbArc
 50
15.00000000000562
 51
135.0000000000069
  0
LINE
  5
111
330
2
100
AcDbEntity
  8
0
100
AcDbLine
 10
1.551091158338743
 20
14.57813797964492
 30
0.0
 11
1.620844730073422
 21
14.31781410592172
 31
0.0
  0
ARC
  5
112
330
2
100
AcDbEntity
  8
0
100
AcDbCircle
 10
1.590707844293204
 20
14.30973895171452
 30
0.0
 40
0.0311999999999996
100
AcDbArc
 50
255.000000000003
 51
15.00000000000562
  0
LINE
  5
113
330
2
100
AcDbEntity
  8
0
100
AcDbLine
 10
1.300939815340563
 20
14.36917352529893
 30
0.0
 11
1.442098745483669
 21
14.51033245544204
 31
0.0
  0
ARC
  5
114
330
2
100
AcDbEntity
  8
0
100
AcDbCircle
 10
1.464160477056693
 20
14.48827072386902
 30
0.0
 40
0.0312000000000006
100
AcDbArc
 50
15.00000000000562
 51
135.0000000000069
  0
LINE
  5
115
330
2
100
AcDbEntity
  8
0
100
AcDbLine
 10
1.49429736283691
 20
14.49634587807622
 30
0.0
 11
1.550033150637908
 21
14.28833708620305
 31
0.0
  0
LINE
  5
116
330
2
100
AcDbEntity
  8
0
100
AcDbLine
 10
1.957632690086008
 20
15.7796020659343
 30
0.0
 11
1.697308816362799
 21
15.84935563766897
 31
0.0
  0
ARC
  5
117
330
2
100
AcDbEntity
  8
0
100
AcDbCircle
 10
1.705383970569994
 20
15.87949252344919
 30
0.0
 40
0.0311999999999995
100
AcDbArc
 50
135.0000000000046
 51
255.0000000000078
  0
LINE
  5
118
330
2
100
AcDbEntity
  8
0
100
AcDbLine
 10
1.683322238996972
 20
15.90155425502221
 30
0.0
 11
1.873892540985501
 21
16.09212455701074
 31
0.0
  0
ARC
  5
119
330
2
100
AcDbEntity
  8
0
100
AcDbCircle
 10
1.895954272558525
 20
16.07006282543772
 30
0.0
 40
0.0312000000000006
100
AcDbArc
 50
15.00000000000562
 51
135.0000000000069
  0
LINE
  5
11A
330
2
100
AcDbEntity
  8
0
100
AcDbLine
 10
1.926091158338743
 20
16.07813797964492
 30
0.0
 11
1.995844730073422
 21
15.81781410592172
 31
0.0
  0
ARC
  5
11B
330
2
100
AcDbEntity
  8
0
100
AcDbCircle
 10
1.965707844293204
 20
15.80973895171452
 30
0.0
 40
0.0311999999999996
100
AcDbArc
 50
255.000000000003
 51
15.00000000000562
  0
LINE
  5
11C
330
2
100
AcDbEntity
  8
0
100
AcDbLine
 10
1.675939815340563
 20
15.86917352529893
 30
0.0
 11
1.817098745483669
 21
16.01033245544204
 31
0.0
  0
ARC
  5
11D
330
2
100
AcDbEntity
  8
0
100
AcDbCircle
 10
1.839160477056693
 20
15.98827072386902
 30
0.0
 40
0.0312000000000006
100
AcDbArc
 50
15.00000000000562
 51
135.0000000000069
  0
LINE
  5
11E
330
2
100
AcDbEntity
  8
0
100
AcDbLine
 10
1.86929736283691
 20
15.99634587807622
 30
0.0
 11
1.925033150637908
 21
15.78833708620305
 31
0.0
  0
LWPOLYLINE
  5
11F
330
2
100
AcDbEntity
  8
0
100
AcDbPolyline
 90
        6
 70
     1
 43
0.0
 10
7.434799249439962
 20
8.835646779951544
 10
7.174475375716757
 20
8.905400351686209
 42
-0.5773502691896287
 10
7.160488798350929
 20
8.957598969039447
 10
7.351059100339455
 20
9.14816927102798
 42
-0.577350269189627
 10
7.403257717692696
 20
9.134182693662163
 10
7.473011289427376
 20
8.873858819938961
 42
-0.577350269189625
  0
LWPOLYLINE
  5
120
330
2
100
AcDbEntity
  8
0
100
AcDbPolyline
 90
        6
 70
     1
 43
0.0
 10
7.434799249439962
 20
11.77098371457891
 10
7.174475375716757
 20
11.84073728631358
 42
-0.5773502691896287
 10
7.160488798350929
 20
11.89293590366682
 10
7.351059100339455
 20
12.08350620565535
 42
-0.577350269189627
 10
7.403257717692696
 20
12.06951962828953
 10
7.473011289427376
 20
11.80919575456633
 42
-0.577350269189625
  0
LWPOLYLINE
  5
121
330
2
100
AcDbEntity
  8
0
100
AcDbPolyline
 90
        6
 70
     1
 43
0.0
 10
7.434799249439962
 20
14.63551554635576
 10
7.174475375716757
 20
14.70526911809043
 42
-0.5773502691896287
 10
7.160488798350929
 20
14.75746773544367
 10
7.351059100339455
 20
14.9480380374322
 42
-0.577350269189627
 10
7.403257717692696
 20
14.93405146006638
 10
7.473011289427376
 20
14.67372758634318
 42
-0.577350269189625
  0
LWPOLYLINE
  5
122
330
2
100
AcDbEntity
  8
0
100
AcDbPolyline
 90
        6
 70
     1
 43
0.0
 10
-2.117942394121821
 20
17.870739595359
 10
-2.048188822387148
 20
17.61041572163579
 42
0.5773502691896287
 10
-1.995990205033907
 20
17.59642914426996
 10
-1.80541990304538
 20
17.78699944625849
 42
0.577350269189627
 10
-1.8194064804112
 20
17.83919806361173
 10
-2.079730354134403
 20
17.90895163534641
 42
0.577350269189625
  0
LWPOLYLINE
  5
123
330
2
100
AcDbEntity
  8
0
100
AcDbPolyline
 90
        6
 70
     1
 43
0.0
 10
7.434799249439962
 20
17.62504737813261
 10
7.174475375716757
 20
17.69480094986728
 42
-0.5773502691896287
 10
7.160488798350929
 20
17.74699956722051
 10
7.351059100339455
 20
17.93756986920905
 42
-0.577350269189627
 10
7.403257717692696
 20
17.92358329184323
 10
7.473011289427376
 20
17.66325941812004
 42
-0.577350269189625
  0
ENDSEC
  0
SECTION
  2
OBJECTS
  0
DICTIONARY
  5
7
330
0
100
AcDbDictionary
281
     1
  3
ACAD_COLOR
350
126
  3
ACAD_GROUP
350
1F
  3
ACAD_LAYOUT
350
B
  3
ACAD_MATERIAL
350
128
  3
ACAD_MLINESTYLE
350
20
  3
ACAD_PLOTSETTINGS
350
21
  3
ACAD_PLOTSTYLENAME
350
6
  3
ACDBHEADERROUNDTRIPXREC
350
125
  3
AcDbVariableDictionary
350
92
  0
DICTIONARY
  5
126
102
{ACAD_REACTORS
330
7
102
}
330
7
100
AcDbDictionary
281
     1
  0
DICTIONARY
  5
1F
102
{ACAD_REACTORS
330
7
102
}
330
7
100
AcDbDictionary
281
     1
  0
DICTIONARY
  5
B
102
{ACAD_REACTORS
330
7
102
}
330
7
100
AcDbDictionary
281
     1
  3
Layout1
350
F
  3
Model
350
A
  0
DICTIONARY
  5
128
102
{ACAD_REACTORS
330
7
102
}
330
7
100
AcDbDictionary
281
     1
  0
DICTIONARY
  5
20
102
{ACAD_REACTORS
330
7
102
}
330
7
100
AcDbDictionary
281
     1
  3
Standard
350
22
  0
DICTIONARY
  5
21
102
{ACAD_REACTORS
330
7
102
}
330
7
100
AcDbDictionary
281
     1
  0
ACDBDICTIONARYWDFLT
  5
6
102
{ACAD_REACTORS
330
7
102
}
330
7
100
AcDbDictionary
281
     1
  3
Normal
350
5
100
AcDbDictionaryWithDefault
340
5
  0
DICTIONARY
  5
125
102
{ACAD_REACTORS
330
7
102
}
330
7
100
AcDbDictionary
281
     1
  3
COLORDICT
350
127
  3
MATERIALDICT
350
129
  0
DICTIONARY
  5
92
102
{ACAD_REACTORS
330
7
102
}
330
7
100
AcDbDictionary
281
     1
  3
DIMASSOC
350
94
  3
HIDETEXT
350
93
  0
LAYOUT
  5
F
102
{ACAD_REACTORS
330
B
102
}
102
{ACAD_XDICTIONARY
360
12A
102
}
330
B
100
AcDbPlotSettings
  1

  2
X:\Program Files\AutoCAD2002\plotters\DWF ePlot (optimized for plotting).pc3
  4

  6

 40
0.0
 41
0.0
 42
0.0
 43
0.0
 44
0.0
 45
0.0
 46
0.0
 47
0.0
 48
0.0
 49
0.0
140
0.0
141
0.0
142
1.0
143
1.0
 70
   688
 72
     0
 73
     0
 74
     5
  7

 75
    16
147
1.0
148
0.0
149
0.0
100
AcDbLayout
  1
Layout1
 70
     0
 71
     1
 10
0.0
 20
0.0
 11
12.0
 21
9.0
 12
0.0
 22
0.0
 32
0.0
 14
1.000000000000000E+20
 24
1.000000000000000E+20
 34
1.000000000000000E+20
 15
-1.000000000000000E+20
 25
-1.000000000000000E+20
 35
-1.000000000000000E+20
146
0.0
 13
0.0
 23
0.0
 33
0.0
 16
1.0
 26
0.0
 36
0.0
 17
0.0
 27
1.0
 37
0.0
 76
     0
330
C
  0
LAYOUT
  5
A
102
{ACAD_REACTORS
330
B
102
}
102
{ACAD_XDICTIONARY
360
12C
102
}
330
B
100
AcDbPlotSettings
  1

  2
X:\Program Files\AutoCAD2002\plotters\DWF ePlot (optimized for plotting).pc3
  4

  6

 40
0.0
 41
0.0
 42
0.0
 43
0.0
 44
0.0
 45
0.0
 46
0.0
 47
0.0
 48
0.0
 49
0.0
140
0.0
141
0.0
142
1.0
143
1.0
 70
  1712
 72
     0
 73
     0
 74
     0
  7

 75
     0
147
1.0
148
0.0
149
0.0
100
AcDbLayout
  1
Model
 70
     1
 71
     0
 10
0.0
 20
0.0
 11
12.0
 21
9.0
 12
0.0
 22
0.0
 32
0.0
 14
0.0
 24
0.0
 34
0.0
 15
0.0
 25
0.0
 35
0.0
146
0.0
 13
0.0
 23
0.0
 33
0.0
 16
1.0
 26
0.0
 36
0.0
 17
0.0
 27
1.0
 37
0.0
 76
     0
330
2
  0
MLINESTYLE
  5
22
102
{ACAD_REACTORS
330
20
102
}
330
20
100
AcDbMlineStyle
  2
STANDARD
 70
     0
  3

 62
   256
 51
90.0
 52
90.0
 71
     2
 49
0.5
 62
   256
  6
BYLAYER
 49
-0.5
 62
   256
  6
BYLAYER
  0
ACDBPLACEHOLDER
  5
5
102
{ACAD_REACTORS
330
6
102
}
330
6
  0
XRECORD
  5
127
102
{ACAD_REACTORS
330
125
102
}
330
125
100
AcDbXrecord
340
126
  0
XRECORD
  5
129
102
{ACAD_REACTORS
330
125
102
}
330
125
100
AcDbXrecord
340
128
  0
DICTIONARYVAR
  5
94
102
{ACAD_REACTORS
330
92
102
}
330
92
100
DictionaryVariables
280
     0
  1
2
  0
DICTIONARYVAR
  5
93
102
{ACAD_REACTORS
330
92
102
}
330
92
100
DictionaryVariables
280
     0
  1
1
  0
DICTIONARY
  5
12A
330
F
100
AcDbDictionary
280
     1
281
     1
  3
ACAD_XREC_ROUNDTRIP
360
12B
  0
DICTIONARY
  5
12C
330
A
100
AcDbDictionary
280
     1
281
     1
  3
ACAD_XREC_ROUNDTRIP
360
12D
  0
XRECORD
  5
12B
102
{ACAD_REACTORS
330
12A
102
}
330
12A
100
AcDbXrecord
102
SHADEPLOT
 70
     0
102
SHADEPLOTRESLEVEL
 70
     2
102
SHADEPLOTCUSTOMDPI
 70
   300
  0
XRECORD
  5
12D
102
{ACAD_REACTORS
330
12C
102
}
330
12C
100
AcDbXrecord
102
SHADEPLOT
 70
     0
102
SHADEPLOTRESLEVEL
 70
     2
102
SHADEPLOTCUSTOMDPI
 70
   300
  0
ENDSEC
  0
EOF
