  0
SECTION
  2
HEADER
  9
$ACADVER
  1
AC1015
  9
$ACADMAINTVER
 70
     6
  9
$DWGCODEPAGE
  3
ANSI_1252
  9
$INSBASE
 10
0.0
 20
0.0
 30
0.0
  9
$EXTMIN
 10
0.0366116523516808
 20
-0.0625000000000035
 30
0.0
  9
$EXTMAX
 10
23.04481318144163
 20
22.59576358642147
 30
0.0
  9
$LIMMIN
 10
0.0
 20
0.0
  9
$LIMMAX
 10
52.5
 20
40.0
  9
$ORTHOMODE
 70
     1
  9
$REGENMODE
 70
     1
  9
$FILLMODE
 70
     1
  9
$QTEXTMODE
 70
     0
  9
$MIRRTEXT
 70
     0
  9
$LTSCALE
 40
1.0
  9
$ATTMODE
 70
     1
  9
$TEXTSIZE
 40
0.36
  9
$TRACEWID
 40
0.05
  9
$TEXTSTYLE
  7
STANDARD
  9
$CLAYER
  8
0
  9
$CELTYPE
  6
ByLayer
  9
$CECOLOR
 62
   256
  9
$CELTSCALE
 40
1.0
  9
$DISPSILH
 70
     0
  9
$DIMSCALE
 40
5.0
  9
$DIMASZ
 40
0.125
  9
$DIMEXO
 40
0.062
  9
$DIMDLI
 40
0.375
  9
$DIMRND
 40
0.0
  9
$DIMDLE
 40
0.0
  9
$DIMEXE
 40
0.08
  9
$DIMTP
 40
0.0
  9
$DIMTM
 40
0.0
  9
$DIMTXT
 40
0.09
  9
$DIMCEN
 40
-0.03125
  9
$DIMTSZ
 40
0.0
  9
$DIMTOL
 70
     0
  9
$DIMLIM
 70
     0
  9
$DIMTIH
 70
     1
  9
$DIMTOH
 70
     1
  9
$DIMSE1
 70
     0
  9
$DIMSE2
 70
     0
  9
$DIMTAD
 70
     0
  9
$DIMZIN
 70
     0
  9
$DIMBLK
  1

  9
$DIMASO
 70
     0
  9
$DIMSHO
 70
     0
  9
$DIMPOST
  1

  9
$DIMAPOST
  1

  9
$DIMALT
 70
     0
  9
$DIMALTD
 70
     2
  9
$DIMALTF
 40
25.4
  9
$DIMLFAC
 40
1.0
  9
$DIMTOFL
 70
     0
  9
$DIMTVP
 40
0.0
  9
$DIMTIX
 70
     0
  9
$DIMSOXD
 70
     0
  9
$DIMSAH
 70
     0
  9
$DIMBLK1
  1

  9
$DIMBLK2
  1

  9
$DIMSTYLE
  2
Standard
  9
$DIMCLRD
 70
     0
  9
$DIMCLRE
 70
     0
  9
$DIMCLRT
 70
     0
  9
$DIMTFAC
 40
1.0
  9
$DIMGAP
 40
0.09
  9
$DIMJUST
 70
     0
  9
$DIMSD1
 70
     0
  9
$DIMSD2
 70
     0
  9
$DIMTOLJ
 70
     1
  9
$DIMTZIN
 70
     0
  9
$DIMALTZ
 70
     0
  9
$DIMALTTZ
 70
     0
  9
$DIMUPT
 70
     0
  9
$DIMDEC
 70
     5
  9
$DIMTDEC
 70
     5
  9
$DIMALTU
 70
     5
  9
$DIMALTTD
 70
     2
  9
$DIMTXSTY
  7
STANDARD
  9
$DIMAUNIT
 70
     0
  9
$DIMADEC
 70
     0
  9
$DIMALTRND
 40
0.0
  9
$DIMAZIN
 70
     0
  9
$DIMDSEP
 70
    46
  9
$DIMATFIT
 70
     3
  9
$DIMFRAC
 70
     2
  9
$DIMLDRBLK
  1

  9
$DIMLUNIT
 70
     5
  9
$DIMLWD
 70
    -2
  9
$DIMLWE
 70
    -2
  9
$DIMTMOVE
 70
     2
  9
$LUNITS
 70
     5
  9
$LUPREC
 70
     4
  9
$SKETCHINC
 40
0.1
  9
$FILLETRAD
 40
0.0
  9
$AUNITS
 70
     0
  9
$AUPREC
 70
     0
  9
$MENU
  1
acad
  9
$ELEVATION
 40
0.0
  9
$PELEVATION
 40
0.0
  9
$THICKNESS
 40
0.0
  9
$LIMCHECK
 70
     0
  9
$CHAMFERA
 40
0.0
  9
$CHAMFERB
 40
0.0
  9
$CHAMFERC
 40
0.0
  9
$CHAMFERD
 40
0.0
  9
$SKPOLY
 70
     0
  9
$TDCREATE
 40
2449412.896842361
  9
$TDUCREATE
 40
2449413.230175695
  9
$TDUPDATE
 40
2454168.923489966
  9
$TDUUPDATE
 40
2454169.256823299
  9
$TDINDWG
 40
0.2989360185
  9
$TDUSRTIMER
 40
0.2989360185
  9
$USRTIMER
 70
     1
  9
$ANGBASE
 50
0.0
  9
$ANGDIR
 70
     0
  9
$PDMODE
 70
     0
  9
$PDSIZE
 40
0.0
  9
$PLINEWID
 40
0.0
  9
$SPLFRAME
 70
     0
  9
$SPLINETYPE
 70
     6
  9
$SPLINESEGS
 70
     8
  9
$HANDSEED
  5
255
  9
$SURFTAB1
 70
     6
  9
$SURFTAB2
 70
     6
  9
$SURFTYPE
 70
     6
  9
$SURFU
 70
     6
  9
$SURFV
 70
     6
  9
$UCSBASE
  2

  9
$UCSNAME
  2

  9
$UCSORG
 10
0.0
 20
0.0
 30
0.0
  9
$UCSXDIR
 10
1.0
 20
0.0
 30
0.0
  9
$UCSYDIR
 10
0.0
 20
1.0
 30
0.0
  9
$UCSORTHOREF
  2

  9
$UCSORTHOVIEW
 70
     0
  9
$UCSORGTOP
 10
0.0
 20
0.0
 30
0.0
  9
$UCSORGBOTTOM
 10
0.0
 20
0.0
 30
0.0
  9
$UCSORGLEFT
 10
0.0
 20
0.0
 30
0.0
  9
$UCSORGRIGHT
 10
0.0
 20
0.0
 30
0.0
  9
$UCSORGFRONT
 10
0.0
 20
0.0
 30
0.0
  9
$UCSORGBACK
 10
0.0
 20
0.0
 30
0.0
  9
$PUCSBASE
  2

  9
$PUCSNAME
  2

  9
$PUCSORG
 10
0.0
 20
0.0
 30
0.0
  9
$PUCSXDIR
 10
1.0
 20
0.0
 30
0.0
  9
$PUCSYDIR
 10
0.0
 20
1.0
 30
0.0
  9
$PUCSORTHOREF
  2

  9
$PUCSORTHOVIEW
 70
     0
  9
$PUCSORGTOP
 10
0.0
 20
0.0
 30
0.0
  9
$PUCSORGBOTTOM
 10
0.0
 20
0.0
 30
0.0
  9
$PUCSORGLEFT
 10
0.0
 20
0.0
 30
0.0
  9
$PUCSORGRIGHT
 10
0.0
 20
0.0
 30
0.0
  9
$PUCSORGFRONT
 10
0.0
 20
0.0
 30
0.0
  9
$PUCSORGBACK
 10
0.0
 20
0.0
 30
0.0
  9
$USERI1
 70
     0
  9
$USERI2
 70
     0
  9
$USERI3
 70
     0
  9
$USERI4
 70
     0
  9
$USERI5
 70
     0
  9
$USERR1
 40
0.0
  9
$USERR2
 40
0.0
  9
$USERR3
 40
0.0
  9
$USERR4
 40
0.0
  9
$USERR5
 40
0.0
  9
$WORLDVIEW
 70
     1
  9
$SHADEDGE
 70
     3
  9
$SHADEDIF
 70
    70
  9
$TILEMODE
 70
     1
  9
$MAXACTVP
 70
    16
  9
$PINSBASE
 10
0.0
 20
0.0
 30
0.0
  9
$PLIMCHECK
 70
     0
  9
$PEXTMIN
 10
1.000000000000000E+20
 20
1.000000000000000E+20
 30
1.000000000000000E+20
  9
$PEXTMAX
 10
-1.000000000000000E+20
 20
-1.000000000000000E+20
 30
-1.000000000000000E+20
  9
$PLIMMIN
 10
0.0
 20
0.0
  9
$PLIMMAX
 10
12.0
 20
9.0
  9
$UNITMODE
 70
     0
  9
$VISRETAIN
 70
     0
  9
$PLINEGEN
 70
     0
  9
$PSLTSCALE
 70
     0
  9
$TREEDEPTH
 70
  3020
  9
$CMLSTYLE
  2
Standard
  9
$CMLJUST
 70
     0
  9
$CMLSCALE
 40
1.0
  9
$PROXYGRAPHICS
 70
     1
  9
$MEASUREMENT
 70
     0
  9
$CELWEIGHT
370
    -1
  9
$ENDCAPS
280
     0
  9
$JOINSTYLE
280
     0
  9
$LWDISPLAY
290
     0
  9
$INSUNITS
 70
     0
  9
$HYPERLINKBASE
  1

  9
$STYLESHEET
  1

  9
$XEDIT
290
     1
  9
$CEPSNTYPE
380
     0
  9
$PSTYLEMODE
290
     1
  9
$FINGERPRINTGUID
  2
{4F274BA0-4A26-44F0-AA09-FC399571AA71}
  9
$VERSIONGUID
  2
{EA6EA09C-6D36-4D1D-8865-D10147B65D10}
  9
$EXTNAMES
290
     1
  9
$PSVPSCALE
 40
0.0
  9
$OLESTARTUP
290
     0
  0
ENDSEC
  0
SECTION
  2
CLASSES
  0
CLASS
  1
ACDBDICTIONARYWDFLT
  2
AcDbDictionaryWithDefault
  3
AutoCAD 2000
 90
        0
280
     0
281
     0
  0
CLASS
  1
ACDBPLACEHOLDER
  2
AcDbPlaceHolder
  3
ObjectDBX Classes
 90
        0
280
     0
281
     0
  0
CLASS
  1
LAYOUT
  2
AcDbLayout
  3
ObjectDBX Classes
 90
        0
280
     0
281
     0
  0
CLASS
  1
IDBUFFER
  2
AcDbIdBuffer
  3
AutoCAD 2000
 90
        0
280
     0
281
     0
  0
CLASS
  1
LONG_TRANSACTION
  2
AcDbLongTransaction
  3
ObjectDBX Classes
 90
   -65536
280
     1
281
     0
  0
CLASS
  1
LWPOLYLINE
  2
AcDbPolyline
  3
AutoCAD 2000
 90
        0
280
     0
281
     1
  0
CLASS
  1
HATCH
  2
AcDbHatch
  3
AutoCAD 2000
 90
        0
280
     0
281
     1
  0
CLASS
  1
XRECORD
  2
AcDbXrecord
  3
AutoCAD 2000
 90
        0
280
     0
281
     0
  0
CLASS
  1
LONG_TRANSACTION
  2
AcDbLongTransaction
  3
ObjectDBX Classes
 90
   -65536
280
     1
281
     0
  0
CLASS
  1
LWPOLYLINE
  2
AcDbPolyline
  3
AutoCAD 2000
 90
        0
280
     0
281
     1
  0
CLASS
  1
HATCH
  2
AcDbHatch
  3
AutoCAD 2000
 90
        0
280
     0
281
     1
  0
CLASS
  1
XRECORD
  2
AcDbXrecord
  3
AutoCAD 2000
 90
        0
280
     0
281
     0
  0
CLASS
  1
LONG_TRANSACTION
  2
AcDbLongTransaction
  3
ObjectDBX Classes
 90
   -65536
280
     1
281
     0
  0
CLASS
  1
LWPOLYLINE
  2
AcDbPolyline
  3
AutoCAD 2000
 90
        0
280
     0
281
     1
  0
CLASS
  1
HATCH
  2
AcDbHatch
  3
AutoCAD 2000
 90
        0
280
     0
281
     1
  0
CLASS
  1
XRECORD
  2
AcDbXrecord
  3
AutoCAD 2000
 90
        0
280
     0
281
     0
  0
CLASS
  1
LONG_TRANSACTION
  2
AcDbLongTransaction
  3
ObjectDBX Classes
 90
   -65536
280
     1
281
     0
  0
CLASS
  1
LWPOLYLINE
  2
AcDbPolyline
  3
AutoCAD 2000
 90
        0
280
     0
281
     1
  0
CLASS
  1
HATCH
  2
AcDbHatch
  3
AutoCAD 2000
 90
        0
280
     0
281
     1
  0
CLASS
  1
XRECORD
  2
AcDbXrecord
  3
AutoCAD 2000
 90
        0
280
     0
281
     0
  0
CLASS
  1
LONG_TRANSACTION
  2
AcDbLongTransaction
  3
ObjectDBX Classes
 90
   -65536
280
     1
281
     0
  0
CLASS
  1
LWPOLYLINE
  2
AcDbPolyline
  3
AutoCAD 2000
 90
        0
280
     0
281
     1
  0
CLASS
  1
HATCH
  2
AcDbHatch
  3
AutoCAD 2000
 90
        0
280
     0
281
     1
  0
CLASS
  1
XRECORD
  2
AcDbXrecord
  3
AutoCAD 2000
 90
        0
280
     0
281
     0
  0
CLASS
  1
LONG_TRANSACTION
  2
AcDbLongTransaction
  3
ObjectDBX Classes
 90
   -65536
280
     1
281
     0
  0
CLASS
  1
LWPOLYLINE
  2
AcDbPolyline
  3
AutoCAD 2000
 90
        0
280
     0
281
     1
  0
CLASS
  1
HATCH
  2
AcDbHatch
  3
AutoCAD 2000
 90
        0
280
     0
281
     1
  0
CLASS
  1
XRECORD
  2
AcDbXrecord
  3
AutoCAD 2000
 90
        0
280
     0
281
     0
  0
CLASS
  1
LONG_TRANSACTION
  2
AcDbLongTransaction
  3
ObjectDBX Classes
 90
   -65536
280
     1
281
     0
  0
CLASS
  1
LWPOLYLINE
  2
AcDbPolyline
  3
AutoCAD 2000
 90
        0
280
     0
281
     1
  0
CLASS
  1
HATCH
  2
AcDbHatch
  3
AutoCAD 2000
 90
        0
280
     0
281
     1
  0
CLASS
  1
XRECORD
  2
AcDbXrecord
  3
AutoCAD 2000
 90
        0
280
     0
281
     0
  0
CLASS
  1
DICTIONARYVAR
  2
AcDbDictionaryVar
  3
AutoCAD 2000
 90
        0
280
     0
281
     0
  0
CLASS
  1
TABLESTYLE
  2
AcDbTableStyle
  3
ObjectDBX Classes
 90
     2047
280
     1
281
     0
  0
ENDSEC
  0
SECTION
  2
TABLES
  0
TABLE
  2
VPORT
  5
1D
330
0
100
AcDbSymbolTable
 70
     4
  0
VPORT
  5
247
330
1D
100
AcDbSymbolTableRecord
100
AcDbViewportTableRecord
  2
*Active
 70
     0
 10
0.0
 20
0.0
 11
1.0
 21
1.0
 12
24.81339180275924
 22
16.08105395137676
 13
0.0
 23
0.0
 14
0.0625
 24
0.0625
 15
0.25
 25
0.25
 16
0.0
 26
0.0
 36
1.0
 17
0.0
 27
0.0
 37
0.0
 40
40.56305643148323
 41
1.814583333333334
 42
50.0
 43
0.0
 44
0.0
 50
0.0
 51
0.0
 71
     0
 72
   100
 73
     1
 74
     0
 75
     0
 76
     0
 77
     0
 78
     0
281
     0
 65
     1
110
0.0
120
0.0
130
0.0
111
1.0
121
0.0
131
0.0
112
0.0
122
1.0
132
0.0
 79
     0
146
0.0
  0
ENDTAB
  0
TABLE
  2
LTYPE
  5
18
330
0
100
AcDbSymbolTable
 70
     2
  0
LTYPE
  5
19
330
18
100
AcDbSymbolTableRecord
100
AcDbLinetypeTableRecord
  2
ByBlock
 70
     0
  3

 72
    65
 73
     0
 40
0.0
  0
LTYPE
  5
1A
330
18
100
AcDbSymbolTableRecord
100
AcDbLinetypeTableRecord
  2
ByLayer
 70
     0
  3

 72
    65
 73
     0
 40
0.0
  0
LTYPE
  5
A
330
18
100
AcDbSymbolTableRecord
100
AcDbLinetypeTableRecord
  2
CONTINUOUS
 70
     0
  3
Solid line
 72
    65
 73
     0
 40
0.0
  0
LTYPE
  5
21B
330
18
100
AcDbSymbolTableRecord
100
AcDbLinetypeTableRecord
  2
HIDDEN
 70
     0
  3
Hidden __ __ __ __ __ __ __ __ __ __ __ __ __ _
 72
    65
 73
     2
 40
0.375
 49
0.25
 74
     0
 49
-0.125
 74
     0
  0
ENDTAB
  0
TABLE
  2
LAYER
  5
14
330
0
100
AcDbSymbolTable
 70
     1
  0
LAYER
  5
6
330
14
100
AcDbSymbolTableRecord
100
AcDbLayerTableRecord
  2
0
 70
     0
 62
     7
  6
CONTINUOUS
370
    -3
390
7
  0
ENDTAB
  0
TABLE
  2
STYLE
  5
15
330
0
100
AcDbSymbolTable
 70
     1
  0
STYLE
  5
16
330
15
100
AcDbSymbolTableRecord
100
AcDbTextStyleTableRecord
  2
STANDARD
 70
     0
 40
0.0
 41
1.0
 50
0.0
 71
     0
 42
0.36
  3
TXT
  4

  0
ENDTAB
  0
TABLE
  2
VIEW
  5
1B
330
0
100
AcDbSymbolTable
 70
     0
  0
ENDTAB
  0
TABLE
  2
UCS
  5
1C
330
0
100
AcDbSymbolTable
 70
     0
  0
ENDTAB
  0
TABLE
  2
APPID
  5
1F
330
0
100
AcDbSymbolTable
 70
     1
  0
APPID
  5
20
330
1F
100
AcDbSymbolTableRecord
100
AcDbRegAppTableRecord
  2
ACAD
 70
     0
  0
ENDTAB
  0
TABLE
  2
DIMSTYLE
  5
21
330
0
100
AcDbSymbolTable
 70
     1
100
AcDbDimStyleTable
  0
DIMSTYLE
105
28
330
21
100
AcDbSymbolTableRecord
100
AcDbDimStyleTableRecord
  2
Standard
 70
     0
  3

  4

340
16
  0
ENDTAB
  0
TABLE
  2
BLOCK_RECORD
  5
1
330
0
100
AcDbSymbolTable
 70
     0
  0
BLOCK_RECORD
  5
2
330
1
100
AcDbSymbolTableRecord
100
AcDbBlockTableRecord
  2
*Model_Space
340
C
  0
BLOCK_RECORD
  5
E
330
1
100
AcDbSymbolTableRecord
100
AcDbBlockTableRecord
  2
*Paper_Space
340
13
  0
ENDTAB
  0
ENDSEC
  0
SECTION
  2
BLOCKS
  0
BLOCK
  5
5
330
2
100
AcDbEntity
  8
0
100
AcDbBlockBegin
  2
*Model_Space
 70
     0
 10
0.0
 20
0.0
 30
0.0
  3
*Model_Space
  1

  4

  0
ENDBLK
  5
B
330
2
100
AcDbEntity
  8
0
100
AcDbBlockEnd
  0
BLOCK
  5
11
330
E
100
AcDbEntity
 67
     1
  8
0
100
AcDbBlockBegin
  2
*Paper_Space
 70
     0
 10
0.0
 20
0.0
 30
0.0
  3
*Paper_Space
  1

  4

  0
ENDBLK
  5
12
330
E
100
AcDbEntity
 67
     1
  8
0
100
AcDbBlockEnd
  0
ENDSEC
  0
SECTION
  2
ENTITIES
  0
LINE
  5
E9
330
2
100
AcDbEntity
  8
0
100
AcDbLine
 10
3.314379007047266
 20
-0.0366116523516851
 30
0.0
 11
1.434000544554238
 21
-0.0366116523516851
 31
0.0
  0
LINE
  5
EA
330
2
100
AcDbEntity
  8
0
100
AcDbLine
 10
3.314378969423559
 20
0.0258883476483185
 30
0.0
 11
1.41167477015965
 21
0.0258883476483185
 31
0.0
  0
LINE
  5
EB
330
2
100
AcDbEntity
  8
0
100
AcDbLine
 10
3.251878913172903
 20
13.58838834764832
 30
0.0
 11
0.0366116523516817
 21
13.58838834764832
 31
0.0
  0
LINE
  5
EE
330
2
100
AcDbEntity
  8
0
100
AcDbLine
 10
1.34917477015965
 20
0.0883883476483185
 30
0.0
 11
1.34917477015965
 21
13.58838834764832
 31
0.0
  0
LINE
  5
EF
330
2
100
AcDbEntity
  8
0
100
AcDbLine
 10
1.309000544554238
 20
0.0883883476483149
 30
0.0
 11
1.309000544554238
 21
13.58838834764832
 31
0.0
  0
LINE
  5
F0
330
2
100
AcDbEntity
  8
0
100
AcDbLine
 10
0.0366116523516817
 20
0.7133883476483149
 30
0.0
 11
0.0366116523516817
 21
13.58838834764832
 31
0.0
  0
LINE
  5
F3
330
2
100
AcDbEntity
  8
0
100
AcDbLine
 10
1.309000544554238
 20
0.7133883476483149
 30
0.0
 11
0.0366116523516817
 21
0.7133883476483149
 31
0.0
  0
ARC
  5
F4
330
2
100
AcDbEntity
  8
0
100
AcDbCircle
 10
1.434000544554238
 20
0.0883883476483149
 30
0.0
 40
0.125
100
AcDbArc
 50
180.0
 51
270.0
  0
ARC
  5
F5
330
2
100
AcDbEntity
  8
0
100
AcDbCircle
 10
1.41167477015965
 20
0.0883883476483185
 30
0.0
 40
0.0625
100
AcDbArc
 50
180.0
 51
270.0
  0
CIRCLE
  5
107
330
2
100
AcDbEntity
  8
0
100
AcDbCircle
 10
9.880361652351681
 20
10.44775857898567
 30
0.0
 40
0.125
  0
LINE
  5
108
330
2
100
AcDbEntity
  8
0
  6
HIDDEN
100
AcDbLine
 10
3.189378913172917
 20
0.0854503417338606
 30
0.0
 11
3.189378913172903
 21
13.58838834764832
 31
0.0
  0
LINE
  5
109
330
2
100
AcDbEntity
  8
0
100
AcDbLine
 10
3.251878913172903
 20
0.0883883476483185
 30
0.0
 11
3.251878913172903
 21
13.58838834764832
 31
0.0
  0
LINE
  5
10A
330
2
100
AcDbEntity
  8
0
100
AcDbLine
 10
3.639105629667939
 20
0.0883883476483185
 30
0.0
 11
3.639105629667939
 21
13.58838834764832
 31
0.0
  0
LINE
  5
10B
330
2
100
AcDbEntity
  8
0
100
AcDbLine
 10
3.679279855273351
 20
0.0883883476483185
 30
0.0
 11
3.679279855273351
 21
13.58838834764832
 31
0.0
  0
LINE
  5
10C
330
2
100
AcDbEntity
  8
0
100
AcDbLine
 10
9.036611652351681
 20
0.7133883476483149
 30
0.0
 11
9.036611652351681
 21
13.58838834764832
 31
0.0
  0
LINE
  5
10D
330
2
100
AcDbEntity
  8
0
100
AcDbLine
 10
10.28661165235168
 20
13.58838834764832
 30
0.0
 11
10.28661165235168
 21
0.7133883476483149
 31
0.0
  0
LINE
  5
10E
330
2
100
AcDbEntity
  8
0
100
AcDbLine
 10
8.911611652351681
 20
-0.0366116523516851
 30
0.0
 11
3.554279961427782
 21
-0.0366116523516851
 31
0.0
  0
ARC
  5
10F
330
2
100
AcDbEntity
  8
0
100
AcDbCircle
 10
3.554279855273351
 20
0.0883883476483185
 30
0.0
 40
0.125
100
AcDbArc
 50
270.0
 51
0.0
  0
ARC
  5
110
330
2
100
AcDbEntity
  8
0
100
AcDbCircle
 10
3.576605629667939
 20
0.0883883476483185
 30
0.0
 40
0.0625
100
AcDbArc
 50
270.0
 51
0.0
  0
LINE
  5
111
330
2
100
AcDbEntity
  8
0
100
AcDbLine
 10
3.576605629667939
 20
0.0258883476483185
 30
0.0
 11
3.314378913172903
 21
0.0258883476483185
 31
0.0
  0
LINE
  5
112
330
2
100
AcDbEntity
  8
0
100
AcDbLine
 10
3.554279855273351
 20
-0.0366116523516815
 30
0.0
 11
3.314378913172917
 21
-0.0366116523516851
 31
0.0
  0
ARC
  5
113
330
2
100
AcDbEntity
  8
0
100
AcDbCircle
 10
3.314378913172903
 20
0.0883883476483185
 30
0.0
 40
0.0625
100
AcDbArc
 50
180.0
 51
270.0
  0
ARC
  5
114
330
2
100
AcDbEntity
  8
0
100
AcDbCircle
 10
4.345025823142636
 20
3.904310339957415
 30
0.0
 40
0.109375
100
AcDbArc
 50
250.6490004032597
 51
19.92507490820584
  0
CIRCLE
  5
115
330
2
100
AcDbEntity
  8
0
100
AcDbCircle
 10
4.411611652351682
 20
3.838388347648315
 30
0.0
 40
0.109375
  0
ARC
  5
116
330
2
100
AcDbEntity
  8
0
100
AcDbCircle
 10
3.970025823142636
 20
3.154310339957415
 30
0.0
 40
0.109375
100
AcDbArc
 50
250.6490004032597
 51
19.92507490820584
  0
CIRCLE
  5
117
330
2
100
AcDbEntity
  8
0
100
AcDbCircle
 10
4.036611652351682
 20
3.088388347648315
 30
0.0
 40
0.109375
  0
CIRCLE
  5
118
330
2
100
AcDbEntity
  8
0
100
AcDbCircle
 10
9.880361652351681
 20
1.01025857898567
 30
0.0
 40
0.125
  0
LINE
  5
119
330
2
100
AcDbEntity
  8
0
100
AcDbLine
 10
10.28661165235168
 20
0.7133883476483149
 30
0.0
 11
9.036611652351681
 21
0.7133883476483149
 31
0.0
  0
LINE
  5
11A
330
2
100
AcDbEntity
  8
0
100
AcDbLine
 10
9.036611652351681
 20
0.0883883476483149
 30
0.0
 11
9.036611652351681
 21
0.7133883476483149
 31
0.0
  0
ARC
  5
11B
330
2
100
AcDbEntity
  8
0
100
AcDbCircle
 10
8.911611652351681
 20
0.0883883476483149
 30
0.0
 40
0.125
100
AcDbArc
 50
270.0
 51
0.0
  0
LINE
  5
11C
330
2
100
AcDbEntity
  8
0
100
AcDbLine
 10
9.036611652351681
 20
0.7133883476483149
 30
0.0
 11
9.036611652351681
 21
0.7133883476483149
 31
0.0
  0
CIRCLE
  5
11D
330
2
100
AcDbEntity
  8
0
100
AcDbCircle
 10
9.880361652351681
 20
3.32275857898567
 30
0.0
 40
0.125
  0
CIRCLE
  5
11E
330
2
100
AcDbEntity
  8
0
100
AcDbCircle
 10
9.692861652351681
 20
2.084470414424863
 30
0.0
 40
0.125
  0
ARC
  5
11F
330
2
100
AcDbEntity
  8
0
100
AcDbCircle
 10
4.345025823142636
 20
6.966810339957415
 30
0.0
 40
0.109375
100
AcDbArc
 50
250.6490004032597
 51
19.92507490820584
  0
CIRCLE
  5
120
330
2
100
AcDbEntity
  8
0
100
AcDbCircle
 10
4.411611652351682
 20
6.900888347648315
 30
0.0
 40
0.109375
  0
ARC
  5
121
330
2
100
AcDbEntity
  8
0
100
AcDbCircle
 10
3.970025823142636
 20
6.216810339957415
 30
0.0
 40
0.109375
100
AcDbArc
 50
250.6490004032597
 51
19.92507490820584
  0
CIRCLE
  5
122
330
2
100
AcDbEntity
  8
0
100
AcDbCircle
 10
4.036611652351682
 20
6.150888347648315
 30
0.0
 40
0.109375
  0
ARC
  5
125
330
2
100
AcDbEntity
  8
0
100
AcDbCircle
 10
4.345025823142636
 20
9.966810339957419
 30
0.0
 40
0.109375
100
AcDbArc
 50
250.6490004032597
 51
19.92507490820584
  0
CIRCLE
  5
126
330
2
100
AcDbEntity
  8
0
100
AcDbCircle
 10
4.411611652351682
 20
9.900888347648319
 30
0.0
 40
0.109375
  0
ARC
  5
12A
330
2
100
AcDbEntity
  8
0
100
AcDbCircle
 10
3.970025823142636
 20
9.216810339957416
 30
0.0
 40
0.109375
100
AcDbArc
 50
250.6490004032597
 51
19.92507490820584
  0
CIRCLE
  5
12B
330
2
100
AcDbEntity
  8
0
100
AcDbCircle
 10
4.036611652351682
 20
9.150888347648316
 30
0.0
 40
0.109375
  0
CIRCLE
  5
12D
330
2
100
AcDbEntity
  8
0
100
AcDbCircle
 10
9.880361652351681
 20
5.69775857898567
 30
0.0
 40
0.125
  0
CIRCLE
  5
12E
330
2
100
AcDbEntity
  8
0
100
AcDbCircle
 10
9.505361652351681
 20
5.052219398890251
 30
0.0
 40
0.125
  0
CIRCLE
  5
12F
330
2
100
AcDbEntity
  8
0
100
AcDbCircle
 10
9.692861652351681
 20
4.459470414424863
 30
0.0
 40
0.125
  0
CIRCLE
  5
130
330
2
100
AcDbEntity
  8
0
100
AcDbCircle
 10
9.692861652351681
 20
6.834470414424863
 30
0.0
 40
0.125
  0
CIRCLE
  5
131
330
2
100
AcDbEntity
  8
0
100
AcDbCircle
 10
9.880361652351681
 20
8.07275857898567
 30
0.0
 40
0.125
  0
CIRCLE
  5
132
330
2
100
AcDbEntity
  8
0
100
AcDbCircle
 10
9.505361652351681
 20
7.427219398890251
 30
0.0
 40
0.125
  0
CIRCLE
  5
133
330
2
100
AcDbEntity
  8
0
100
AcDbCircle
 10
9.692861652351681
 20
9.209470414424864
 30
0.0
 40
0.125
  0
CIRCLE
  5
134
330
2
100
AcDbEntity
  8
0
100
AcDbCircle
 10
9.505361652351681
 20
9.802219398890252
 30
0.0
 40
0.125
  0
LINE
  5
135
330
2
100
AcDbEntity
  8
0
100
AcDbLine
 10
9.036611652351681
 20
13.58838834764832
 30
0.0
 11
3.639105629667939
 21
13.58838834764832
 31
0.0
  0
ARC
  5
138
330
2
100
AcDbEntity
  8
0
100
AcDbCircle
 10
4.345025823142636
 20
12.96681033995742
 30
0.0
 40
0.109375
100
AcDbArc
 50
250.6490004032597
 51
19.92507490820584
  0
CIRCLE
  5
139
330
2
100
AcDbEntity
  8
0
100
AcDbCircle
 10
4.411611652351682
 20
12.90088834764832
 30
0.0
 40
0.109375
  0
ARC
  5
13D
330
2
100
AcDbEntity
  8
0
100
AcDbCircle
 10
3.970025823142636
 20
12.21681033995742
 30
0.0
 40
0.109375
100
AcDbArc
 50
250.6490004032597
 51
19.92507490820584
  0
CIRCLE
  5
13E
330
2
100
AcDbEntity
  8
0
100
AcDbCircle
 10
4.036611652351682
 20
12.15088834764832
 30
0.0
 40
0.109375
  0
CIRCLE
  5
140
330
2
100
AcDbEntity
  8
0
100
AcDbCircle
 10
9.880361652351681
 20
12.94775857898568
 30
0.0
 40
0.125
  0
LINE
  5
141
330
2
100
AcDbEntity
  8
0
100
AcDbLine
 10
9.036611652351681
 20
13.58838834764832
 30
0.0
 11
10.28661165235168
 21
13.58838834764832
 31
0.0
  0
CIRCLE
  5
142
330
2
100
AcDbEntity
  8
0
100
AcDbCircle
 10
9.692861652351681
 20
11.70947041442487
 30
0.0
 40
0.125
  0
CIRCLE
  5
143
330
2
100
AcDbEntity
  8
0
100
AcDbCircle
 10
9.505361652351681
 20
12.30221939889026
 30
0.0
 40
0.125
  0
LINE
  5
179
330
2
100
AcDbEntity
  8
0
100
AcDbLine
 10
4.128257416018315
 20
10.51904977693141
 30
0.0
 11
3.867933542295106
 21
10.58880334866608
 31
0.0
  0
ARC
  5
17A
330
2
100
AcDbEntity
  8
0
100
AcDbCircle
 10
3.876008696502303
 20
10.6189402344463
 30
0.0
 40
0.0312000000000034
100
AcDbArc
 50
135.0000000000069
 51
255.0000000000064
  0
LINE
  5
17B
330
2
100
AcDbEntity
  8
0
100
AcDbLine
 10
3.853946964929279
 20
10.64100196601932
 30
0.0
 11
4.044517266917809
 21
10.83157226800785
 31
0.0
  0
ARC
  5
17C
330
2
100
AcDbEntity
  8
0
100
AcDbCircle
 10
4.066578998490832
 20
10.80951053643483
 30
0.0
 40
0.0312000000000006
100
AcDbArc
 50
15.00000000001192
 51
135.0000000000069
  0
LINE
  5
17D
330
2
100
AcDbEntity
  8
0
100
AcDbLine
 10
4.09671588427105
 20
10.81758569064203
 30
0.0
 11
4.166469456005729
 21
10.55726181691883
 31
0.0
  0
ARC
  5
17E
330
2
100
AcDbEntity
  8
0
100
AcDbCircle
 10
4.136332570225513
 20
10.54918666271163
 30
0.0
 40
0.031199999999997
100
AcDbArc
 50
254.9999999999998
 51
15.00000000000016
  0
ARC
  5
17F
330
2
100
AcDbEntity
  8
0
100
AcDbCircle
 10
1.270986652351684
 20
10.44775857898567
 30
0.0
 40
0.1093749999999999
100
AcDbArc
 50
315.6319555474594
 51
44.36804445254062
  0
ARC
  5
180
330
2
100
AcDbEntity
  8
0
100
AcDbCircle
 10
1.270986652351685
 20
10.44775857898567
 30
0.0
 40
0.1093750000000002
100
AcDbArc
 50
269.9999999999982
 51
290.337876514461
  0
LINE
  5
181
330
2
100
AcDbEntity
  8
0
100
AcDbLine
 10
1.270986652351682
 20
10.33838357898567
 30
0.0
 11
1.052236652351682
 21
10.33838357898567
 31
0.0
  0
ARC
  5
182
330
2
100
AcDbEntity
  8
0
100
AcDbCircle
 10
1.052236652351682
 20
10.44775857898567
 30
0.0
 40
0.109375
100
AcDbArc
 50
90.0
 51
270.0
  0
LINE
  5
183
330
2
100
AcDbEntity
  8
0
100
AcDbLine
 10
1.052236652351682
 20
10.55713357898567
 30
0.0
 11
1.270986652351682
 21
10.55713357898567
 31
0.0
  0
ARC
  5
184
330
2
100
AcDbEntity
  8
0
100
AcDbCircle
 10
1.270986652351685
 20
10.44775857898567
 30
0.0
 40
0.109375
100
AcDbArc
 50
69.66212348553897
 51
90.00000000000186
  0
ARC
  5
185
330
2
100
AcDbEntity
  8
0
100
AcDbCircle
 10
1.270986652351685
 20
1.01025857898567
 30
0.0
 40
0.1093750000000002
100
AcDbArc
 50
269.9999999999982
 51
290.337876514461
  0
LINE
  5
186
330
2
100
AcDbEntity
  8
0
100
AcDbLine
 10
1.270986652351682
 20
0.9008835789856697
 30
0.0
 11
1.052236652351682
 21
0.9008835789856697
 31
0.0
  0
ARC
  5
187
330
2
100
AcDbEntity
  8
0
100
AcDbCircle
 10
1.052236652351682
 20
1.01025857898567
 30
0.0
 40
0.109375
100
AcDbArc
 50
90.0
 51
270.0
  0
LINE
  5
188
330
2
100
AcDbEntity
  8
0
100
AcDbLine
 10
1.052236652351682
 20
1.11963357898567
 30
0.0
 11
1.270986652351682
 21
1.11963357898567
 31
0.0
  0
ARC
  5
189
330
2
100
AcDbEntity
  8
0
100
AcDbCircle
 10
1.270986652351685
 20
1.01025857898567
 30
0.0
 40
0.109375
100
AcDbArc
 50
69.66212348553897
 51
90.00000000000186
  0
ARC
  5
18A
330
2
100
AcDbEntity
  8
0
100
AcDbCircle
 10
1.270986652351684
 20
1.01025857898567
 30
0.0
 40
0.1093749999999999
100
AcDbArc
 50
315.6319555474594
 51
44.36804445254062
  0
LINE
  5
18B
330
2
100
AcDbEntity
  8
0
100
AcDbLine
 10
0.7402366523516823
 20
2.193845414424863
 30
0.0
 11
0.9589866523516823
 21
2.193845414424863
 31
0.0
  0
ARC
  5
18C
330
2
100
AcDbEntity
  8
0
100
AcDbCircle
 10
0.9589866523516823
 20
2.084470414424863
 30
0.0
 40
0.109375
100
AcDbArc
 50
270.0
 51
90.0
  0
LINE
  5
18D
330
2
100
AcDbEntity
  8
0
100
AcDbLine
 10
0.9589866523516823
 20
1.975095414424863
 30
0.0
 11
0.7402366523516823
 21
1.975095414424863
 31
0.0
  0
ARC
  5
18E
330
2
100
AcDbEntity
  8
0
100
AcDbCircle
 10
0.7402366523516823
 20
2.084470414424863
 30
0.0
 40
0.109375
100
AcDbArc
 50
90.0
 51
270.0
  0
ARC
  5
18F
330
2
100
AcDbEntity
  8
0
100
AcDbCircle
 10
1.270986652351685
 20
3.32275857898567
 30
0.0
 40
0.1093750000000002
100
AcDbArc
 50
269.9999999999982
 51
290.337876514461
  0
LINE
  5
190
330
2
100
AcDbEntity
  8
0
100
AcDbLine
 10
1.270986652351682
 20
3.21338357898567
 30
0.0
 11
1.052236652351682
 21
3.21338357898567
 31
0.0
  0
ARC
  5
191
330
2
100
AcDbEntity
  8
0
100
AcDbCircle
 10
1.052236652351682
 20
3.32275857898567
 30
0.0
 40
0.109375
100
AcDbArc
 50
90.0
 51
270.0
  0
LINE
  5
192
330
2
100
AcDbEntity
  8
0
100
AcDbLine
 10
1.052236652351682
 20
3.43213357898567
 30
0.0
 11
1.270986652351682
 21
3.43213357898567
 31
0.0
  0
ARC
  5
193
330
2
100
AcDbEntity
  8
0
100
AcDbCircle
 10
1.270986652351685
 20
3.32275857898567
 30
0.0
 40
0.109375
100
AcDbArc
 50
69.66212348553897
 51
90.00000000000186
  0
ARC
  5
194
330
2
100
AcDbEntity
  8
0
100
AcDbCircle
 10
1.270986652351684
 20
3.32275857898567
 30
0.0
 40
0.1093749999999999
100
AcDbArc
 50
315.6319555474594
 51
44.36804445254062
  0
LINE
  5
195
330
2
100
AcDbEntity
  8
0
100
AcDbLine
 10
0.4272366523516817
 20
7.536594398890251
 30
0.0
 11
0.6459866523516817
 21
7.536594398890251
 31
0.0
  0
ARC
  5
196
330
2
100
AcDbEntity
  8
0
100
AcDbCircle
 10
0.6459866523516817
 20
7.427219398890251
 30
0.0
 40
0.109375
100
AcDbArc
 50
270.0
 51
90.0
  0
LINE
  5
197
330
2
100
AcDbEntity
  8
0
100
AcDbLine
 10
0.6459866523516817
 20
7.317844398890251
 30
0.0
 11
0.4272366523516817
 21
7.317844398890251
 31
0.0
  0
ARC
  5
198
330
2
100
AcDbEntity
  8
0
100
AcDbCircle
 10
0.4272366523516817
 20
7.427219398890251
 30
0.0
 40
0.109375
100
AcDbArc
 50
90.0
 51
270.0
  0
ARC
  5
199
330
2
100
AcDbEntity
  8
0
100
AcDbCircle
 10
1.270986652351685
 20
5.69775857898567
 30
0.0
 40
0.1093750000000002
100
AcDbArc
 50
269.9999999999982
 51
290.337876514461
  0
LINE
  5
19A
330
2
100
AcDbEntity
  8
0
100
AcDbLine
 10
1.270986652351682
 20
5.58838357898567
 30
0.0
 11
1.052236652351682
 21
5.58838357898567
 31
0.0
  0
ARC
  5
19B
330
2
100
AcDbEntity
  8
0
100
AcDbCircle
 10
1.052236652351682
 20
5.69775857898567
 30
0.0
 40
0.109375
100
AcDbArc
 50
90.0
 51
270.0
  0
LINE
  5
19C
330
2
100
AcDbEntity
  8
0
100
AcDbLine
 10
1.052236652351682
 20
5.80713357898567
 30
0.0
 11
1.270986652351682
 21
5.80713357898567
 31
0.0
  0
ARC
  5
19D
330
2
100
AcDbEntity
  8
0
100
AcDbCircle
 10
1.270986652351685
 20
5.69775857898567
 30
0.0
 40
0.109375
100
AcDbArc
 50
69.66212348553897
 51
90.00000000000186
  0
LINE
  5
19E
330
2
100
AcDbEntity
  8
0
100
AcDbLine
 10
0.4272366523516817
 20
5.161594398890251
 30
0.0
 11
0.6459866523516817
 21
5.161594398890251
 31
0.0
  0
ARC
  5
19F
330
2
100
AcDbEntity
  8
0
100
AcDbCircle
 10
0.6459866523516817
 20
5.052219398890251
 30
0.0
 40
0.109375
100
AcDbArc
 50
270.0
 51
90.0
  0
LINE
  5
1A0
330
2
100
AcDbEntity
  8
0
100
AcDbLine
 10
0.6459866523516817
 20
4.942844398890251
 30
0.0
 11
0.4272366523516817
 21
4.942844398890251
 31
0.0
  0
ARC
  5
1A1
330
2
100
AcDbEntity
  8
0
100
AcDbCircle
 10
0.4272366523516817
 20
5.052219398890251
 30
0.0
 40
0.109375
100
AcDbArc
 50
90.0
 51
270.0
  0
LINE
  5
1A2
330
2
100
AcDbEntity
  8
0
100
AcDbLine
 10
0.7402366523516823
 20
4.568845414424863
 30
0.0
 11
0.9589866523516823
 21
4.568845414424863
 31
0.0
  0
ARC
  5
1A3
330
2
100
AcDbEntity
  8
0
100
AcDbCircle
 10
0.9589866523516823
 20
4.459470414424863
 30
0.0
 40
0.109375
100
AcDbArc
 50
270.0
 51
90.0
  0
LINE
  5
1A4
330
2
100
AcDbEntity
  8
0
100
AcDbLine
 10
0.9589866523516823
 20
4.350095414424863
 30
0.0
 11
0.7402366523516823
 21
4.350095414424863
 31
0.0
  0
ARC
  5
1A5
330
2
100
AcDbEntity
  8
0
100
AcDbCircle
 10
0.7402366523516823
 20
4.459470414424863
 30
0.0
 40
0.109375
100
AcDbArc
 50
90.0
 51
270.0
  0
ARC
  5
1A6
330
2
100
AcDbEntity
  8
0
100
AcDbCircle
 10
1.270986652351684
 20
5.69775857898567
 30
0.0
 40
0.1093749999999999
100
AcDbArc
 50
315.6319555474594
 51
44.36804445254062
  0
LINE
  5
1A7
330
2
100
AcDbEntity
  8
0
100
AcDbLine
 10
0.7402366523516823
 20
6.943845414424863
 30
0.0
 11
0.9589866523516823
 21
6.943845414424863
 31
0.0
  0
ARC
  5
1A8
330
2
100
AcDbEntity
  8
0
100
AcDbCircle
 10
0.9589866523516823
 20
6.834470414424863
 30
0.0
 40
0.109375
100
AcDbArc
 50
270.0
 51
90.0
  0
LINE
  5
1A9
330
2
100
AcDbEntity
  8
0
100
AcDbLine
 10
0.9589866523516823
 20
6.725095414424863
 30
0.0
 11
0.7402366523516823
 21
6.725095414424863
 31
0.0
  0
ARC
  5
1AA
330
2
100
AcDbEntity
  8
0
100
AcDbCircle
 10
0.7402366523516823
 20
6.834470414424863
 30
0.0
 40
0.109375
100
AcDbArc
 50
90.0
 51
270.0
  0
ARC
  5
1AB
330
2
100
AcDbEntity
  8
0
100
AcDbCircle
 10
1.270986652351685
 20
8.07275857898567
 30
0.0
 40
0.1093750000000002
100
AcDbArc
 50
269.9999999999982
 51
290.337876514461
  0
LINE
  5
1AC
330
2
100
AcDbEntity
  8
0
100
AcDbLine
 10
1.270986652351682
 20
7.96338357898567
 30
0.0
 11
1.052236652351682
 21
7.96338357898567
 31
0.0
  0
ARC
  5
1AD
330
2
100
AcDbEntity
  8
0
100
AcDbCircle
 10
1.052236652351682
 20
8.07275857898567
 30
0.0
 40
0.109375
100
AcDbArc
 50
90.0
 51
270.0
  0
LINE
  5
1AE
330
2
100
AcDbEntity
  8
0
100
AcDbLine
 10
1.052236652351682
 20
8.18213357898567
 30
0.0
 11
1.270986652351682
 21
8.18213357898567
 31
0.0
  0
ARC
  5
1AF
330
2
100
AcDbEntity
  8
0
100
AcDbCircle
 10
1.270986652351685
 20
8.07275857898567
 30
0.0
 40
0.109375
100
AcDbArc
 50
69.66212348553897
 51
90.00000000000186
  0
ARC
  5
1B0
330
2
100
AcDbEntity
  8
0
100
AcDbCircle
 10
1.270986652351684
 20
8.07275857898567
 30
0.0
 40
0.1093749999999999
100
AcDbArc
 50
315.6319555474594
 51
44.36804445254062
  0
LINE
  5
1B1
330
2
100
AcDbEntity
  8
0
100
AcDbLine
 10
0.4272366523516817
 20
9.911594398890252
 30
0.0
 11
0.6459866523516817
 21
9.911594398890252
 31
0.0
  0
ARC
  5
1B2
330
2
100
AcDbEntity
  8
0
100
AcDbCircle
 10
0.6459866523516817
 20
9.802219398890252
 30
0.0
 40
0.109375
100
AcDbArc
 50
270.0
 51
90.0
  0
LINE
  5
1B3
330
2
100
AcDbEntity
  8
0
100
AcDbLine
 10
0.6459866523516817
 20
9.692844398890252
 30
0.0
 11
0.4272366523516817
 21
9.692844398890252
 31
0.0
  0
ARC
  5
1B4
330
2
100
AcDbEntity
  8
0
100
AcDbCircle
 10
0.4272366523516817
 20
9.802219398890252
 30
0.0
 40
0.109375
100
AcDbArc
 50
90.0
 51
270.0
  0
LINE
  5
1B5
330
2
100
AcDbEntity
  8
0
100
AcDbLine
 10
0.7402366523516823
 20
9.318845414424864
 30
0.0
 11
0.9589866523516823
 21
9.318845414424864
 31
0.0
  0
ARC
  5
1B6
330
2
100
AcDbEntity
  8
0
100
AcDbCircle
 10
0.9589866523516823
 20
9.209470414424864
 30
0.0
 40
0.109375
100
AcDbArc
 50
270.0
 51
90.0
  0
LINE
  5
1B7
330
2
100
AcDbEntity
  8
0
100
AcDbLine
 10
0.9589866523516823
 20
9.100095414424864
 30
0.0
 11
0.7402366523516823
 21
9.100095414424864
 31
0.0
  0
ARC
  5
1B8
330
2
100
AcDbEntity
  8
0
100
AcDbCircle
 10
0.7402366523516823
 20
9.209470414424864
 30
0.0
 40
0.109375
100
AcDbArc
 50
90.0
 51
270.0
  0
LINE
  5
1B9
330
2
100
AcDbEntity
  8
0
100
AcDbLine
 10
4.503257416018315
 20
8.269049776931407
 30
0.0
 11
4.242933542295106
 21
8.338803348666072
 31
0.0
  0
ARC
  5
1BA
330
2
100
AcDbEntity
  8
0
100
AcDbCircle
 10
4.251008696502303
 20
8.368940234446292
 30
0.0
 40
0.0312
100
AcDbArc
 50
135.0000000000023
 51
255.0000000000047
  0
LINE
  5
1BB
330
2
100
AcDbEntity
  8
0
100
AcDbLine
 10
4.228946964929279
 20
8.391001966019314
 30
0.0
 11
4.419517266917809
 21
8.581572268007843
 31
0.0
  0
ARC
  5
1BC
330
2
100
AcDbEntity
  8
0
100
AcDbCircle
 10
4.441578998490834
 20
8.559510536434829
 30
0.0
 40
0.0311999999999994
100
AcDbArc
 50
15.00000000000646
 51
135.0000000000138
  0
LINE
  5
1BD
330
2
100
AcDbEntity
  8
0
100
AcDbLine
 10
4.47171588427105
 20
8.56758569064203
 30
0.0
 11
4.541469456005729
 21
8.307261816918821
 31
0.0
  0
ARC
  5
1BE
330
2
100
AcDbEntity
  8
0
100
AcDbCircle
 10
4.511332570225513
 20
8.299186662711623
 30
0.0
 40
0.031199999999997
100
AcDbArc
 50
254.9999999999998
 51
15.00000000000016
  0
LINE
  5
1BF
330
2
100
AcDbEntity
  8
0
100
AcDbLine
 10
4.42100433287773
 20
8.383802874654659
 30
0.0
 11
4.263855718010064
 21
8.425910719100113
 31
0.0
  0
LINE
  5
1C0
330
2
100
AcDbEntity
  8
0
100
AcDbLine
 10
4.042108528419676
 20
7.829163529509724
 30
0.0
 11
4.084216372865144
 21
7.672014914642072
 31
0.0
  0
ARC
  5
1C1
330
2
100
AcDbEntity
  8
0
100
AcDbCircle
 10
4.054079487084928
 20
7.663939760434874
 30
0.0
 40
0.031199999999997
100
AcDbArc
 50
254.9999999999998
 51
15.00000000000016
  0
LINE
  5
1C2
330
2
100
AcDbEntity
  8
0
100
AcDbLine
 10
4.04600433287773
 20
7.633802874654658
 30
0.0
 11
3.888855718010064
 21
7.675910719100112
 31
0.0
  0
LINE
  5
1C3
330
2
100
AcDbEntity
  8
0
100
AcDbLine
 10
4.128257416018315
 20
7.519049776931406
 30
0.0
 11
3.867933542295106
 21
7.588803348666072
 31
0.0
  0
ARC
  5
1C4
330
2
100
AcDbEntity
  8
0
100
AcDbCircle
 10
3.876008696502303
 20
7.618940234446291
 30
0.0
 40
0.0312
100
AcDbArc
 50
135.0000000000023
 51
255.0000000000047
  0
LINE
  5
1C5
330
2
100
AcDbEntity
  8
0
100
AcDbLine
 10
3.853946964929279
 20
7.641001966019313
 30
0.0
 11
4.044517266917809
 21
7.831572268007842
 31
0.0
  0
ARC
  5
1C6
330
2
100
AcDbEntity
  8
0
100
AcDbCircle
 10
4.066578998490832
 20
7.809510536434828
 30
0.0
 40
0.0311999999999981
100
AcDbArc
 50
15.00000000000562
 51
135.0000000000115
  0
LINE
  5
1C7
330
2
100
AcDbEntity
  8
0
100
AcDbLine
 10
4.09671588427105
 20
7.817585690642029
 30
0.0
 11
4.166469456005729
 21
7.55726181691882
 31
0.0
  0
ARC
  5
1C8
330
2
100
AcDbEntity
  8
0
100
AcDbCircle
 10
4.136332570225513
 20
7.549186662711622
 30
0.0
 40
0.031199999999997
100
AcDbArc
 50
254.9999999999998
 51
15.00000000000016
  0
LINE
  5
1C9
330
2
100
AcDbEntity
  8
0
100
AcDbLine
 10
4.417108528419676
 20
8.579163529509724
 30
0.0
 11
4.459216372865144
 21
8.422014914642073
 31
0.0
  0
ARC
  5
1CA
330
2
100
AcDbEntity
  8
0
100
AcDbCircle
 10
4.429079487084928
 20
8.413939760434875
 30
0.0
 40
0.031199999999997
100
AcDbArc
 50
254.9999999999998
 51
15.00000000000016
  0
LINE
  5
1CB
330
2
100
AcDbEntity
  8
0
100
AcDbLine
 10
0.7402366523516823
 20
11.81884541442487
 30
0.0
 11
0.9589866523516823
 21
11.81884541442487
 31
0.0
  0
ARC
  5
1CC
330
2
100
AcDbEntity
  8
0
100
AcDbCircle
 10
0.9589866523516823
 20
11.70947041442487
 30
0.0
 40
0.109375
100
AcDbArc
 50
270.0
 51
90.0
  0
LINE
  5
1CD
330
2
100
AcDbEntity
  8
0
100
AcDbLine
 10
0.9589866523516823
 20
11.60009541442487
 30
0.0
 11
0.7402366523516823
 21
11.60009541442487
 31
0.0
  0
ARC
  5
1CE
330
2
100
AcDbEntity
  8
0
100
AcDbCircle
 10
0.7402366523516823
 20
11.70947041442487
 30
0.0
 40
0.109375
100
AcDbArc
 50
90.0
 51
270.0
  0
ARC
  5
1CF
330
2
100
AcDbEntity
  8
0
100
AcDbCircle
 10
1.270986652351685
 20
12.94775857898568
 30
0.0
 40
0.1093750000000002
100
AcDbArc
 50
269.9999999999982
 51
290.337876514461
  0
LINE
  5
1D0
330
2
100
AcDbEntity
  8
0
100
AcDbLine
 10
1.270986652351682
 20
12.83838357898568
 30
0.0
 11
1.052236652351682
 21
12.83838357898568
 31
0.0
  0
ARC
  5
1D1
330
2
100
AcDbEntity
  8
0
100
AcDbCircle
 10
1.052236652351682
 20
12.94775857898568
 30
0.0
 40
0.109375
100
AcDbArc
 50
90.0
 51
270.0
  0
LINE
  5
1D2
330
2
100
AcDbEntity
  8
0
100
AcDbLine
 10
1.052236652351682
 20
13.05713357898568
 30
0.0
 11
1.270986652351682
 21
13.05713357898568
 31
0.0
  0
ARC
  5
1D3
330
2
100
AcDbEntity
  8
0
100
AcDbCircle
 10
1.270986652351685
 20
12.94775857898568
 30
0.0
 40
0.109375
100
AcDbArc
 50
69.66212348553897
 51
90.00000000000186
  0
LINE
  5
1D4
330
2
100
AcDbEntity
  8
0
100
AcDbLine
 10
0.4272366523516817
 20
12.41159439889026
 30
0.0
 11
0.6459866523516817
 21
12.41159439889026
 31
0.0
  0
ARC
  5
1D5
330
2
100
AcDbEntity
  8
0
100
AcDbCircle
 10
0.6459866523516817
 20
12.30221939889026
 30
0.0
 40
0.109375
100
AcDbArc
 50
270.0
 51
90.0
  0
LINE
  5
1D6
330
2
100
AcDbEntity
  8
0
100
AcDbLine
 10
0.6459866523516817
 20
12.19284439889026
 30
0.0
 11
0.4272366523516817
 21
12.19284439889026
 31
0.0
  0
ARC
  5
1D7
330
2
100
AcDbEntity
  8
0
100
AcDbCircle
 10
0.4272366523516817
 20
12.30221939889026
 30
0.0
 40
0.109375
100
AcDbArc
 50
90.0
 51
270.0
  0
ARC
  5
1D8
330
2
100
AcDbEntity
  8
0
100
AcDbCircle
 10
1.270986652351684
 20
12.94775857898568
 30
0.0
 40
0.1093749999999999
100
AcDbArc
 50
315.6319555474594
 51
44.36804445254062
  0
LINE
  5
1D9
330
2
100
AcDbEntity
  8
0
100
AcDbLine
 10
4.503257416018315
 20
11.26904977693141
 30
0.0
 11
4.242933542295106
 21
11.33880334866608
 31
0.0
  0
ARC
  5
1DA
330
2
100
AcDbEntity
  8
0
100
AcDbCircle
 10
4.251008696502303
 20
11.3689402344463
 30
0.0
 40
0.0312000000000034
100
AcDbArc
 50
135.0000000000069
 51
255.0000000000064
  0
LINE
  5
1DB
330
2
100
AcDbEntity
  8
0
100
AcDbLine
 10
4.228946964929279
 20
11.39100196601932
 30
0.0
 11
4.419517266917809
 21
11.58157226800785
 31
0.0
  0
ARC
  5
1DC
330
2
100
AcDbEntity
  8
0
100
AcDbCircle
 10
4.441578998490834
 20
11.55951053643483
 30
0.0
 40
0.0312000000000019
100
AcDbArc
 50
15.00000000001277
 51
135.0000000000092
  0
LINE
  5
1DD
330
2
100
AcDbEntity
  8
0
100
AcDbLine
 10
4.47171588427105
 20
11.56758569064203
 30
0.0
 11
4.541469456005729
 21
11.30726181691883
 31
0.0
  0
ARC
  5
1DE
330
2
100
AcDbEntity
  8
0
100
AcDbCircle
 10
4.511332570225513
 20
11.29918666271163
 30
0.0
 40
0.031199999999997
100
AcDbArc
 50
254.9999999999998
 51
15.00000000000016
  0
LINE
  5
1DF
330
2
100
AcDbEntity
  8
0
100
AcDbLine
 10
4.42100433287773
 20
11.38380287465466
 30
0.0
 11
4.263855718010064
 21
11.42591071910012
 31
0.0
  0
LINE
  5
1E0
330
2
100
AcDbEntity
  8
0
100
AcDbLine
 10
4.042108528419676
 20
10.82916352950973
 30
0.0
 11
4.084216372865144
 21
10.67201491464208
 31
0.0
  0
ARC
  5
1E1
330
2
100
AcDbEntity
  8
0
100
AcDbCircle
 10
4.054079487084928
 20
10.66393976043488
 30
0.0
 40
0.031199999999997
100
AcDbArc
 50
254.9999999999998
 51
15.00000000000016
  0
LINE
  5
1E2
330
2
100
AcDbEntity
  8
0
100
AcDbLine
 10
4.04600433287773
 20
10.63380287465466
 30
0.0
 11
3.888855718010064
 21
10.67591071910012
 31
0.0
  0
LINE
  5
1E3
330
2
100
AcDbEntity
  8
0
100
AcDbLine
 10
4.417108528419676
 20
11.57916352950973
 30
0.0
 11
4.459216372865144
 21
11.42201491464208
 31
0.0
  0
ARC
  5
1E4
330
2
100
AcDbEntity
  8
0
100
AcDbCircle
 10
4.429079487084928
 20
11.41393976043488
 30
0.0
 40
0.031199999999997
100
AcDbArc
 50
254.9999999999998
 51
15.00000000000016
  0
ARC
  5
224
330
2
100
AcDbEntity
  8
0
100
AcDbCircle
 10
3.251878913172917
 20
0.0291101082834324
 30
0.0
 40
0.0625
100
AcDbArc
 50
180.0
 51
270.0
  0
LINE
  5
225
330
2
100
AcDbEntity
  8
0
  6
HIDDEN
100
AcDbLine
 10
3.576605629667939
 20
0.0258883476483185
 30
0.0
 11
8.873854591947719
 21
0.0258883476483185
 31
0.0
  0
ENDSEC
  0
SECTION
  2
OBJECTS
  0
DICTIONARY
  5
9
330
0
100
AcDbDictionary
281
     1
  3
ACAD_COLOR
350
213
  3
ACAD_GROUP
350
23
  3
ACAD_LAYOUT
350
D
  3
ACAD_MATERIAL
350
212
  3
ACAD_MLINESTYLE
350
24
  3
ACAD_PLOTSETTINGS
350
25
  3
ACAD_PLOTSTYLENAME
350
8
  3
ACAD_TABLESTYLE
350
214
  3
ACDBHEADERROUNDTRIPXREC
350
24E
  3
AcDbVariableDictionary
350
E0
  0
DICTIONARY
  5
213
102
{ACAD_REACTORS
330
9
102
}
330
9
100
AcDbDictionary
281
     1
  0
DICTIONARY
  5
23
102
{ACAD_REACTORS
330
9
102
}
330
9
100
AcDbDictionary
281
     1
  0
DICTIONARY
  5
D
102
{ACAD_REACTORS
330
9
102
}
330
9
100
AcDbDictionary
281
     1
  3
Layout1
350
13
  3
Model
350
C
  0
DICTIONARY
  5
212
102
{ACAD_REACTORS
330
9
102
}
330
9
100
AcDbDictionary
281
     1
  0
DICTIONARY
  5
24
102
{ACAD_REACTORS
330
9
102
}
330
9
100
AcDbDictionary
281
     1
  3
Standard
350
27
  0
DICTIONARY
  5
25
102
{ACAD_REACTORS
330
9
102
}
330
9
100
AcDbDictionary
281
     1
  0
ACDBDICTIONARYWDFLT
  5
8
102
{ACAD_REACTORS
330
9
102
}
330
9
100
AcDbDictionary
281
     1
  3
Normal
350
7
100
AcDbDictionaryWithDefault
340
7
  0
DICTIONARY
  5
214
102
{ACAD_REACTORS
330
9
102
}
330
9
100
AcDbDictionary
281
     1
  3
Standard
350
215
  0
DICTIONARY
  5
24E
102
{ACAD_REACTORS
330
9
102
}
330
9
100
AcDbDictionary
281
     1
  3
COLORDICT
350
24F
  3
MATERIALDICT
350
250
  0
DICTIONARY
  5
E0
102
{ACAD_REACTORS
330
9
102
}
330
9
100
AcDbDictionary
281
     1
  3
CTABLESTYLE
350
230
  3
HIDETEXT
350
24D
  0
LAYOUT
  5
13
102
{ACAD_REACTORS
330
D
102
}
102
{ACAD_XDICTIONARY
360
251
102
}
330
D
100
AcDbPlotSettings
  1

  2
C:\ACAD2000\plotters\HP LaserJet 2100 Series PS.pc3
  4

  6

 40
0.0
 41
0.0
 42
0.0
 43
0.0
 44
0.0
 45
0.0
 46
0.0
 47
0.0
 48
0.0
 49
0.0
140
0.0
141
0.0
142
1.0
143
1.0
 70
   688
 72
     0
 73
     0
 74
     5
  7

 75
    16
147
1.0
148
0.0
149
0.0
100
AcDbLayout
  1
Layout1
 70
     0
 71
     1
 10
0.0
 20
0.0
 11
12.0
 21
9.0
 12
0.0
 22
0.0
 32
0.0
 14
1.000000000000000E+20
 24
1.000000000000000E+20
 34
1.000000000000000E+20
 15
-1.000000000000000E+20
 25
-1.000000000000000E+20
 35
-1.000000000000000E+20
146
0.0
 13
0.0
 23
0.0
 33
0.0
 16
1.0
 26
0.0
 36
0.0
 17
0.0
 27
1.0
 37
0.0
 76
     0
330
E
  0
LAYOUT
  5
C
102
{ACAD_REACTORS
330
D
102
}
102
{ACAD_XDICTIONARY
360
253
102
}
330
D
100
AcDbPlotSettings
  1

  2
LaserJet 4M.pc3
  4
ANSI_A_(8.50_x_11.00_Inches)
  6

 40
5.027082920074463
 41
5.027082920074463
 42
9.345077514648438
 43
5.11175537109375
 44
215.8999938964844
 45
279.3999938964844
 46
0.0
 47
0.0
 48
0.0
 49
0.0
140
0.0
141
0.0
142
1.0
143
6.616951996623447
 70
 28336
 72
     0
 73
     3
 74
     2
  7

 75
     0
147
0.1511269842232932
148
0.0
149
0.0
100
AcDbLayout
  1
Model
 70
     1
 71
     0
 10
0.0
 20
0.0
 11
12.0
 21
9.0
 12
0.0
 22
0.0
 32
0.0
 14
0.0
 24
0.0
 34
0.0
 15
0.0
 25
0.0
 35
0.0
146
0.0
 13
0.0
 23
0.0
 33
0.0
 16
1.0
 26
0.0
 36
0.0
 17
0.0
 27
1.0
 37
0.0
 76
     0
330
2
  0
MLINESTYLE
  5
27
102
{ACAD_REACTORS
330
24
102
}
330
24
100
AcDbMlineStyle
  2
STANDARD
 70
     0
  3

 62
   256
 51
90.0
 52
90.0
 71
     2
 49
0.5
 62
   256
  6
BYLAYER
 49
-0.5
 62
   256
  6
BYLAYER
  0
ACDBPLACEHOLDER
  5
7
102
{ACAD_REACTORS
330
8
102
}
330
8
  0
ACAD_PROXY_OBJECT
  5
215
102
{ACAD_REACTORS
330
214
102
}
330
214
100
AcDbProxyObject
 90
      499
 91
      533
 95
   983063
 70
     0
 93
     1841
310
4214DD185B99185C9928B81E85EB51B8AE3F2E07A17AD46E2B8FC02B5E8DC0F42B1CFD028000000C1008070000C3001FDFF8000000C1003FBFF000000182007F7FE00000030400FEFFC00000060801FDFF8000000C1003FBFF00000018200000000000000681FA0B0000001820100E000186003FBFF000000182007F7FE000
310
00030400FEFFC00000060801FDFF8000000C1003FBFF000000182007F7FE000000304000AD7A3703D0AC73F4160000003040201C00030C007F7FE00000030400FEFFC00000060801FDFF8000000C1003FBFF000000182007F7FE00000030400FEFFC000000608000
340
16
340
16
340
16
 94
        0
  0
XRECORD
  5
24F
102
{ACAD_REACTORS
330
24E
102
}
330
24E
100
AcDbXrecord
340
213
  0
XRECORD
  5
250
102
{ACAD_REACTORS
330
24E
102
}
330
24E
100
AcDbXrecord
340
212
  0
DICTIONARYVAR
  5
230
102
{ACAD_REACTORS
330
E0
102
}
330
E0
100
DictionaryVariables
280
     0
  1
STANDARD
  0
DICTIONARYVAR
  5
24D
102
{ACAD_REACTORS
330
E0
102
}
330
E0
100
DictionaryVariables
280
     0
  1
0
  0
DICTIONARY
  5
251
330
13
100
AcDbDictionary
280
     1
281
     1
  3
ACAD_XREC_ROUNDTRIP
360
252
  0
DICTIONARY
  5
253
330
C
100
AcDbDictionary
280
     1
281
     1
  3
ACAD_XREC_ROUNDTRIP
360
254
  0
XRECORD
  5
252
102
{ACAD_REACTORS
330
251
102
}
330
251
100
AcDbXrecord
102
SHADEPLOT
 70
     0
102
SHADEPLOTRESLEVEL
 70
     2
102
SHADEPLOTCUSTOMDPI
 70
   300
  0
XRECORD
  5
254
102
{ACAD_REACTORS
330
253
102
}
330
253
100
AcDbXrecord
102
SHADEPLOT
 70
     0
102
SHADEPLOTRESLEVEL
 70
     2
102
SHADEPLOTCUSTOMDPI
 70
   300
  0
ENDSEC
  0
EOF
