  0
SECTION
  2
HEADER
  9
$ACADVER
  1
AC1015
  9
$ACADMAINTVER
 70
     6
  9
$DWGCODEPAGE
  3
ANSI_1252
  9
$INSBASE
 10
0.0
 20
0.0
 30
0.0
  9
$EXTMIN
 10
-10.35323744561026
 20
-0.0421549862168362
 30
-0.0015258207003583
  9
$EXTMAX
 10
10.35146433378955
 20
15.71008244671187
 30
0.0000000349246037
  9
$LIMMIN
 10
0.0
 20
0.0
  9
$LIMMAX
 10
32.03875092730144
 20
24.0
  9
$ORTHOMODE
 70
     1
  9
$REGENMODE
 70
     1
  9
$FILLMODE
 70
     1
  9
$QTEXTMODE
 70
     0
  9
$MIRRTEXT
 70
     0
  9
$LTSCALE
 40
1.0
  9
$ATTMODE
 70
     1
  9
$TEXTSIZE
 40
0.27
  9
$TRACEWID
 40
0.05
  9
$TEXTSTYLE
  7
STANDARD
  9
$CLAYER
  8
0
  9
$CELTYPE
  6
BYLAYER
  9
$CECOLOR
 62
   256
  9
$CELTSCALE
 40
1.0
  9
$DISPSILH
 70
     0
  9
$DIMSCALE
 40
1.0
  9
$DIMASZ
 40
0.375
  9
$DIMEXO
 40
0.0625
  9
$DIMDLI
 40
0.75
  9
$DIMRND
 40
0.0
  9
$DIMDLE
 40
0.0
  9
$DIMEXE
 40
0.18
  9
$DIMTP
 40
0.0
  9
$DIMTM
 40
0.0
  9
$DIMTXT
 40
0.27
  9
$DIMCEN
 40
-0.06
  9
$DIMTSZ
 40
0.0
  9
$DIMTOL
 70
     0
  9
$DIMLIM
 70
     0
  9
$DIMTIH
 70
     1
  9
$DIMTOH
 70
     1
  9
$DIMSE1
 70
     0
  9
$DIMSE2
 70
     0
  9
$DIMTAD
 70
     0
  9
$DIMZIN
 70
     0
  9
$DIMBLK
  1

  9
$DIMASO
 70
     0
  9
$DIMSHO
 70
     0
  9
$DIMPOST
  1

  9
$DIMAPOST
  1

  9
$DIMALT
 70
     0
  9
$DIMALTD
 70
     2
  9
$DIMALTF
 40
25.4
  9
$DIMLFAC
 40
1.0
  9
$DIMTOFL
 70
     0
  9
$DIMTVP
 40
0.0
  9
$DIMTIX
 70
     0
  9
$DIMSOXD
 70
     0
  9
$DIMSAH
 70
     0
  9
$DIMBLK1
  1

  9
$DIMBLK2
  1

  9
$DIMSTYLE
  2
STANDARD
  9
$DIMCLRD
 70
     0
  9
$DIMCLRE
 70
     0
  9
$DIMCLRT
 70
     0
  9
$DIMTFAC
 40
1.0
  9
$DIMGAP
 40
0.09
  9
$DIMJUST
 70
     0
  9
$DIMSD1
 70
     0
  9
$DIMSD2
 70
     0
  9
$DIMTOLJ
 70
     1
  9
$DIMTZIN
 70
     0
  9
$DIMALTZ
 70
     0
  9
$DIMALTTZ
 70
     0
  9
$DIMUPT
 70
     0
  9
$DIMDEC
 70
     4
  9
$DIMTDEC
 70
     4
  9
$DIMALTU
 70
     5
  9
$DIMALTTD
 70
     2
  9
$DIMTXSTY
  7
STANDARD
  9
$DIMAUNIT
 70
     0
  9
$DIMADEC
 70
     0
  9
$DIMALTRND
 40
0.0
  9
$DIMAZIN
 70
     0
  9
$DIMDSEP
 70
    46
  9
$DIMATFIT
 70
     3
  9
$DIMFRAC
 70
     0
  9
$DIMLDRBLK
  1

  9
$DIMLUNIT
 70
     5
  9
$DIMLWD
 70
    -2
  9
$DIMLWE
 70
    -2
  9
$DIMTMOVE
 70
     2
  9
$LUNITS
 70
     5
  9
$LUPREC
 70
     4
  9
$SKETCHINC
 40
0.1
  9
$FILLETRAD
 40
0.0
  9
$AUNITS
 70
     0
  9
$AUPREC
 70
     0
  9
$MENU
  1
ACAD
  9
$ELEVATION
 40
0.0
  9
$PELEVATION
 40
0.0
  9
$THICKNESS
 40
0.0
  9
$LIMCHECK
 70
     0
  9
$CHAMFERA
 40
0.0
  9
$CHAMFERB
 40
0.0
  9
$CHAMFERC
 40
0.0
  9
$CHAMFERD
 40
0.0
  9
$SKPOLY
 70
     0
  9
$TDCREATE
 40
2449442.595806829
  9
$TDUCREATE
 40
2449442.929140162
  9
$TDUPDATE
 40
2454168.928154341
  9
$TDUUPDATE
 40
2454169.261487674
  9
$TDINDWG
 40
0.1939631713
  9
$TDUSRTIMER
 40
0.1939631713
  9
$USRTIMER
 70
     1
  9
$ANGBASE
 50
0.0
  9
$ANGDIR
 70
     0
  9
$PDMODE
 70
     0
  9
$PDSIZE
 40
0.0
  9
$PLINEWID
 40
0.0
  9
$SPLFRAME
 70
     0
  9
$SPLINETYPE
 70
     6
  9
$SPLINESEGS
 70
     8
  9
$HANDSEED
  5
26F
  9
$SURFTAB1
 70
     6
  9
$SURFTAB2
 70
     6
  9
$SURFTYPE
 70
     6
  9
$SURFU
 70
     6
  9
$SURFV
 70
     6
  9
$UCSBASE
  2

  9
$UCSNAME
  2

  9
$UCSORG
 10
0.0
 20
0.0
 30
0.0
  9
$UCSXDIR
 10
1.0
 20
0.0
 30
0.0
  9
$UCSYDIR
 10
0.0
 20
1.0
 30
0.0
  9
$UCSORTHOREF
  2

  9
$UCSORTHOVIEW
 70
     0
  9
$UCSORGTOP
 10
0.0
 20
0.0
 30
0.0
  9
$UCSORGBOTTOM
 10
0.0
 20
0.0
 30
0.0
  9
$UCSORGLEFT
 10
0.0
 20
0.0
 30
0.0
  9
$UCSORGRIGHT
 10
0.0
 20
0.0
 30
0.0
  9
$UCSORGFRONT
 10
0.0
 20
0.0
 30
0.0
  9
$UCSORGBACK
 10
0.0
 20
0.0
 30
0.0
  9
$PUCSBASE
  2

  9
$PUCSNAME
  2

  9
$PUCSORG
 10
0.0
 20
0.0
 30
0.0
  9
$PUCSXDIR
 10
1.0
 20
0.0
 30
0.0
  9
$PUCSYDIR
 10
0.0
 20
1.0
 30
0.0
  9
$PUCSORTHOREF
  2

  9
$PUCSORTHOVIEW
 70
     0
  9
$PUCSORGTOP
 10
0.0
 20
0.0
 30
0.0
  9
$PUCSORGBOTTOM
 10
0.0
 20
0.0
 30
0.0
  9
$PUCSORGLEFT
 10
0.0
 20
0.0
 30
0.0
  9
$PUCSORGRIGHT
 10
0.0
 20
0.0
 30
0.0
  9
$PUCSORGFRONT
 10
0.0
 20
0.0
 30
0.0
  9
$PUCSORGBACK
 10
0.0
 20
0.0
 30
0.0
  9
$USERI1
 70
     0
  9
$USERI2
 70
     0
  9
$USERI3
 70
     0
  9
$USERI4
 70
     0
  9
$USERI5
 70
     0
  9
$USERR1
 40
0.0
  9
$USERR2
 40
0.0
  9
$USERR3
 40
0.0
  9
$USERR4
 40
0.0
  9
$USERR5
 40
0.0
  9
$WORLDVIEW
 70
     1
  9
$SHADEDGE
 70
     3
  9
$SHADEDIF
 70
    70
  9
$TILEMODE
 70
     1
  9
$MAXACTVP
 70
    16
  9
$PINSBASE
 10
0.0
 20
0.0
 30
0.0
  9
$PLIMCHECK
 70
     0
  9
$PEXTMIN
 10
1.000000000000000E+20
 20
1.000000000000000E+20
 30
1.000000000000000E+20
  9
$PEXTMAX
 10
-1.000000000000000E+20
 20
-1.000000000000000E+20
 30
-1.000000000000000E+20
  9
$PLIMMIN
 10
0.0
 20
0.0
  9
$PLIMMAX
 10
12.0
 20
9.0
  9
$UNITMODE
 70
     0
  9
$VISRETAIN
 70
     0
  9
$PLINEGEN
 70
     0
  9
$PSLTSCALE
 70
     0
  9
$TREEDEPTH
 70
  3020
  9
$CMLSTYLE
  2
STANDARD
  9
$CMLJUST
 70
     0
  9
$CMLSCALE
 40
1.0
  9
$PROXYGRAPHICS
 70
     1
  9
$MEASUREMENT
 70
     0
  9
$CELWEIGHT
370
    -1
  9
$ENDCAPS
280
     0
  9
$JOINSTYLE
280
     0
  9
$LWDISPLAY
290
     0
  9
$INSUNITS
 70
     0
  9
$HYPERLINKBASE
  1

  9
$STYLESHEET
  1

  9
$XEDIT
290
     1
  9
$CEPSNTYPE
380
     0
  9
$PSTYLEMODE
290
     1
  9
$FINGERPRINTGUID
  2
{B03BFD4F-CEC8-11D5-BE3F-00508B5FCD51}
  9
$VERSIONGUID
  2
{A10B2C7D-4266-4F63-88F1-6F3BDB3BDF32}
  9
$EXTNAMES
290
     1
  9
$PSVPSCALE
 40
0.0
  9
$OLESTARTUP
290
     0
  0
ENDSEC
  0
SECTION
  2
CLASSES
  0
CLASS
  1
DICTIONARYVAR
  2
AcDbDictionaryVar
  3
AutoCAD 2000
 90
        0
280
     0
281
     0
  0
CLASS
  1
IDBUFFER
  2
AcDbIdBuffer
  3
AutoCAD 2000
 90
        0
280
     0
281
     0
  0
CLASS
  1
LWPOLYLINE
  2
AcDbPolyline
  3
AutoCAD 2000
 90
        0
280
     0
281
     1
  0
CLASS
  1
ACDBDICTIONARYWDFLT
  2
AcDbDictionaryWithDefault
  3
AutoCAD 2000
 90
        0
280
     0
281
     0
  0
CLASS
  1
ACDBPLACEHOLDER
  2
AcDbPlaceHolder
  3
ObjectDBX Classes
 90
        0
280
     0
281
     0
  0
CLASS
  1
LAYOUT
  2
AcDbLayout
  3
ObjectDBX Classes
 90
        0
280
     0
281
     0
  0
CLASS
  1
LONG_TRANSACTION
  2
AcDbLongTransaction
  3
ObjectDBX Classes
 90
   -65536
280
     1
281
     0
  0
CLASS
  1
LWPOLYLINE
  2
AcDbPolyline
  3
AutoCAD 2000
 90
        0
280
     0
281
     1
  0
CLASS
  1
HATCH
  2
AcDbHatch
  3
AutoCAD 2000
 90
        0
280
     0
281
     1
  0
CLASS
  1
XRECORD
  2
AcDbXrecord
  3
AutoCAD 2000
 90
        0
280
     0
281
     0
  0
CLASS
  1
TABLESTYLE
  2
AcDbTableStyle
  3
ObjectDBX Classes
 90
     2047
280
     1
281
     0
  0
CLASS
  1
SORTENTSTABLE
  2
AcDbSortentsTable
  3
AutoCAD 2000
 90
        0
280
     0
281
     0
  0
ENDSEC
  0
SECTION
  2
TABLES
  0
TABLE
  2
VPORT
  5
1D
330
0
100
AcDbSymbolTable
 70
     3
  0
VPORT
  5
261
330
1D
100
AcDbSymbolTableRecord
100
AcDbViewportTableRecord
  2
*Active
 70
     0
 10
0.0
 20
0.0
 11
1.0
 21
1.0
 12
10.84275674084558
 22
11.97892250689158
 13
0.0
 23
0.0
 14
0.0625
 24
0.0625
 15
0.5
 25
0.5
 16
0.0
 26
0.0
 36
1.0
 17
0.0
 27
0.0
 37
0.0
 40
24.34205712741704
 41
1.814583333333333
 42
50.0
 43
0.0
 44
0.0
 50
0.0
 51
0.0
 71
     0
 72
   100
 73
     1
 74
     0
 75
     0
 76
     0
 77
     0
 78
     1
281
     0
 65
     1
110
0.0
120
0.0
130
0.0
111
1.0
121
0.0
131
0.0
112
0.0
122
1.0
132
0.0
 79
     0
146
0.0
  0
ENDTAB
  0
TABLE
  2
LTYPE
  5
18
330
0
100
AcDbSymbolTable
 70
     2
  0
LTYPE
  5
19
330
18
100
AcDbSymbolTableRecord
100
AcDbLinetypeTableRecord
  2
BYBLOCK
 70
     0
  3

 72
    65
 73
     0
 40
0.0
  0
LTYPE
  5
1A
330
18
100
AcDbSymbolTableRecord
100
AcDbLinetypeTableRecord
  2
BYLAYER
 70
     0
  3

 72
    65
 73
     0
 40
0.0
  0
LTYPE
  5
A
330
18
100
AcDbSymbolTableRecord
100
AcDbLinetypeTableRecord
  2
CONTINUOUS
 70
     0
  3
Solid line
 72
    65
 73
     0
 40
0.0
  0
LTYPE
  5
124
330
18
100
AcDbSymbolTableRecord
100
AcDbLinetypeTableRecord
  2
HIDDEN
 70
     0
  3
__ __ __ __ __ __ __ __ __ __ __ __ __ __ __ __
 72
    65
 73
     2
 40
0.375
 49
0.25
 74
     0
 49
-0.125
 74
     0
  0
ENDTAB
  0
TABLE
  2
LAYER
  5
14
330
0
100
AcDbSymbolTable
 70
     1
  0
LAYER
  5
6
330
14
100
AcDbSymbolTableRecord
100
AcDbLayerTableRecord
  2
0
 70
     0
 62
     7
  6
CONTINUOUS
370
    -3
390
7
  0
ENDTAB
  0
TABLE
  2
STYLE
  5
15
330
0
100
AcDbSymbolTable
 70
     1
  0
STYLE
  5
16
330
15
100
AcDbSymbolTableRecord
100
AcDbTextStyleTableRecord
  2
STANDARD
 70
     0
 40
0.0
 41
1.0
 50
0.0
 71
     0
 42
0.27
  3
TXT
  4

  0
ENDTAB
  0
TABLE
  2
VIEW
  5
1B
330
0
100
AcDbSymbolTable
 70
     0
  0
ENDTAB
  0
TABLE
  2
UCS
  5
1C
330
0
100
AcDbSymbolTable
 70
     0
  0
ENDTAB
  0
TABLE
  2
APPID
  5
1F
330
0
100
AcDbSymbolTable
 70
     1
  0
APPID
  5
20
330
1F
100
AcDbSymbolTableRecord
100
AcDbRegAppTableRecord
  2
ACAD
 70
     0
  0
ENDTAB
  0
TABLE
  2
DIMSTYLE
  5
21
330
0
100
AcDbSymbolTable
 70
     1
100
AcDbDimStyleTable
  0
DIMSTYLE
105
28
330
21
100
AcDbSymbolTableRecord
100
AcDbDimStyleTableRecord
  2
STANDARD
 70
     0
  3

  4

340
16
  0
ENDTAB
  0
TABLE
  2
BLOCK_RECORD
  5
1
330
0
100
AcDbSymbolTable
 70
     0
  0
BLOCK_RECORD
  5
2
102
{ACAD_XDICTIONARY
360
3
102
}
330
1
100
AcDbSymbolTableRecord
100
AcDbBlockTableRecord
  2
*MODEL_SPACE
340
C
  0
BLOCK_RECORD
  5
E
330
1
100
AcDbSymbolTableRecord
100
AcDbBlockTableRecord
  2
*PAPER_SPACE
340
13
  0
ENDTAB
  0
ENDSEC
  0
SECTION
  2
BLOCKS
  0
BLOCK
  5
5
330
2
100
AcDbEntity
  8
0
100
AcDbBlockBegin
  2
*MODEL_SPACE
 70
     0
 10
0.0
 20
0.0
 30
0.0
  3
*MODEL_SPACE
  1

  4

  0
ENDBLK
  5
B
330
2
100
AcDbEntity
  8
0
100
AcDbBlockEnd
  0
BLOCK
  5
11
330
E
100
AcDbEntity
 67
     1
  8
0
100
AcDbBlockBegin
  2
*PAPER_SPACE
 70
     0
 10
0.0
 20
0.0
 30
0.0
  3
*PAPER_SPACE
  1

  4

  0
ENDBLK
  5
12
330
E
100
AcDbEntity
 67
     1
  8
0
100
AcDbBlockEnd
  0
ENDSEC
  0
SECTION
  2
ENTITIES
  0
LINE
  5
188
330
2
100
AcDbEntity
  8
0
  6
HIDDEN
100
AcDbLine
 10
8.251466765361908
 20
0.0830100000000016
 30
0.0
 11
10.24316076536191
 21
0.0830100000000016
 31
0.0
  0
LINE
  5
189
330
2
100
AcDbEntity
  8
0
100
AcDbLine
 10
9.305656765361913
 20
3.200340000000004
 30
0.0
 11
8.251466765361908
 21
0.3893200000000014
 31
0.0
  0
LINE
  5
18A
330
2
100
AcDbEntity
  8
0
100
AcDbLine
 10
8.251466765361908
 20
0.0205100000000016
 30
0.0
 11
10.24316076536191
 21
0.0205100000000016
 31
0.0
  0
LINE
  5
18B
330
2
100
AcDbEntity
  8
0
100
AcDbLine
 10
3.552182963064691
 20
10.3921148910456
 30
0.0
 11
3.552193391793896
 21
1.694653527535559
 31
0.0
  0
LINE
  5
18C
330
2
100
AcDbEntity
  8
0
100
AcDbLine
 10
-2.339077036935308
 20
10.3921148910456
 30
0.0
 11
-2.339077036935308
 21
1.1294
 31
0.0
  0
LINE
  5
18D
330
2
100
AcDbEntity
  8
0
100
AcDbLine
 10
-2.417687036935305
 20
10.3921148910456
 30
0.0
 11
-2.417687036935305
 21
1.1294
 31
0.0
  0
LINE
  5
18E
330
2
100
AcDbEntity
  8
0
100
AcDbLine
 10
2.414092963064693
 20
8.326720000000002
 30
0.0
 11
2.414092963064693
 21
2.451720000000002
 31
0.0
  0
LINE
  5
18F
330
2
100
AcDbEntity
  8
0
100
AcDbLine
 10
2.335162963064693
 20
2.451720000000002
 30
0.0
 11
2.335162963064693
 21
10.3921148910456
 31
0.0
  0
LINE
  5
190
330
2
100
AcDbEntity
  8
0
100
AcDbLine
 10
-3.572486680952054
 20
10.3921148910456
 30
0.0
 11
-3.572497109681255
 21
1.694653527535559
 31
0.0
  0
LINE
  5
191
330
2
100
AcDbEntity
  8
0
100
AcDbLine
 10
-2.21409296306469
 20
0.0790700000000015
 30
0.0
 11
2.210142963064694
 21
0.0790700000000015
 31
0.0
  0
LINE
  5
192
330
2
100
AcDbEntity
  8
0
100
AcDbLine
 10
-2.21409296306469
 20
0.0
 30
0.0
 11
2.21409296306469
 21
0.0
 31
0.0
  0
LINE
  5
193
330
2
100
AcDbEntity
  8
0
100
AcDbLine
 10
-2.434396680952052
 20
0.2167999999999992
 30
0.0
 11
-3.572497109681258
 21
1.694653527535561
 31
0.0
  0
LINE
  5
195
330
2
100
AcDbEntity
  8
0
100
AcDbLine
 10
-2.417687036935305
 20
1.139220000000002
 30
0.0
 11
-2.417687036935305
 21
0.1971900000000026
 31
0.0
  0
LINE
  5
196
330
2
100
AcDbEntity
  8
0
100
AcDbLine
 10
-2.339077036935308
 20
1.139220000000002
 30
0.0
 11
-2.339077036935308
 21
0.201509999999999
 31
0.0
  0
ARC
  5
197
330
2
100
AcDbEntity
  8
0
100
AcDbCircle
 10
-2.21768703693531
 20
0.2000000000000028
 30
0.0
 40
0.2
100
AcDbArc
 50
180.0
 51
270.0
  0
ARC
  5
198
330
2
100
AcDbEntity
  8
0
100
AcDbCircle
 10
-2.214077036935308
 20
0.2043700000000008
 30
0.0
 40
0.125
100
AcDbArc
 50
180.0
 51
269.9927
  0
CIRCLE
  5
199
330
2
100
AcDbEntity
  8
0
100
AcDbCircle
 10
-3.25199622190835
 20
3.026486129046347
 30
0.0
 40
0.109
  0
CIRCLE
  5
19A
330
2
100
AcDbEntity
  8
0
100
AcDbCircle
 10
-3.25199622190835
 20
4.776486129046347
 30
0.0
 40
0.109
  0
LINE
  5
19B
330
2
100
AcDbEntity
  8
0
100
AcDbLine
 10
2.335162963064693
 20
0.1821800000000025
 30
0.0
 11
2.335162963064693
 21
2.457610000000003
 31
0.0
  0
LINE
  5
19C
330
2
100
AcDbEntity
  8
0
100
AcDbLine
 10
2.414092963064693
 20
2.457610000000003
 30
0.0
 11
2.414092963064693
 21
0.1857700000000016
 31
0.0
  0
LINE
  5
19D
330
2
100
AcDbEntity
  8
0
100
AcDbLine
 10
2.414092963064693
 20
0.2167999999999992
 30
0.0
 11
3.552193391793896
 21
1.694653527535561
 31
0.0
  0
ARC
  5
19E
330
2
100
AcDbEntity
  8
0
100
AcDbCircle
 10
2.21409296306469
 20
0.2000000000000028
 30
0.0
 40
0.2
100
AcDbArc
 50
270.0
 51
0.0
  0
ARC
  5
19F
330
2
100
AcDbEntity
  8
0
100
AcDbCircle
 10
2.210162963064693
 20
0.2040700000000015
 30
0.0
 40
0.125
100
AcDbArc
 50
269.9927
 51
0.0
  0
CIRCLE
  5
1A0
330
2
100
AcDbEntity
  8
0
100
AcDbCircle
 10
3.231692504020987
 20
3.026486129046347
 30
0.0
 40
0.109
  0
CIRCLE
  5
1A1
330
2
100
AcDbEntity
  8
0
100
AcDbCircle
 10
3.231692504020987
 20
4.776486129046347
 30
0.0
 40
0.109
  0
LINE
  5
1A2
330
2
100
AcDbEntity
  8
0
100
AcDbLine
 10
8.251466765361908
 20
0.0205100000000016
 30
0.0
 11
8.251466765361908
 21
0.3893200000000014
 31
0.0
  0
LINE
  5
1A3
330
2
100
AcDbEntity
  8
0
100
AcDbLine
 10
-2.413923227530564
 20
13.5715554940239
 30
0.0
 11
2.422700323753393
 21
13.5715554940239
 31
0.0
  0
LINE
  5
1A5
330
2
100
AcDbEntity
  8
0
100
AcDbLine
 10
-2.304765879770141
 20
15.5715554940239
 30
0.0
 11
2.338043504771807
 21
15.5713906173573
 31
0.0
  0
CIRCLE
  5
1A7
330
2
100
AcDbEntity
  8
0
100
AcDbCircle
 10
-3.25199622190835
 20
6.526486129046347
 30
0.0
 40
0.109
  0
CIRCLE
  5
1A8
330
2
100
AcDbEntity
  8
0
100
AcDbCircle
 10
-2.68949622190835
 20
5.651486129046347
 30
0.0
 40
0.109
  0
CIRCLE
  5
1AA
330
2
100
AcDbEntity
  8
0
100
AcDbCircle
 10
-3.25199622190835
 20
8.276486129046347
 30
0.0
 40
0.109
  0
CIRCLE
  5
1AB
330
2
100
AcDbEntity
  8
0
100
AcDbCircle
 10
-2.68949622190835
 20
7.401486129046347
 30
0.0
 40
0.109
  0
LINE
  5
1AD
330
2
100
AcDbEntity
  8
0
100
AcDbLine
 10
-3.572486680952054
 20
10.3921148910456
 30
0.0
 11
-2.355466680952052
 21
10.3921148910456
 31
0.0
  0
CIRCLE
  5
1AE
330
2
100
AcDbEntity
  8
0
100
AcDbCircle
 10
-3.25199622190835
 20
10.02648612904635
 30
0.0
 40
0.109
  0
CIRCLE
  5
1AF
330
2
100
AcDbEntity
  8
0
100
AcDbCircle
 10
-2.68949622190835
 20
9.151486129046347
 30
0.0
 40
0.109
  0
LINE
  5
1B0
330
2
100
AcDbEntity
  8
0
100
AcDbLine
 10
-2.339077036935308
 20
10.3921148910456
 30
0.0
 11
-2.417687036935305
 21
10.3921148910456
 31
0.0
  0
LINE
  5
1B1
330
2
100
AcDbEntity
  8
0
100
AcDbLine
 10
-2.304765879770141
 20
15.57236380403025
 30
0.0
 11
-2.304765879770141
 21
13.5715554940239
 31
0.0
  0
LINE
  5
1B2
330
2
100
AcDbEntity
  8
0
100
AcDbLine
 10
-2.413923227530564
 20
14.64026937489738
 30
0.0
 11
-2.413923227530564
 21
13.5715554940239
 31
0.0
  0
LINE
  5
1B3
330
2
100
AcDbEntity
  8
0
100
AcDbLine
 10
-3.537957235900169
 20
15.6884395406344
 30
0.0
 11
-2.413607866031153
 21
15.6884395406344
 31
0.0
  0
LINE
  5
1B4
330
2
100
AcDbEntity
  8
0
100
AcDbLine
 10
-3.537957235900169
 20
15.60481377984019
 30
0.0
 11
-2.450530535015933
 21
15.60481377984019
 31
0.0
  0
LINE
  5
1B5
330
2
100
AcDbEntity
  8
0
100
AcDbLine
 10
-3.537957235900169
 20
15.6884395406344
 30
0.0
 11
-3.537957235900169
 21
15.60481377984019
 31
0.0
  0
LINE
  5
1B6
330
2
100
AcDbEntity
  8
0
100
AcDbLine
 10
-2.413923227530564
 20
15.57236380403025
 30
0.0
 11
-2.413923227530564
 21
14.64026937489738
 31
0.0
  0
ARC
  5
1B7
330
2
100
AcDbEntity
  8
0
100
AcDbCircle
 10
-2.459146762945942
 20
15.55640397896969
 30
0.0
 40
0.0503720798587291
100
AcDbArc
 50
18.47185109134848
 51
80.15102952879272
  0
ARC
  5
1B8
330
2
100
AcDbEntity
  8
0
100
AcDbCircle
 10
-2.423151026812786
 20
15.57090959262285
 30
0.0
 40
0.1183940782772806
100
AcDbArc
 50
0.7037705987198233
 51
85.34636137951461
  0
LINE
  5
1B9
330
2
100
AcDbEntity
  8
0
100
AcDbLine
 10
2.414092963064693
 20
10.3921148910456
 30
0.0
 11
2.414092963064693
 21
8.314220000000002
 31
0.0
  0
CIRCLE
  5
1BB
330
2
100
AcDbEntity
  8
0
100
AcDbCircle
 10
2.669192504020987
 20
5.651486129046347
 30
0.0
 40
0.109
  0
CIRCLE
  5
1BC
330
2
100
AcDbEntity
  8
0
100
AcDbCircle
 10
3.231692504020987
 20
6.526486129046347
 30
0.0
 40
0.109
  0
CIRCLE
  5
1BE
330
2
100
AcDbEntity
  8
0
100
AcDbCircle
 10
2.669192504020987
 20
7.401486129046347
 30
0.0
 40
0.109
  0
CIRCLE
  5
1BF
330
2
100
AcDbEntity
  8
0
100
AcDbCircle
 10
3.231692504020987
 20
8.276486129046347
 30
0.0
 40
0.109
  0
CIRCLE
  5
1C1
330
2
100
AcDbEntity
  8
0
100
AcDbCircle
 10
2.669192504020987
 20
9.151486129046347
 30
0.0
 40
0.109
  0
LINE
  5
1C2
330
2
100
AcDbEntity
  8
0
100
AcDbLine
 10
3.552182963064691
 20
10.3921148910456
 30
0.0
 11
2.335162963064693
 21
10.3921148910456
 31
0.0
  0
LINE
  5
1C3
330
2
100
AcDbEntity
  8
0
100
AcDbLine
 10
2.335162963064693
 20
10.3921148910456
 30
0.0
 11
2.414092963064693
 21
10.3921148910456
 31
0.0
  0
CIRCLE
  5
1C4
330
2
100
AcDbEntity
  8
0
100
AcDbCircle
 10
3.231692504020987
 20
10.02648612904635
 30
0.0
 40
0.109
  0
LINE
  5
1C5
330
2
100
AcDbEntity
  8
0
100
AcDbLine
 10
2.338043504771807
 20
15.5715554940239
 30
0.0
 11
2.338043504771807
 21
13.5715554940239
 31
0.0
  0
LINE
  5
1C6
330
2
100
AcDbEntity
  8
0
100
AcDbLine
 10
2.422700323753393
 20
14.64026937489738
 30
0.0
 11
2.422700323753393
 21
13.5715554940239
 31
0.0
  0
LINE
  5
1C7
330
2
100
AcDbEntity
  8
0
100
AcDbLine
 10
2.422700323753393
 20
14.64026937489738
 30
0.0
 11
2.422700323753393
 21
15.5715554940239
 31
0.0
  0
LINE
  5
1C8
330
2
100
AcDbEntity
  8
0
100
AcDbLine
 10
2.422356151476615
 20
15.68865639222494
 30
0.0
 11
3.550932440296922
 21
15.6884395406344
 31
0.0
  0
LINE
  5
1C9
330
2
100
AcDbEntity
  8
0
100
AcDbLine
 10
2.453618283493924
 20
15.60454093885881
 30
0.0
 11
3.550932440296922
 21
15.60454093885881
 31
0.0
  0
ARC
  5
1CA
330
2
100
AcDbEntity
  8
0
100
AcDbCircle
 10
2.449555169462987
 20
15.57759030618314
 30
0.0
 40
0.0278604654882202
100
AcDbArc
 50
79.82837018396906
 51
192.5099084718437
  0
ARC
  5
1CB
330
2
100
AcDbEntity
  8
0
100
AcDbCircle
 10
2.430683476056931
 20
15.59375771661288
 30
0.0
 40
0.0952633348544345
100
AcDbArc
 50
95.01483890561406
 51
193.4773865855134
  0
LINE
  5
1CC
330
2
100
AcDbEntity
  8
0
100
AcDbLine
 10
3.550932440296922
 20
15.60454093885881
 30
0.0
 11
3.550932440296922
 21
15.6884395406344
 31
0.0
  0
LINE
  5
1CD
330
2
100
AcDbEntity
  8
0
100
AcDbLine
 10
10.34911676536191
 20
0.4332600000000006
 30
0.0
 11
10.34911676536191
 21
10.39669447903314
 31
0.0
  0
LINE
  5
1CE
330
2
100
AcDbEntity
  8
0
100
AcDbLine
 10
9.305656765361913
 20
10.39686447903315
 30
0.0
 11
9.305656765361913
 21
3.200340000000004
 31
0.0
  0
CIRCLE
  5
1CF
330
2
100
AcDbEntity
  8
0
100
AcDbCircle
 10
9.64950676536191
 20
5.072495680946972
 30
0.0
 40
0.109
  0
LINE
  5
1D0
330
2
100
AcDbEntity
  8
0
100
AcDbLine
 10
10.24316076536191
 20
0.4332600000000006
 30
0.0
 11
10.24316076536191
 21
10.39686447903315
 31
0.0
  0
LINE
  5
1D1
330
2
100
AcDbEntity
  8
0
100
AcDbLine
 10
10.24316076536191
 20
0.4332600000000006
 30
0.0
 11
10.24316076536191
 21
0.0203500000000005
 31
0.0
  0
CIRCLE
  5
1D2
330
2
100
AcDbEntity
  8
0
100
AcDbCircle
 10
9.64950676536191
 20
1.028571767075608
 30
0.0
 40
0.109
  0
LINE
  5
1D3
330
2
100
AcDbEntity
  8
0
100
AcDbLine
 10
10.24316076536191
 20
0.4332600000000006
 30
0.0
 11
10.34911676536191
 21
0.4332600000000006
 31
0.0
  0
LINE
  5
1D7
330
2
100
AcDbEntity
  8
0
100
AcDbLine
 10
10.24316076536191
 20
2.867050051986844
 30
0.0
 11
10.24316076536191
 21
2.690710051986841
 31
0.0
  0
CIRCLE
  5
1E1
330
2
100
AcDbEntity
  8
0
100
AcDbCircle
 10
9.64950676536191
 20
10.02184378685222
 30
0.0
 40
0.109
  0
LINE
  5
1E2
330
2
100
AcDbEntity
  8
0
100
AcDbLine
 10
10.24316076536191
 20
10.39686447903315
 30
0.0
 11
9.305656765361913
 21
10.39686447903315
 31
0.0
  0
LINE
  5
1E3
330
2
100
AcDbEntity
  8
0
100
AcDbLine
 10
10.34911676536191
 20
10.39669447903314
 30
0.0
 11
10.24316076536191
 21
10.39669447903314
 31
0.0
  0
LINE
  5
1E4
330
2
100
AcDbEntity
  8
0
100
AcDbLine
 10
-10.24711076536191
 20
0.4332600000000006
 30
0.0
 11
-10.24711076536191
 21
10.39686447903315
 31
0.0
  0
LINE
  5
1E5
330
2
100
AcDbEntity
  8
0
100
AcDbLine
 10
-9.30960676536191
 20
10.39686447903315
 30
0.0
 11
-9.30960676536191
 21
3.200340000000004
 31
0.0
  0
LINE
  5
1E6
330
2
100
AcDbEntity
  8
0
100
AcDbLine
 10
-10.35306676536191
 20
0.4332600000000006
 30
0.0
 11
-10.35306676536191
 21
10.39669447903314
 31
0.0
  0
LINE
  5
1E7
330
2
100
AcDbEntity
  8
0
100
AcDbLine
 10
-8.255416765361904
 20
0.0205100000000016
 30
0.0
 11
-10.24711076536191
 21
0.0205100000000016
 31
0.0
  0
LINE
  5
1E8
330
2
100
AcDbEntity
  8
0
  6
HIDDEN
100
AcDbLine
 10
-8.255416765361904
 20
0.0830100000000016
 30
0.0
 11
-10.24711076536191
 21
0.0830100000000016
 31
0.0
  0
LINE
  5
1E9
330
2
100
AcDbEntity
  8
0
100
AcDbLine
 10
-9.30960676536191
 20
3.200340000000004
 30
0.0
 11
-8.255416765361904
 21
0.3893200000000014
 31
0.0
  0
LINE
  5
1EA
330
2
100
AcDbEntity
  8
0
100
AcDbLine
 10
-8.255416765361904
 20
0.0205100000000016
 30
0.0
 11
-8.255416765361904
 21
0.3893200000000014
 31
0.0
  0
LINE
  5
1EB
330
2
100
AcDbEntity
  8
0
100
AcDbLine
 10
-10.24711076536191
 20
0.4332600000000006
 30
0.0
 11
-10.35306676536191
 21
0.4332600000000006
 31
0.0
  0
LINE
  5
1EC
330
2
100
AcDbEntity
  8
0
100
AcDbLine
 10
-10.24711076536191
 20
0.4332600000000006
 30
0.0
 11
-10.24711076536191
 21
0.0203500000000005
 31
0.0
  0
CIRCLE
  5
1EF
330
2
100
AcDbEntity
  8
0
100
AcDbCircle
 10
-9.653456765361902
 20
1.384527635963934
 30
0.0
 40
0.109
  0
LINE
  5
1F0
330
2
100
AcDbEntity
  8
0
100
AcDbLine
 10
-10.24711076536191
 20
2.867050051986844
 30
0.0
 11
-10.24711076536191
 21
2.690710051986841
 31
0.0
  0
CIRCLE
  5
1F4
330
2
100
AcDbEntity
  8
0
100
AcDbCircle
 10
-9.653456765361906
 20
5.576879035644073
 30
0.0
 40
0.109
  0
LINE
  5
1FA
330
2
100
AcDbEntity
  8
0
100
AcDbLine
 10
-10.35306676536191
 20
10.39669447903314
 30
0.0
 11
-10.24711076536191
 21
10.39669447903314
 31
0.0
  0
CIRCLE
  5
1FB
330
2
100
AcDbEntity
  8
0
100
AcDbCircle
 10
-9.653456765361899
 20
9.414628991027268
 30
0.0
 40
0.109
  0
LINE
  5
1FE
330
2
100
AcDbEntity
  8
0
100
AcDbLine
 10
-10.24711076536191
 20
10.39686447903315
 30
0.0
 11
-9.30960676536191
 21
10.39686447903315
 31
0.0
  0
LINE
  5
214
330
2
100
AcDbEntity
  8
0
100
AcDbLine
 10
-9.77732217715838
 20
7.53342371694905
 30
0.0
 11
-9.707568605423708
 21
7.273099843225849
 31
0.0
  0
ARC
  5
215
330
2
100
AcDbEntity
  8
0
100
AcDbCircle
 10
-9.677431719643487
 20
7.281174997433045
 30
0.0
 40
0.0312000000000017
100
AcDbArc
 50
194.9999999999945
 51
314.9999999999954
  0
LINE
  5
216
330
2
100
AcDbEntity
  8
0
100
AcDbLine
 10
-9.655369988070467
 20
7.259113265860021
 30
0.0
 11
-9.464799686081939
 21
7.449683567848551
 31
0.0
  0
ARC
  5
217
330
2
100
AcDbEntity
  8
0
100
AcDbCircle
 10
-9.486861417654959
 20
7.471745299421572
 30
0.0
 40
0.0312000000000006
100
AcDbArc
 50
314.9999999999977
 51
74.99999999999838
  0
LINE
  5
218
330
2
100
AcDbEntity
  8
0
100
AcDbLine
 10
-9.478786263447759
 20
7.501882185201792
 30
0.0
 11
-9.739110137170963
 21
7.571635756936464
 31
0.0
  0
ARC
  5
219
330
2
100
AcDbEntity
  8
0
100
AcDbCircle
 10
-9.747185291378163
 20
7.541498871156247
 30
0.0
 40
0.0311999999999992
100
AcDbArc
 50
74.99999999999754
 51
194.9999999999961
  0
LINE
  5
21A
330
2
100
AcDbEntity
  8
0
100
AcDbLine
 10
-9.801098233744096
 20
3.428080312881094
 30
0.0
 11
-9.731344662009423
 21
3.167756439157892
 31
0.0
  0
ARC
  5
21B
330
2
100
AcDbEntity
  8
0
100
AcDbCircle
 10
-9.701207776229202
 20
3.175831593365088
 30
0.0
 40
0.0312000000000017
100
AcDbArc
 50
194.9999999999945
 51
314.9999999999954
  0
LINE
  5
21C
330
2
100
AcDbEntity
  8
0
100
AcDbLine
 10
-9.679146044656182
 20
3.153769861792065
 30
0.0
 11
-9.488575742667655
 21
3.344340163780594
 31
0.0
  0
ARC
  5
21D
330
2
100
AcDbEntity
  8
0
100
AcDbCircle
 10
-9.510637474240674
 20
3.366401895353616
 30
0.0
 40
0.0312000000000006
100
AcDbArc
 50
314.9999999999977
 51
74.99999999999838
  0
LINE
  5
21E
330
2
100
AcDbEntity
  8
0
100
AcDbLine
 10
-9.502562320033475
 20
3.396538781133835
 30
0.0
 11
-9.762886193756678
 21
3.466292352868508
 31
0.0
  0
ARC
  5
21F
330
2
100
AcDbEntity
  8
0
100
AcDbCircle
 10
-9.770961347963878
 20
3.436155467088291
 30
0.0
 40
0.0311999999999983
100
AcDbArc
 50
74.99999999999712
 51
194.9999999999978
  0
LINE
  5
220
330
2
100
AcDbEntity
  8
0
100
AcDbLine
 10
9.773372177158384
 20
8.009432740779294
 30
0.0
 11
9.703618605423712
 21
7.749108867056092
 31
0.0
  0
ARC
  5
221
330
2
100
AcDbEntity
  8
0
100
AcDbCircle
 10
9.67348171964349
 20
7.757184021263289
 30
0.0
 40
0.0312000000000017
100
AcDbArc
 50
225.0000000000046
 51
345.0000000000055
  0
LINE
  5
222
330
2
100
AcDbEntity
  8
0
100
AcDbLine
 10
9.651419988070471
 20
7.735122289690265
 30
0.0
 11
9.460849686081943
 21
7.925692591678795
 31
0.0
  0
ARC
  5
223
330
2
100
AcDbEntity
  8
0
100
AcDbCircle
 10
9.482911417654963
 20
7.947754323251816
 30
0.0
 40
0.0312000000000006
100
AcDbArc
 50
105.0000000000016
 51
225.0000000000023
  0
LINE
  5
224
330
2
100
AcDbEntity
  8
0
100
AcDbLine
 10
9.474836263447763
 20
7.977891209032036
 30
0.0
 11
9.735160137170967
 21
8.047644780766708
 31
0.0
  0
ARC
  5
225
330
2
100
AcDbEntity
  8
0
100
AcDbCircle
 10
9.743235291378166
 20
8.01750789498649
 30
0.0
 40
0.0311999999999992
100
AcDbArc
 50
345.0000000000038
 51
105.0000000000025
  0
LINE
  5
226
330
2
100
AcDbEntity
  8
0
100
AcDbLine
 10
9.751063391640832
 20
3.025149313661645
 30
0.0
 11
9.68130981990616
 21
2.764825439938443
 31
0.0
  0
ARC
  5
227
330
2
100
AcDbEntity
  8
0
100
AcDbCircle
 10
9.651172934125938
 20
2.772900594145639
 30
0.0
 40
0.0312000000000017
100
AcDbArc
 50
225.0000000000046
 51
345.0000000000055
  0
LINE
  5
228
330
2
100
AcDbEntity
  8
0
100
AcDbLine
 10
9.629111202552918
 20
2.750838862572616
 30
0.0
 11
9.438540900564391
 21
2.941409164561145
 31
0.0
  0
ARC
  5
229
330
2
100
AcDbEntity
  8
0
100
AcDbCircle
 10
9.460602632137411
 20
2.963470896134167
 30
0.0
 40
0.0312000000000006
100
AcDbArc
 50
105.0000000000016
 51
225.0000000000023
  0
LINE
  5
22A
330
2
100
AcDbEntity
  8
0
100
AcDbLine
 10
9.452527477930211
 20
2.993607781914387
 30
0.0
 11
9.712851351653415
 21
3.063361353649059
 31
0.0
  0
ARC
  5
22B
330
2
100
AcDbEntity
  8
0
100
AcDbCircle
 10
9.720926505860614
 20
3.033224467868842
 30
0.0
 40
0.0311999999999983
100
AcDbArc
 50
345.0000000000023
 51
105.0000000000029
  0
LINE
  5
22C
330
2
100
AcDbEntity
  8
0
100
AcDbLine
 10
3.056407387483032
 20
9.724975011247967
 30
0.0
 11
2.98665381574836
 21
9.464651137524765
 31
0.0
  0
ARC
  5
22D
330
2
100
AcDbEntity
  8
0
100
AcDbCircle
 10
2.956516929968139
 20
9.472726291731961
 30
0.0
 40
0.0312000000000017
100
AcDbArc
 50
225.0000000000046
 51
345.0000000000055
  0
LINE
  5
22E
330
2
100
AcDbEntity
  8
0
100
AcDbLine
 10
2.934455198395119
 20
9.450664560158938
 30
0.0
 11
2.743884896406591
 21
9.641234862147467
 31
0.0
  0
ARC
  5
22F
330
2
100
AcDbEntity
  8
0
100
AcDbCircle
 10
2.765946627979611
 20
9.663296593720489
 30
0.0
 40
0.0312000000000006
100
AcDbArc
 50
105.0000000000016
 51
225.0000000000023
  0
LINE
  5
230
330
2
100
AcDbEntity
  8
0
100
AcDbLine
 10
2.757871473772411
 20
9.693433479500708
 30
0.0
 11
3.018195347495615
 21
9.763187051235381
 31
0.0
  0
ARC
  5
231
330
2
100
AcDbEntity
  8
0
100
AcDbCircle
 10
3.026270501702815
 20
9.733050165455165
 30
0.0
 40
0.0311999999999975
100
AcDbArc
 50
345.0000000000007
 51
105.0000000000033
  0
LINE
  5
232
330
2
100
AcDbEntity
  8
0
100
AcDbLine
 10
3.056407387483032
 20
7.984531001743747
 30
0.0
 11
2.98665381574836
 21
7.724207128020545
 31
0.0
  0
ARC
  5
233
330
2
100
AcDbEntity
  8
0
100
AcDbCircle
 10
2.956516929968139
 20
7.732282282227741
 30
0.0
 40
0.0312000000000017
100
AcDbArc
 50
225.0000000000046
 51
345.0000000000055
  0
LINE
  5
234
330
2
100
AcDbEntity
  8
0
100
AcDbLine
 10
2.934455198395119
 20
7.710220550654718
 30
0.0
 11
2.743884896406591
 21
7.900790852643247
 31
0.0
  0
ARC
  5
235
330
2
100
AcDbEntity
  8
0
100
AcDbCircle
 10
2.765946627979611
 20
7.922852584216269
 30
0.0
 40
0.0312000000000006
100
AcDbArc
 50
105.0000000000016
 51
225.0000000000023
  0
LINE
  5
236
330
2
100
AcDbEntity
  8
0
100
AcDbLine
 10
2.757871473772411
 20
7.952989469996489
 30
0.0
 11
3.018195347495615
 21
8.022743041731161
 31
0.0
  0
ARC
  5
237
330
2
100
AcDbEntity
  8
0
100
AcDbCircle
 10
3.026270501702815
 20
7.992606155950944
 30
0.0
 40
0.0311999999999983
100
AcDbArc
 50
345.0000000000023
 51
105.0000000000029
  0
LINE
  5
238
330
2
100
AcDbEntity
  8
0
100
AcDbLine
 10
3.056407387483032
 20
6.193064386564915
 30
0.0
 11
2.98665381574836
 21
5.932740512841713
 31
0.0
  0
ARC
  5
239
330
2
100
AcDbEntity
  8
0
100
AcDbCircle
 10
2.956516929968139
 20
5.940815667048909
 30
0.0
 40
0.0312000000000017
100
AcDbArc
 50
225.0000000000046
 51
345.0000000000055
  0
LINE
  5
23A
330
2
100
AcDbEntity
  8
0
100
AcDbLine
 10
2.934455198395119
 20
5.918753935475886
 30
0.0
 11
2.743884896406591
 21
6.109324237464415
 31
0.0
  0
ARC
  5
23B
330
2
100
AcDbEntity
  8
0
100
AcDbCircle
 10
2.765946627979611
 20
6.131385969037437
 30
0.0
 40
0.0312000000000006
100
AcDbArc
 50
105.0000000000016
 51
225.0000000000023
  0
LINE
  5
23C
330
2
100
AcDbEntity
  8
0
100
AcDbLine
 10
2.757871473772411
 20
6.161522854817656
 30
0.0
 11
3.018195347495615
 21
6.231276426552329
 31
0.0
  0
ARC
  5
23D
330
2
100
AcDbEntity
  8
0
100
AcDbCircle
 10
3.026270501702815
 20
6.201139540772111
 30
0.0
 40
0.0311999999999992
100
AcDbArc
 50
345.0000000000038
 51
105.0000000000025
  0
LINE
  5
23E
330
2
100
AcDbEntity
  8
0
100
AcDbLine
 10
-3.076711105370395
 20
9.724975011247967
 30
0.0
 11
-3.006957533635722
 21
9.464651137524765
 31
0.0
  0
ARC
  5
23F
330
2
100
AcDbEntity
  8
0
100
AcDbCircle
 10
-2.976820647855501
 20
9.472726291731961
 30
0.0
 40
0.0312000000000017
100
AcDbArc
 50
194.9999999999945
 51
314.9999999999954
  0
LINE
  5
240
330
2
100
AcDbEntity
  8
0
100
AcDbLine
 10
-2.954758916282481
 20
9.450664560158938
 30
0.0
 11
-2.764188614293953
 21
9.641234862147467
 31
0.0
  0
ARC
  5
241
330
2
100
AcDbEntity
  8
0
100
AcDbCircle
 10
-2.786250345866973
 20
9.663296593720489
 30
0.0
 40
0.0312000000000006
100
AcDbArc
 50
314.9999999999977
 51
74.99999999999838
  0
LINE
  5
242
330
2
100
AcDbEntity
  8
0
100
AcDbLine
 10
-2.778175191659773
 20
9.693433479500708
 30
0.0
 11
-3.038499065382977
 21
9.763187051235381
 31
0.0
  0
ARC
  5
243
330
2
100
AcDbEntity
  8
0
100
AcDbCircle
 10
-3.046574219590177
 20
9.733050165455165
 30
0.0
 40
0.0311999999999975
100
AcDbArc
 50
74.9999999999967
 51
194.9999999999993
  0
LINE
  5
244
330
2
100
AcDbEntity
  8
0
100
AcDbLine
 10
-3.076711105370395
 20
7.984531001743747
 30
0.0
 11
-3.006957533635722
 21
7.724207128020545
 31
0.0
  0
ARC
  5
245
330
2
100
AcDbEntity
  8
0
100
AcDbCircle
 10
-2.976820647855501
 20
7.732282282227741
 30
0.0
 40
0.0312000000000017
100
AcDbArc
 50
194.9999999999945
 51
314.9999999999954
  0
LINE
  5
246
330
2
100
AcDbEntity
  8
0
100
AcDbLine
 10
-2.954758916282481
 20
7.710220550654718
 30
0.0
 11
-2.764188614293953
 21
7.900790852643247
 31
0.0
  0
ARC
  5
247
330
2
100
AcDbEntity
  8
0
100
AcDbCircle
 10
-2.786250345866973
 20
7.922852584216269
 30
0.0
 40
0.0312000000000006
100
AcDbArc
 50
314.9999999999977
 51
74.99999999999838
  0
LINE
  5
248
330
2
100
AcDbEntity
  8
0
100
AcDbLine
 10
-2.778175191659773
 20
7.952989469996489
 30
0.0
 11
-3.038499065382977
 21
8.022743041731161
 31
0.0
  0
ARC
  5
249
330
2
100
AcDbEntity
  8
0
100
AcDbCircle
 10
-3.046574219590177
 20
7.992606155950944
 30
0.0
 40
0.0311999999999983
100
AcDbArc
 50
74.99999999999712
 51
194.9999999999978
  0
LINE
  5
24A
330
2
100
AcDbEntity
  8
0
100
AcDbLine
 10
-3.076711105370395
 20
6.193064386564915
 30
0.0
 11
-3.006957533635722
 21
5.932740512841713
 31
0.0
  0
ARC
  5
24B
330
2
100
AcDbEntity
  8
0
100
AcDbCircle
 10
-2.976820647855501
 20
5.940815667048909
 30
0.0
 40
0.0312000000000017
100
AcDbArc
 50
194.9999999999945
 51
314.9999999999954
  0
LINE
  5
24C
330
2
100
AcDbEntity
  8
0
100
AcDbLine
 10
-2.954758916282481
 20
5.918753935475886
 30
0.0
 11
-2.764188614293953
 21
6.109324237464415
 31
0.0
  0
ARC
  5
24D
330
2
100
AcDbEntity
  8
0
100
AcDbCircle
 10
-2.786250345866973
 20
6.131385969037437
 30
0.0
 40
0.0312000000000006
100
AcDbArc
 50
314.9999999999977
 51
74.99999999999838
  0
LINE
  5
24E
330
2
100
AcDbEntity
  8
0
100
AcDbLine
 10
-2.778175191659773
 20
6.161522854817656
 30
0.0
 11
-3.038499065382977
 21
6.231276426552329
 31
0.0
  0
ARC
  5
24F
330
2
100
AcDbEntity
  8
0
100
AcDbCircle
 10
-3.046574219590177
 20
6.201139540772111
 30
0.0
 40
0.0311999999999992
100
AcDbArc
 50
74.99999999999754
 51
194.9999999999961
  0
ENDSEC
  0
SECTION
  2
OBJECTS
  0
DICTIONARY
  5
9
330
0
100
AcDbDictionary
281
     1
  3
ACAD_COLOR
350
203
  3
ACAD_GROUP
350
23
  3
ACAD_LAYOUT
350
D
  3
ACAD_MATERIAL
350
202
  3
ACAD_MLINESTYLE
350
24
  3
ACAD_PLOTSETTINGS
350
25
  3
ACAD_PLOTSTYLENAME
350
8
  3
ACAD_TABLESTYLE
350
204
  3
ACDBHEADERROUNDTRIPXREC
350
268
  3
AcDbVariableDictionary
350
98
  0
DICTIONARY
  5
3
330
2
100
AcDbDictionary
280
     1
281
     1
  3
ACAD_SORTENTS
360
20A
  0
DICTIONARY
  5
203
102
{ACAD_REACTORS
330
9
102
}
330
9
100
AcDbDictionary
281
     1
  0
DICTIONARY
  5
23
102
{ACAD_REACTORS
330
9
102
}
330
9
100
AcDbDictionary
281
     1
  0
DICTIONARY
  5
D
102
{ACAD_REACTORS
330
9
102
}
330
9
100
AcDbDictionary
281
     1
  3
Layout1
350
13
  3
Model
350
C
  0
DICTIONARY
  5
202
102
{ACAD_REACTORS
330
9
102
}
330
9
100
AcDbDictionary
281
     1
  0
DICTIONARY
  5
24
102
{ACAD_REACTORS
330
9
102
}
330
9
100
AcDbDictionary
281
     1
  3
STANDARD
350
27
  0
DICTIONARY
  5
25
102
{ACAD_REACTORS
330
9
102
}
330
9
100
AcDbDictionary
281
     1
  0
ACDBDICTIONARYWDFLT
  5
8
102
{ACAD_REACTORS
330
9
102
}
330
9
100
AcDbDictionary
281
     1
  3
Normal
350
7
100
AcDbDictionaryWithDefault
340
7
  0
DICTIONARY
  5
204
102
{ACAD_REACTORS
330
9
102
}
330
9
100
AcDbDictionary
281
     1
  3
Standard
350
205
  0
DICTIONARY
  5
268
102
{ACAD_REACTORS
330
9
102
}
330
9
100
AcDbDictionary
281
     1
  3
COLORDICT
350
269
  3
MATERIALDICT
350
26A
  0
DICTIONARY
  5
98
102
{ACAD_REACTORS
330
9
102
}
330
9
100
AcDbDictionary
281
     1
  3
CTABLESTYLE
350
256
  3
HIDETEXT
350
267
  0
SORTENTSTABLE
  5
20A
102
{ACAD_REACTORS
330
3
102
}
330
3
100
AcDbSortentsTable
330
2
331
0
  5
1A4
331
1B2
  5
1CD
331
1D1
  5
222
331
1E6
  5
237
331
1C2
  5
213
331
218
  5
24B
331
1B3
  5
1CE
331
1BC
  5
1EA
331
228
  5
227
331
1CB
  5
21C
331
223
  5
22F
331
1AE
  5
1C9
331
1FA
  5
24D
331
1EC
  5
23D
331
1C7
  5
218
331
192
  5
192
331
1C4
  5
215
331
1A2
  5
1A2
331
22A
  5
229
331
1C9
  5
21A
331
23D
  5
1E7
331
23E
  5
1BE
331
241
  5
1C4
331
244
  5
1B4
331
1B8
  5
1D3
331
239
  5
1E2
331
1CC
  5
21D
331
225
  5
231
331
1E2
  5
233
331
1D7
  5
22B
331
243
  5
1C7
331
1A5
  5
1A5
331
199
  5
199
331
18B
  5
18B
331
236
  5
1F4
331
1E4
  5
235
331
191
  5
191
331
216
  5
249
331
22F
  5
20D
331
18F
  5
18F
331
18D
  5
18D
331
1C1
  5
212
331
23A
  5
1E3
331
22E
  5
20C
331
1FB
  5
24E
331
1AF
  5
1CA
331
1B7
  5
1D2
331
1C5
  5
216
331
19A
  5
19A
331
1B9
  5
1D7
331
1E9
  5
23A
331
215
  5
248
331
24B
  5
1AA
331
214
  5
247
331
19B
  5
19B
331
1C3
  5
214
331
1E8
  5
239
331
22C
  5
209
331
24E
  5
1B0
331
188
  5
188
331
1FE
  5
24F
331
1A3
  5
1A3
331
245
  5
1B5
331
24D
  5
1AE
331
1E7
  5
238
331
1B6
  5
1D1
331
217
  5
24A
331
1E1
  5
232
331
19F
  5
19F
331
21F
  5
245
331
230
  5
20F
331
21E
  5
244
331
198
  5
198
331
1A1
  5
1A1
331
23C
  5
1E5
331
247
  5
1B7
331
190
  5
190
331
1B0
  5
1CB
331
1AD
  5
1C8
331
1C8
  5
219
331
240
  5
1C2
331
229
  5
228
331
219
  5
24C
331
19C
  5
19C
331
226
  5
225
331
1B1
  5
1CC
331
21D
  5
243
331
195
  5
195
331
21B
  5
241
331
249
  5
1B9
331
1CD
  5
21E
331
1EB
  5
23C
331
234
  5
1EF
331
197
  5
197
331
1BE
  5
1FB
331
238
  5
1E1
331
222
  5
22E
331
1D3
  5
224
331
220
  5
22C
331
1CE
  5
21F
331
1F4
  5
246
331
24A
  5
1A8
331
1BF
  5
1FE
331
18A
  5
18A
331
232
  5
1EB
331
1C6
  5
217
331
18C
  5
18C
331
1B4
  5
1CF
331
1A0
  5
1A0
331
19E
  5
19E
331
1E5
  5
236
331
1AA
  5
1BB
331
248
  5
1B8
331
23F
  5
1C1
331
1D2
  5
223
331
19D
  5
19D
331
21C
  5
242
331
242
  5
1C5
331
1F0
  5
23F
331
196
  5
196
331
1EA
  5
23B
331
237
  5
1FA
331
22D
  5
20B
331
233
  5
1EC
331
1CF
  5
220
331
24C
  5
1AD
331
23B
  5
1E4
331
1AB
  5
1BC
331
1D0
  5
221
331
224
  5
230
331
1B5
  5
1D0
331
21A
  5
240
331
189
  5
189
331
235
  5
1F0
331
227
  5
226
331
1BB
  5
1E9
331
1E3
  5
234
331
231
  5
211
331
1A8
  5
1B3
331
1EF
  5
23E
331
193
  5
193
331
18E
  5
18E
331
22B
  5
22A
331
246
  5
1B6
331
221
  5
22D
331
1A7
  5
1B2
331
24F
  5
1B1
331
1CA
  5
21B
  0
LAYOUT
  5
13
102
{ACAD_REACTORS
330
D
102
}
102
{ACAD_XDICTIONARY
360
26B
102
}
330
D
100
AcDbPlotSettings
  1

  2
HP LaserJet 2100 Series PS
  4

  6

 40
0.0
 41
0.0
 42
0.0
 43
0.0
 44
0.0
 45
0.0
 46
0.0
 47
0.0
 48
0.0
 49
0.0
140
0.0
141
0.0
142
1.0
143
1.0
 70
   688
 72
     0
 73
     0
 74
     5
  7

 75
    16
147
1.0
148
0.0
149
0.0
100
AcDbLayout
  1
Layout1
 70
     0
 71
     1
 10
0.0
 20
0.0
 11
12.0
 21
9.0
 12
0.0
 22
0.0
 32
0.0
 14
1.000000000000000E+20
 24
1.000000000000000E+20
 34
1.000000000000000E+20
 15
-1.000000000000000E+20
 25
-1.000000000000000E+20
 35
-1.000000000000000E+20
146
0.0
 13
0.0
 23
0.0
 33
0.0
 16
1.0
 26
0.0
 36
0.0
 17
0.0
 27
1.0
 37
0.0
 76
     0
330
E
  0
LAYOUT
  5
C
102
{ACAD_REACTORS
330
D
102
}
102
{ACAD_XDICTIONARY
360
26D
102
}
330
D
100
AcDbPlotSettings
  1

  2
HP LaserJet 2100 Series PS
  4
Letter
  6

 40
5.365749835968018
 41
5.408084392547607
 42
5.4080810546875
 43
5.365753173828125
 44
215.8999938964844
 45
279.3999938964844
 46
0.0
 47
0.0
 48
0.0
 49
0.0
140
0.0
141
0.0
142
1.0
143
1.0
 70
 11952
 72
     0
 73
     1
 74
     0
  7

 75
     0
147
1.0
148
-257.2276456650196
149
23.99565910010225
100
AcDbLayout
  1
Model
 70
     1
 71
     0
 10
0.0
 20
0.0
 11
12.0
 21
9.0
 12
0.0
 22
0.0
 32
0.0
 14
0.0
 24
0.0
 34
0.0
 15
0.0
 25
0.0
 35
0.0
146
0.0
 13
0.0
 23
0.0
 33
0.0
 16
1.0
 26
0.0
 36
0.0
 17
0.0
 27
1.0
 37
0.0
 76
     0
330
2
  0
MLINESTYLE
  5
27
102
{ACAD_REACTORS
330
24
102
}
330
24
100
AcDbMlineStyle
  2
STANDARD
 70
     0
  3

 62
   256
 51
90.0
 52
90.0
 71
     2
 49
0.5
 62
   256
  6
BYLAYER
 49
-0.5
 62
   256
  6
BYLAYER
  0
ACDBPLACEHOLDER
  5
7
102
{ACAD_REACTORS
330
8
102
}
330
8
  0
ACAD_PROXY_OBJECT
  5
205
102
{ACAD_REACTORS
330
204
102
}
330
204
100
AcDbProxyObject
 90
      499
 91
      510
 95
   983063
 70
     0
 93
     1841
310
4214DD185B99185C9928B81E85EB51B8AE3F2E07A17AD46E2B8FC02B5E8DC0F42B1CFD028000000C1008070000C3001FDFF8000000C1003FBFF000000182007F7FE00000030400FEFFC00000060801FDFF8000000C1003FBFF00000018200000000000000681FA0B0000001820100E000186003FBFF000000182007F7FE000
310
00030400FEFFC00000060801FDFF8000000C1003FBFF000000182007F7FE000000304000AD7A3703D0AC73F4160000003040201C00030C007F7FE00000030400FEFFC00000060801FDFF8000000C1003FBFF000000182007F7FE00000030400FEFFC000000608000
340
16
340
16
340
16
 94
        0
  0
XRECORD
  5
269
102
{ACAD_REACTORS
330
268
102
}
330
268
100
AcDbXrecord
340
203
  0
XRECORD
  5
26A
102
{ACAD_REACTORS
330
268
102
}
330
268
100
AcDbXrecord
340
202
  0
DICTIONARYVAR
  5
256
102
{ACAD_REACTORS
330
98
102
}
330
98
100
DictionaryVariables
280
     0
  1
STANDARD
  0
DICTIONARYVAR
  5
267
102
{ACAD_REACTORS
330
98
102
}
330
98
100
DictionaryVariables
280
     0
  1
0
  0
DICTIONARY
  5
26B
330
13
100
AcDbDictionary
280
     1
281
     1
  3
ACAD_XREC_ROUNDTRIP
360
26C
  0
DICTIONARY
  5
26D
330
C
100
AcDbDictionary
280
     1
281
     1
  3
ACAD_XREC_ROUNDTRIP
360
26E
  0
XRECORD
  5
26C
102
{ACAD_REACTORS
330
26B
102
}
330
26B
100
AcDbXrecord
102
SHADEPLOT
 70
     0
102
SHADEPLOTRESLEVEL
 70
     2
102
SHADEPLOTCUSTOMDPI
 70
   300
  0
XRECORD
  5
26E
102
{ACAD_REACTORS
330
26D
102
}
330
26D
100
AcDbXrecord
102
SHADEPLOT
 70
     0
102
SHADEPLOTRESLEVEL
 70
     2
102
SHADEPLOTCUSTOMDPI
 70
   300
  0
ENDSEC
  0
EOF
