  0
SECTION
  2
HEADER
  9
$ACADVER
  1
AC1015
  9
$ACADMAINTVER
 70
     6
  9
$DWGCODEPAGE
  3
ANSI_1252
  9
$INSBASE
 10
0.0
 20
0.0
 30
0.0
  9
$EXTMIN
 10
-4.92087989567893
 20
-0.1104920038049766
 30
0.0
  9
$EXTMAX
 10
27.27440605357393
 20
34.13228382076316
 30
0.0
  9
$LIMMIN
 10
0.0
 20
0.0
  9
$LIMMAX
 10
52.5
 20
40.0
  9
$ORTHOMODE
 70
     1
  9
$REGENMODE
 70
     1
  9
$FILLMODE
 70
     1
  9
$QTEXTMODE
 70
     0
  9
$MIRRTEXT
 70
     0
  9
$LTSCALE
 40
1.0
  9
$ATTMODE
 70
     1
  9
$TEXTSIZE
 40
0.45
  9
$TRACEWID
 40
0.05
  9
$TEXTSTYLE
  7
STANDARD
  9
$CLAYER
  8
0
  9
$CELTYPE
  6
ByLayer
  9
$CECOLOR
 62
   256
  9
$CELTSCALE
 40
1.0
  9
$DISPSILH
 70
     0
  9
$DIMSCALE
 40
5.0
  9
$DIMASZ
 40
0.125
  9
$DIMEXO
 40
0.062
  9
$DIMDLI
 40
0.375
  9
$DIMRND
 40
0.0
  9
$DIMDLE
 40
0.0
  9
$DIMEXE
 40
0.08
  9
$DIMTP
 40
0.0
  9
$DIMTM
 40
0.0
  9
$DIMTXT
 40
0.09
  9
$DIMCEN
 40
-0.03125
  9
$DIMTSZ
 40
0.0
  9
$DIMTOL
 70
     0
  9
$DIMLIM
 70
     0
  9
$DIMTIH
 70
     1
  9
$DIMTOH
 70
     1
  9
$DIMSE1
 70
     0
  9
$DIMSE2
 70
     0
  9
$DIMTAD
 70
     0
  9
$DIMZIN
 70
     0
  9
$DIMBLK
  1

  9
$DIMASO
 70
     0
  9
$DIMSHO
 70
     0
  9
$DIMPOST
  1

  9
$DIMAPOST
  1

  9
$DIMALT
 70
     0
  9
$DIMALTD
 70
     2
  9
$DIMALTF
 40
25.4
  9
$DIMLFAC
 40
1.0
  9
$DIMTOFL
 70
     0
  9
$DIMTVP
 40
0.0
  9
$DIMTIX
 70
     0
  9
$DIMSOXD
 70
     0
  9
$DIMSAH
 70
     0
  9
$DIMBLK1
  1

  9
$DIMBLK2
  1

  9
$DIMSTYLE
  2
Standard
  9
$DIMCLRD
 70
     0
  9
$DIMCLRE
 70
     0
  9
$DIMCLRT
 70
     0
  9
$DIMTFAC
 40
1.0
  9
$DIMGAP
 40
0.09
  9
$DIMJUST
 70
     0
  9
$DIMSD1
 70
     0
  9
$DIMSD2
 70
     0
  9
$DIMTOLJ
 70
     1
  9
$DIMTZIN
 70
     0
  9
$DIMALTZ
 70
     0
  9
$DIMALTTZ
 70
     0
  9
$DIMUPT
 70
     0
  9
$DIMDEC
 70
     4
  9
$DIMTDEC
 70
     4
  9
$DIMALTU
 70
     2
  9
$DIMALTTD
 70
     2
  9
$DIMTXSTY
  7
STANDARD
  9
$DIMAUNIT
 70
     0
  9
$DIMADEC
 70
     0
  9
$DIMALTRND
 40
0.0
  9
$DIMAZIN
 70
     0
  9
$DIMDSEP
 70
    46
  9
$DIMATFIT
 70
     3
  9
$DIMFRAC
 70
     0
  9
$DIMLDRBLK
  1

  9
$DIMLUNIT
 70
     2
  9
$DIMLWD
 70
    -2
  9
$DIMLWE
 70
    -2
  9
$DIMTMOVE
 70
     2
  9
$LUNITS
 70
     2
  9
$LUPREC
 70
     4
  9
$SKETCHINC
 40
0.1
  9
$FILLETRAD
 40
0.1027
  9
$AUNITS
 70
     0
  9
$AUPREC
 70
     0
  9
$MENU
  1
acad
  9
$ELEVATION
 40
0.0
  9
$PELEVATION
 40
0.0
  9
$THICKNESS
 40
0.0
  9
$LIMCHECK
 70
     0
  9
$CHAMFERA
 40
0.0
  9
$CHAMFERB
 40
0.0
  9
$CHAMFERC
 40
0.0
  9
$CHAMFERD
 40
0.0
  9
$SKPOLY
 70
     0
  9
$TDCREATE
 40
2449433.865459838
  9
$TDUCREATE
 40
2449434.198793171
  9
$TDUPDATE
 40
2454168.942661273
  9
$TDUUPDATE
 40
2454169.275994606
  9
$TDINDWG
 40
0.1397873843
  9
$TDUSRTIMER
 40
0.1397873843
  9
$USRTIMER
 70
     1
  9
$ANGBASE
 50
0.0
  9
$ANGDIR
 70
     0
  9
$PDMODE
 70
     0
  9
$PDSIZE
 40
0.0
  9
$PLINEWID
 40
0.0
  9
$SPLFRAME
 70
     0
  9
$SPLINETYPE
 70
     6
  9
$SPLINESEGS
 70
     8
  9
$HANDSEED
  5
271
  9
$SURFTAB1
 70
     6
  9
$SURFTAB2
 70
     6
  9
$SURFTYPE
 70
     6
  9
$SURFU
 70
     6
  9
$SURFV
 70
     6
  9
$UCSBASE
  2

  9
$UCSNAME
  2

  9
$UCSORG
 10
0.0
 20
0.0
 30
0.0
  9
$UCSXDIR
 10
1.0
 20
0.0
 30
0.0
  9
$UCSYDIR
 10
0.0
 20
1.0
 30
0.0
  9
$UCSORTHOREF
  2

  9
$UCSORTHOVIEW
 70
     0
  9
$UCSORGTOP
 10
0.0
 20
0.0
 30
0.0
  9
$UCSORGBOTTOM
 10
0.0
 20
0.0
 30
0.0
  9
$UCSORGLEFT
 10
0.0
 20
0.0
 30
0.0
  9
$UCSORGRIGHT
 10
0.0
 20
0.0
 30
0.0
  9
$UCSORGFRONT
 10
0.0
 20
0.0
 30
0.0
  9
$UCSORGBACK
 10
0.0
 20
0.0
 30
0.0
  9
$PUCSBASE
  2

  9
$PUCSNAME
  2

  9
$PUCSORG
 10
0.0
 20
0.0
 30
0.0
  9
$PUCSXDIR
 10
1.0
 20
0.0
 30
0.0
  9
$PUCSYDIR
 10
0.0
 20
1.0
 30
0.0
  9
$PUCSORTHOREF
  2

  9
$PUCSORTHOVIEW
 70
     0
  9
$PUCSORGTOP
 10
0.0
 20
0.0
 30
0.0
  9
$PUCSORGBOTTOM
 10
0.0
 20
0.0
 30
0.0
  9
$PUCSORGLEFT
 10
0.0
 20
0.0
 30
0.0
  9
$PUCSORGRIGHT
 10
0.0
 20
0.0
 30
0.0
  9
$PUCSORGFRONT
 10
0.0
 20
0.0
 30
0.0
  9
$PUCSORGBACK
 10
0.0
 20
0.0
 30
0.0
  9
$USERI1
 70
     0
  9
$USERI2
 70
     0
  9
$USERI3
 70
     0
  9
$USERI4
 70
     0
  9
$USERI5
 70
     0
  9
$USERR1
 40
0.0
  9
$USERR2
 40
0.0
  9
$USERR3
 40
0.0
  9
$USERR4
 40
0.0
  9
$USERR5
 40
0.0
  9
$WORLDVIEW
 70
     1
  9
$SHADEDGE
 70
     3
  9
$SHADEDIF
 70
    70
  9
$TILEMODE
 70
     1
  9
$MAXACTVP
 70
    16
  9
$PINSBASE
 10
0.0
 20
0.0
 30
0.0
  9
$PLIMCHECK
 70
     0
  9
$PEXTMIN
 10
1.000000000000000E+20
 20
1.000000000000000E+20
 30
1.000000000000000E+20
  9
$PEXTMAX
 10
-1.000000000000000E+20
 20
-1.000000000000000E+20
 30
-1.000000000000000E+20
  9
$PLIMMIN
 10
0.0
 20
0.0
  9
$PLIMMAX
 10
12.0
 20
9.0
  9
$UNITMODE
 70
     0
  9
$VISRETAIN
 70
     0
  9
$PLINEGEN
 70
     0
  9
$PSLTSCALE
 70
     0
  9
$TREEDEPTH
 70
  3020
  9
$CMLSTYLE
  2
Standard
  9
$CMLJUST
 70
     0
  9
$CMLSCALE
 40
1.0
  9
$PROXYGRAPHICS
 70
     1
  9
$MEASUREMENT
 70
     0
  9
$CELWEIGHT
370
    -1
  9
$ENDCAPS
280
     0
  9
$JOINSTYLE
280
     0
  9
$LWDISPLAY
290
     0
  9
$INSUNITS
 70
     0
  9
$HYPERLINKBASE
  1

  9
$STYLESHEET
  1

  9
$XEDIT
290
     1
  9
$CEPSNTYPE
380
     0
  9
$PSTYLEMODE
290
     1
  9
$FINGERPRINTGUID
  2
{93755D67-731D-4F8F-8876-FE953C76BC75}
  9
$VERSIONGUID
  2
{3E90EDDE-EADA-4B87-A5E7-0431228CDEC3}
  9
$EXTNAMES
290
     1
  9
$PSVPSCALE
 40
0.0
  9
$OLESTARTUP
290
     0
  0
ENDSEC
  0
SECTION
  2
CLASSES
  0
CLASS
  1
ACDBDICTIONARYWDFLT
  2
AcDbDictionaryWithDefault
  3
AutoCAD 2000
 90
        0
280
     0
281
     0
  0
CLASS
  1
ACDBPLACEHOLDER
  2
AcDbPlaceHolder
  3
ObjectDBX Classes
 90
        0
280
     0
281
     0
  0
CLASS
  1
LAYOUT
  2
AcDbLayout
  3
ObjectDBX Classes
 90
        0
280
     0
281
     0
  0
CLASS
  1
LONG_TRANSACTION
  2
AcDbLongTransaction
  3
ObjectDBX Classes
 90
   -65536
280
     1
281
     0
  0
CLASS
  1
LWPOLYLINE
  2
AcDbPolyline
  3
AutoCAD 2000
 90
        0
280
     0
281
     1
  0
CLASS
  1
HATCH
  2
AcDbHatch
  3
AutoCAD 2000
 90
        0
280
     0
281
     1
  0
CLASS
  1
XRECORD
  2
AcDbXrecord
  3
AutoCAD 2000
 90
        0
280
     0
281
     0
  0
CLASS
  1
DICTIONARYVAR
  2
AcDbDictionaryVar
  3
AutoCAD 2000
 90
        0
280
     0
281
     0
  0
CLASS
  1
TABLESTYLE
  2
AcDbTableStyle
  3
ObjectDBX Classes
 90
     2047
280
     1
281
     0
  0
ENDSEC
  0
SECTION
  2
TABLES
  0
TABLE
  2
VPORT
  5
1D
330
0
100
AcDbSymbolTable
 70
     3
  0
VPORT
  5
263
330
1D
100
AcDbSymbolTableRecord
100
AcDbViewportTableRecord
  2
*Active
 70
     0
 10
0.0
 20
0.0
 11
1.0
 21
1.0
 12
24.7187573816413
 22
13.59850605899388
 13
0.0
 23
0.0
 14
0.0625
 24
0.0625
 15
0.25
 25
0.25
 16
0.0
 26
0.0
 36
1.0
 17
0.0
 27
0.0
 37
0.0
 40
40.61207001213596
 41
1.814583333333333
 42
50.0
 43
0.0
 44
0.0
 50
0.0
 51
0.0
 71
     0
 72
   100
 73
     1
 74
     0
 75
     0
 76
     0
 77
     0
 78
     0
281
     0
 65
     1
110
0.0
120
0.0
130
0.0
111
1.0
121
0.0
131
0.0
112
0.0
122
1.0
132
0.0
 79
     0
146
0.0
  0
ENDTAB
  0
TABLE
  2
LTYPE
  5
18
330
0
100
AcDbSymbolTable
 70
     1
  0
LTYPE
  5
19
330
18
100
AcDbSymbolTableRecord
100
AcDbLinetypeTableRecord
  2
ByBlock
 70
     0
  3

 72
    65
 73
     0
 40
0.0
  0
LTYPE
  5
1A
330
18
100
AcDbSymbolTableRecord
100
AcDbLinetypeTableRecord
  2
ByLayer
 70
     0
  3

 72
    65
 73
     0
 40
0.0
  0
LTYPE
  5
A
330
18
100
AcDbSymbolTableRecord
100
AcDbLinetypeTableRecord
  2
CONTINUOUS
 70
     0
  3
Solid line
 72
    65
 73
     0
 40
0.0
  0
ENDTAB
  0
TABLE
  2
LAYER
  5
14
330
0
100
AcDbSymbolTable
 70
     1
  0
LAYER
  5
6
330
14
100
AcDbSymbolTableRecord
100
AcDbLayerTableRecord
  2
0
 70
     0
 62
     7
  6
CONTINUOUS
370
    -3
390
7
  0
ENDTAB
  0
TABLE
  2
STYLE
  5
15
330
0
100
AcDbSymbolTable
 70
     1
  0
STYLE
  5
16
330
15
100
AcDbSymbolTableRecord
100
AcDbTextStyleTableRecord
  2
STANDARD
 70
     0
 40
0.0
 41
1.0
 50
0.0
 71
     0
 42
0.45
  3
TXT
  4

  0
ENDTAB
  0
TABLE
  2
VIEW
  5
1B
330
0
100
AcDbSymbolTable
 70
     0
  0
ENDTAB
  0
TABLE
  2
UCS
  5
1C
330
0
100
AcDbSymbolTable
 70
     0
  0
ENDTAB
  0
TABLE
  2
APPID
  5
1F
330
0
100
AcDbSymbolTable
 70
     1
  0
APPID
  5
20
330
1F
100
AcDbSymbolTableRecord
100
AcDbRegAppTableRecord
  2
ACAD
 70
     0
  0
ENDTAB
  0
TABLE
  2
DIMSTYLE
  5
21
330
0
100
AcDbSymbolTable
 70
     1
100
AcDbDimStyleTable
  0
DIMSTYLE
105
28
330
21
100
AcDbSymbolTableRecord
100
AcDbDimStyleTableRecord
  2
Standard
 70
     0
  3

  4

340
16
  0
ENDTAB
  0
TABLE
  2
BLOCK_RECORD
  5
1
330
0
100
AcDbSymbolTable
 70
     0
  0
BLOCK_RECORD
  5
2
330
1
100
AcDbSymbolTableRecord
100
AcDbBlockTableRecord
  2
*Model_Space
340
C
  0
BLOCK_RECORD
  5
E
330
1
100
AcDbSymbolTableRecord
100
AcDbBlockTableRecord
  2
*Paper_Space
340
13
  0
ENDTAB
  0
ENDSEC
  0
SECTION
  2
BLOCKS
  0
BLOCK
  5
5
330
2
100
AcDbEntity
  8
0
100
AcDbBlockBegin
  2
*Model_Space
 70
     0
 10
0.0
 20
0.0
 30
0.0
  3
*Model_Space
  1

  4

  0
ENDBLK
  5
B
330
2
100
AcDbEntity
  8
0
100
AcDbBlockEnd
  0
BLOCK
  5
11
330
E
100
AcDbEntity
 67
     1
  8
0
100
AcDbBlockBegin
  2
*Paper_Space
 70
     0
 10
0.0
 20
0.0
 30
0.0
  3
*Paper_Space
  1

  4

  0
ENDBLK
  5
12
330
E
100
AcDbEntity
 67
     1
  8
0
100
AcDbBlockEnd
  0
ENDSEC
  0
SECTION
  2
ENTITIES
  0
LINE
  5
10E
330
2
100
AcDbEntity
  8
0
100
AcDbLine
 10
4.079120104321071
 20
5.512602252319674
 30
0.0
 11
5.329120104321063
 21
5.512602252319674
 31
0.0
  0
CIRCLE
  5
113
330
2
100
AcDbEntity
  8
0
100
AcDbCircle
 10
4.954120104321067
 20
20.264507996195
 30
0.0
 40
0.125
  0
CIRCLE
  5
114
330
2
100
AcDbEntity
  8
0
100
AcDbCircle
 10
4.954120104321067
 20
23.264507996195
 30
0.0
 40
0.125
  0
CIRCLE
  5
115
330
2
100
AcDbEntity
  8
0
100
AcDbCircle
 10
4.954120104321067
 20
17.389507996195
 30
0.0
 40
0.125
  0
CIRCLE
  5
116
330
2
100
AcDbEntity
  8
0
100
AcDbCircle
 10
4.954120104321067
 20
14.514507996195
 30
0.0
 40
0.125
  0
CIRCLE
  5
117
330
2
100
AcDbEntity
  8
0
100
AcDbCircle
 10
4.954120104321067
 20
11.639507996195
 30
0.0
 40
0.125
  0
CIRCLE
  5
118
330
2
100
AcDbEntity
  8
0
100
AcDbCircle
 10
4.954120104321067
 20
9.327007996194997
 30
0.0
 40
0.125
  0
LINE
  5
119
330
2
100
AcDbEntity
  8
0
100
AcDbLine
 10
5.329120104321071
 20
23.639507996195
 30
0.0
 11
0.6351210919135717
 21
23.639507996195
 31
0.0
  0
LINE
  5
11A
330
2
100
AcDbEntity
  8
0
100
AcDbLine
 10
4.079120104321067
 20
5.654122473659012
 30
0.0
 11
4.079120104321074
 21
23.639507996195
 31
0.0
  0
LINE
  5
11B
330
2
100
AcDbEntity
  8
0
100
AcDbLine
 10
-3.648491003476373
 20
7.392980620938342
 30
0.0
 11
-4.92087989567893
 21
8.665369513140895
 31
0.0
  0
LINE
  5
11C
330
2
100
AcDbEntity
  8
0
100
AcDbLine
 10
-1.768112634857701
 20
6.952007996195
 30
0.0
 11
-1.768112634857705
 21
23.639507996195
 31
0.0
  0
LINE
  5
11D
330
2
100
AcDbEntity
  8
0
100
AcDbLine
 10
-3.608316777870968
 20
7.014507996195
 30
0.0
 11
-3.608316777870968
 21
25.889507996195
 31
0.0
  0
LINE
  5
11E
330
2
100
AcDbEntity
  8
0
100
AcDbLine
 10
-1.705612634857705
 20
6.952007996195
 30
0.0
 11
-1.705612634857705
 21
23.639507996195
 31
0.0
  0
LINE
  5
11F
330
2
100
AcDbEntity
  8
0
100
AcDbLine
 10
-1.318385918362672
 20
7.014507996195
 30
0.0
 11
-1.318385918362672
 21
25.889507996195
 31
0.0
  0
LINE
  5
120
330
2
100
AcDbEntity
  8
0
100
AcDbLine
 10
-1.278211692757267
 20
7.014507996195
 30
0.0
 11
-1.278211692757264
 21
25.889507996195
 31
0.0
  0
LINE
  5
121
330
2
100
AcDbEntity
  8
0
100
AcDbLine
 10
-3.648491003476373
 20
6.931883484889976
 30
0.0
 11
-3.648491003476373
 21
25.889507996195
 31
0.0
  0
LINE
  5
122
330
2
100
AcDbEntity
  8
0
100
AcDbLine
 10
-3.622721604238805
 20
6.855868434588558
 30
0.0
 11
-1.801988920106027
 21
4.479070716796109
 31
0.0
  0
LINE
  5
123
330
2
100
AcDbEntity
  8
0
100
AcDbLine
 10
-1.403211692757267
 20
6.889507996195
 30
0.0
 11
-3.523491003476373
 21
6.889507996194997
 31
0.0
  0
LINE
  5
124
330
2
100
AcDbEntity
  8
0
100
AcDbLine
 10
-1.380885918362672
 20
6.952007996195
 30
0.0
 11
-3.545816777870968
 21
6.952007996195
 31
0.0
  0
ARC
  5
125
330
2
100
AcDbEntity
  8
0
100
AcDbCircle
 10
-3.523491003476373
 20
6.931883484889976
 30
0.0
 40
0.125
100
AcDbArc
 50
180.0
 51
217.4537195571052
  0
ARC
  5
126
330
2
100
AcDbEntity
  8
0
100
AcDbCircle
 10
-3.523491003476373
 20
7.014507996194997
 30
0.0
 40
0.125
100
AcDbArc
 50
180.0000000000001
 51
270.0000000000001
  0
ARC
  5
127
330
2
100
AcDbEntity
  8
0
100
AcDbCircle
 10
-3.545816777870968
 20
7.014507996195
 30
0.0
 40
0.0625
100
AcDbArc
 50
180.0000000000001
 51
270.0000000000001
  0
LINE
  5
128
330
2
100
AcDbEntity
  8
0
100
AcDbLine
 10
-1.77112260547171
 20
4.450437191463678
 30
0.0
 11
3.913108408994731
 21
0.0
 31
0.0
  0
LINE
  5
129
330
2
100
AcDbEntity
  8
0
100
AcDbLine
 10
-1.278333584454643
 20
6.899723387556691
 30
0.0
 11
3.987678227430877
 21
0.025433182611458
 31
0.0
  0
LINE
  5
12A
330
2
100
AcDbEntity
  8
0
100
AcDbLine
 10
4.079120104321067
 20
0.0808635841087018
 30
0.0
 11
4.079120104321067
 21
5.512602252319674
 31
0.0
  0
ARC
  5
12B
330
2
100
AcDbEntity
  8
0
100
AcDbCircle
 10
-1.643112634857701
 20
4.51612073947242
 30
0.0
 40
0.125
100
AcDbArc
 50
180.0
 51
236.8444232378363
  0
ARC
  5
12C
330
2
100
AcDbEntity
  8
0
100
AcDbCircle
 10
-1.702758319343598
 20
4.555085767097527
 30
0.0
 40
0.125
100
AcDbArc
 50
217.4537195571051
 51
236.8444232378363
  0
ARC
  5
12E
330
2
100
AcDbEntity
  8
0
100
AcDbCircle
 10
-1.403211692757267
 20
7.014507996195
 30
0.0
 40
0.125
100
AcDbArc
 50
270.0000000000001
 51
0.0000000000000254
  0
ARC
  5
12F
330
2
100
AcDbEntity
  8
0
100
AcDbCircle
 10
-1.380885918362672
 20
7.014507996195
 30
0.0
 40
0.0625
100
AcDbArc
 50
270.0000000000001
 51
0.0000000000000254
  0
LINE
  5
130
330
2
100
AcDbEntity
  8
0
100
AcDbLine
 10
-4.92087989567893
 20
8.665369513140895
 30
0.0
 11
-4.92087989567893
 21
23.639507996195
 31
0.0
  0
CIRCLE
  5
131
330
2
100
AcDbEntity
  8
0
100
AcDbCircle
 10
-4.54587989567893
 20
14.514507996195
 30
0.0
 40
0.125
  0
CIRCLE
  5
132
330
2
100
AcDbEntity
  8
0
100
AcDbCircle
 10
-4.54587989567893
 20
9.327007996194997
 30
0.0
 40
0.125
  0
CIRCLE
  5
133
330
2
100
AcDbEntity
  8
0
100
AcDbCircle
 10
-4.35837989567893
 20
10.389507996195
 30
0.0
 40
0.125
  0
CIRCLE
  5
134
330
2
100
AcDbEntity
  8
0
100
AcDbCircle
 10
-4.54587989567893
 20
11.639507996195
 30
0.0
 40
0.125
  0
CIRCLE
  5
136
330
2
100
AcDbEntity
  8
0
100
AcDbCircle
 10
-4.35837989567893
 20
13.264507996195
 30
0.0
 40
0.125
  0
CIRCLE
  5
137
330
2
100
AcDbEntity
  8
0
100
AcDbCircle
 10
-4.35837989567893
 20
16.139507996195
 30
0.0
 40
0.125
  0
CIRCLE
  5
139
330
2
100
AcDbEntity
  8
0
100
AcDbCircle
 10
-4.54587989567893
 20
17.389507996195
 30
0.0
 40
0.125
  0
CIRCLE
  5
13A
330
2
100
AcDbEntity
  8
0
100
AcDbCircle
 10
-4.35837989567893
 20
19.014507996195
 30
0.0
 40
0.125
  0
CIRCLE
  5
13C
330
2
100
AcDbEntity
  8
0
100
AcDbCircle
 10
-4.54587989567893
 20
20.264507996195
 30
0.0
 40
0.125
  0
ARC
  5
13D
330
2
100
AcDbEntity
  8
0
100
AcDbCircle
 10
-0.648554121284338
 20
14.577007996195
 30
0.0
 40
0.109375
100
AcDbArc
 50
280.5826446249615
 51
79.41735537503848
  0
CIRCLE
  5
13E
330
2
100
AcDbEntity
  8
0
100
AcDbCircle
 10
-0.6083798956789295
 20
14.577007996195
 30
0.0
 40
0.109375
  0
ARC
  5
13F
330
2
100
AcDbEntity
  8
0
100
AcDbCircle
 10
-1.023554121284338
 20
9.827007996194997
 30
0.0
 40
0.109375
100
AcDbArc
 50
280.5826446249615
 51
79.41735537503848
  0
CIRCLE
  5
140
330
2
100
AcDbEntity
  8
0
100
AcDbCircle
 10
-0.9833798956789295
 20
9.827007996194997
 30
0.0
 40
0.109375
  0
ARC
  5
141
330
2
100
AcDbEntity
  8
0
100
AcDbCircle
 10
-0.648554121284338
 20
10.577007996195
 30
0.0
 40
0.109375
100
AcDbArc
 50
280.5826446249615
 51
79.41735537503848
  0
CIRCLE
  5
142
330
2
100
AcDbEntity
  8
0
100
AcDbCircle
 10
-0.6083798956789295
 20
10.577007996195
 30
0.0
 40
0.109375
  0
ARC
  5
143
330
2
100
AcDbEntity
  8
0
100
AcDbCircle
 10
-1.023554121284338
 20
13.827007996195
 30
0.0
 40
0.109375
100
AcDbArc
 50
280.5826446249615
 51
79.41735537503848
  0
CIRCLE
  5
144
330
2
100
AcDbEntity
  8
0
100
AcDbCircle
 10
-0.9833798956789295
 20
13.827007996195
 30
0.0
 40
0.109375
  0
CIRCLE
  5
145
330
2
100
AcDbEntity
  8
0
100
AcDbCircle
 10
4.766620104321067
 20
10.389507996195
 30
0.0
 40
0.125
  0
CIRCLE
  5
146
330
2
100
AcDbEntity
  8
0
100
AcDbCircle
 10
4.766620104321067
 20
13.264507996195
 30
0.0
 40
0.125
  0
ARC
  5
14D
330
2
100
AcDbEntity
  8
0
100
AcDbCircle
 10
-0.648554121284338
 20
18.577007996195
 30
0.0
 40
0.109375
100
AcDbArc
 50
280.5826446249615
 51
79.41735537503848
  0
CIRCLE
  5
14E
330
2
100
AcDbEntity
  8
0
100
AcDbCircle
 10
-0.6083798956789295
 20
18.577007996195
 30
0.0
 40
0.109375
  0
ARC
  5
14F
330
2
100
AcDbEntity
  8
0
100
AcDbCircle
 10
-1.023554121284338
 20
17.827007996195
 30
0.0
 40
0.109375
100
AcDbArc
 50
280.5826446249615
 51
79.41735537503848
  0
CIRCLE
  5
150
330
2
100
AcDbEntity
  8
0
100
AcDbCircle
 10
-0.9833798956789295
 20
17.827007996195
 30
0.0
 40
0.109375
  0
CIRCLE
  5
157
330
2
100
AcDbEntity
  8
0
100
AcDbCircle
 10
4.766620104321067
 20
16.139507996195
 30
0.0
 40
0.125
  0
CIRCLE
  5
158
330
2
100
AcDbEntity
  8
0
100
AcDbCircle
 10
4.766620104321067
 20
19.014507996195
 30
0.0
 40
0.125
  0
LINE
  5
159
330
2
100
AcDbEntity
  8
0
100
AcDbLine
 10
-3.473775277659328
 20
25.96273130089836
 30
0.0
 11
-1.705612634857708
 21
23.639507996195
 31
0.0
  0
CIRCLE
  5
15A
330
2
100
AcDbEntity
  8
0
100
AcDbCircle
 10
-4.35837989567893
 20
22.014507996195
 30
0.0
 40
0.125
  0
LINE
  5
15C
330
2
100
AcDbEntity
  8
0
100
AcDbLine
 10
-3.648491003476373
 20
23.639507996195
 30
0.0
 11
-4.92087989567893
 21
23.639507996195
 31
0.0
  0
CIRCLE
  5
15D
330
2
100
AcDbEntity
  8
0
100
AcDbCircle
 10
-4.54587989567893
 20
23.264507996195
 30
0.0
 40
0.125
  0
LINE
  5
15E
330
2
100
AcDbEntity
  8
0
100
AcDbLine
 10
-3.473775277659328
 20
25.96273130089836
 30
0.0
 11
-3.515528173911697
 21
25.96273130089836
 31
0.0
  0
LINE
  5
15F
330
2
100
AcDbEntity
  8
0
100
AcDbLine
 10
-3.515528173911697
 20
25.96273130089836
 30
0.0
 11
-3.648491003476373
 21
25.889507996195
 31
0.0
  0
LINE
  5
160
330
2
100
AcDbEntity
  8
0
100
AcDbLine
 10
-3.473775277659328
 20
25.96273130089836
 30
0.0
 11
-3.608316777870968
 21
25.889507996195
 31
0.0
  0
LINE
  5
161
330
2
100
AcDbEntity
  8
0
100
AcDbLine
 10
-3.608316777870968
 20
25.889507996195
 30
0.0
 11
-3.648491003476373
 21
25.889507996195
 31
0.0
  0
LINE
  5
162
330
2
100
AcDbEntity
  8
0
100
AcDbLine
 10
-1.142918634086531
 20
25.96273130089836
 30
0.0
 11
0.635121091913561
 21
23.639507996195
 31
0.0
  0
ARC
  5
163
330
2
100
AcDbEntity
  8
0
100
AcDbCircle
 10
-1.023554121284338
 20
21.827007996195
 30
0.0
 40
0.109375
100
AcDbArc
 50
280.5826446249615
 51
79.41735537503848
  0
CIRCLE
  5
164
330
2
100
AcDbEntity
  8
0
100
AcDbCircle
 10
-0.9833798956789295
 20
21.827007996195
 30
0.0
 40
0.109375
  0
CIRCLE
  5
165
330
2
100
AcDbEntity
  8
0
100
AcDbCircle
 10
-0.6083798956789295
 20
22.577007996195
 30
0.0
 40
0.109375
  0
ARC
  5
166
330
2
100
AcDbEntity
  8
0
100
AcDbCircle
 10
-0.648554121284338
 20
22.577007996195
 30
0.0
 40
0.109375
100
AcDbArc
 50
280.5826446249615
 51
79.41735537503848
  0
LINE
  5
167
330
2
100
AcDbEntity
  8
0
100
AcDbLine
 10
-1.183092859691939
 20
25.96273130089836
 30
0.0
 11
-1.318385918362672
 21
25.889507996195
 31
0.0
  0
LINE
  5
168
330
2
100
AcDbEntity
  8
0
100
AcDbLine
 10
-1.142918634086531
 20
25.96273130089836
 30
0.0
 11
-1.278211692757264
 21
25.889507996195
 31
0.0
  0
LINE
  5
169
330
2
100
AcDbEntity
  8
0
100
AcDbLine
 10
-1.278211692757264
 20
25.889507996195
 30
0.0
 11
-1.318385918362672
 21
25.889507996195
 31
0.0
  0
LINE
  5
16A
330
2
100
AcDbEntity
  8
0
100
AcDbLine
 10
-1.142918634086527
 20
25.96273130089836
 30
0.0
 11
-1.183092859691946
 21
25.96273130089836
 31
0.0
  0
CIRCLE
  5
16B
330
2
100
AcDbEntity
  8
0
100
AcDbCircle
 10
4.766620104321067
 20
22.014507996195
 30
0.0
 40
0.125
  0
LINE
  5
16C
330
2
100
AcDbEntity
  8
0
100
AcDbLine
 10
5.329120104321071
 20
23.639507996195
 30
0.0
 11
5.329120104321063
 21
5.512602252319674
 31
0.0
  0
LINE
  5
176
330
2
100
AcDbEntity
  8
0
100
AcDbLine
 10
-0.8653514858891391
 20
15.94664889168209
 30
0.0
 11
-0.9351050576238116
 21
15.6863250179589
 31
0.0
  0
ARC
  5
177
330
2
100
AcDbEntity
  8
0
100
AcDbCircle
 10
-0.9652419434040347
 20
15.6944001721661
 30
0.0
 40
0.0312000000000039
100
AcDbArc
 50
225.0000000000092
 51
345.0000000000032
  0
LINE
  5
178
330
2
100
AcDbEntity
  8
0
100
AcDbLine
 10
-0.9873036749770527
 20
15.67233844059307
 30
0.0
 11
-1.10578012879623
 21
15.8629087425816
 31
0.0
  0
ARC
  5
179
330
2
100
AcDbEntity
  8
0
100
AcDbCircle
 10
-1.083718397223208
 20
15.88497047415462
 30
0.0
 40
0.0312000000000019
100
AcDbArc
 50
105.0000000000048
 51
225.0
  0
LINE
  5
17A
330
2
100
AcDbEntity
  8
0
100
AcDbLine
 10
-1.09179355143041
 20
15.91510735993484
 30
0.0
 11
-0.9035635258765531
 21
15.98486093166951
 31
0.0
  0
ARC
  5
17B
330
2
100
AcDbEntity
  8
0
100
AcDbCircle
 10
-0.8954883716693551
 20
15.95472404588929
 30
0.0
 40
0.031199999999997
100
AcDbArc
 50
344.9999999999998
 51
105.0000000000002
  0
LINE
  5
17C
330
2
100
AcDbEntity
  8
0
100
AcDbLine
 10
-0.9055257114945476
 20
15.94664889168209
 30
0.0
 11
-0.9752792832292201
 21
15.6863250179589
 31
0.0
  0
ARC
  5
17D
330
2
100
AcDbEntity
  8
0
100
AcDbCircle
 10
-1.005416169009443
 20
15.69440017216609
 30
0.0
 40
0.0312000000000029
100
AcDbArc
 50
310.0770898017835
 51
345.0000000000096
  0
ARC
  5
17E
330
2
100
AcDbEntity
  8
0
100
AcDbCircle
 10
-0.9356625972747636
 20
15.95472404588929
 30
0.0
 40
0.0311999999999957
100
AcDbArc
 50
344.9999999999998
 51
53.57970205690649
  0
LINE
  5
17F
330
2
100
AcDbEntity
  8
0
100
AcDbLine
 10
-0.5200598972885722
 20
16.72954884895488
 30
0.0
 11
-0.5898134690232446
 21
16.46922497523169
 31
0.0
  0
ARC
  5
180
330
2
100
AcDbEntity
  8
0
100
AcDbCircle
 10
-0.6199503548034677
 20
16.47730012943888
 30
0.0
 40
0.0312000000000039
100
AcDbArc
 50
225.0000000000092
 51
345.0000000000032
  0
LINE
  5
181
330
2
100
AcDbEntity
  8
0
100
AcDbLine
 10
-0.6420120863764858
 20
16.45523839786586
 30
0.0
 11
-0.7604885401956629
 21
16.64580869985439
 31
0.0
  0
ARC
  5
182
330
2
100
AcDbEntity
  8
0
100
AcDbCircle
 10
-0.7384268086226413
 20
16.66787043142741
 30
0.0
 40
0.0312000000000019
100
AcDbArc
 50
105.0000000000048
 51
225.0
  0
LINE
  5
183
330
2
100
AcDbEntity
  8
0
100
AcDbLine
 10
-0.7465019628298428
 20
16.69800731720763
 30
0.0
 11
-0.5582719372759861
 21
16.7677608889423
 31
0.0
  0
ARC
  5
184
330
2
100
AcDbEntity
  8
0
100
AcDbCircle
 10
-0.5501967830687882
 20
16.73762400316208
 30
0.0
 40
0.031199999999997
100
AcDbArc
 50
344.9999999999998
 51
105.0000000000002
  0
LINE
  5
185
330
2
100
AcDbEntity
  8
0
100
AcDbLine
 10
-0.5602341228939807
 20
16.72954884895488
 30
0.0
 11
-0.6299876946286531
 21
16.46922497523169
 31
0.0
  0
ARC
  5
186
330
2
100
AcDbEntity
  8
0
100
AcDbCircle
 10
-0.6601245804088762
 20
16.47730012943888
 30
0.0
 40
0.0312000000000029
100
AcDbArc
 50
310.0770898017835
 51
345.0000000000096
  0
ARC
  5
187
330
2
100
AcDbEntity
  8
0
100
AcDbCircle
 10
-0.5903710086741967
 20
16.73762400316208
 30
0.0
 40
0.0311999999999957
100
AcDbArc
 50
344.9999999999998
 51
53.57970205690649
  0
LINE
  5
188
330
2
100
AcDbEntity
  8
0
100
AcDbLine
 10
-0.8653514858891391
 20
19.93801951977222
 30
0.0
 11
-0.9351050576238116
 21
19.67769564604902
 31
0.0
  0
ARC
  5
189
330
2
100
AcDbEntity
  8
0
100
AcDbCircle
 10
-0.9652419434040347
 20
19.68577080025622
 30
0.0
 40
0.0312000000000039
100
AcDbArc
 50
225.0000000000092
 51
345.0000000000032
  0
LINE
  5
18A
330
2
100
AcDbEntity
  8
0
100
AcDbLine
 10
-0.9873036749770527
 20
19.66370906868319
 30
0.0
 11
-1.10578012879623
 21
19.85427937067172
 31
0.0
  0
ARC
  5
18B
330
2
100
AcDbEntity
  8
0
100
AcDbCircle
 10
-1.083718397223208
 20
19.87634110224474
 30
0.0
 40
0.0312000000000019
100
AcDbArc
 50
105.0000000000048
 51
225.0
  0
LINE
  5
18C
330
2
100
AcDbEntity
  8
0
100
AcDbLine
 10
-1.09179355143041
 20
19.90647798802496
 30
0.0
 11
-0.9035635258765531
 21
19.97623155975963
 31
0.0
  0
ARC
  5
18D
330
2
100
AcDbEntity
  8
0
100
AcDbCircle
 10
-0.8954883716693551
 20
19.94609467397941
 30
0.0
 40
0.031199999999997
100
AcDbArc
 50
344.9999999999998
 51
105.0000000000002
  0
LINE
  5
18E
330
2
100
AcDbEntity
  8
0
100
AcDbLine
 10
-0.9055257114945476
 20
19.93801951977222
 30
0.0
 11
-0.9752792832292201
 21
19.67769564604902
 31
0.0
  0
ARC
  5
18F
330
2
100
AcDbEntity
  8
0
100
AcDbCircle
 10
-1.005416169009443
 20
19.68577080025622
 30
0.0
 40
0.0312000000000029
100
AcDbArc
 50
310.0770898017835
 51
345.0000000000096
  0
ARC
  5
190
330
2
100
AcDbEntity
  8
0
100
AcDbCircle
 10
-0.9356625972747636
 20
19.94609467397941
 30
0.0
 40
0.0311999999999985
100
AcDbArc
 50
344.9999999999998
 51
53.57970205691036
  0
LINE
  5
191
330
2
100
AcDbEntity
  8
0
100
AcDbLine
 10
-0.5200598972885722
 20
20.72091947704501
 30
0.0
 11
-0.5898134690232446
 21
20.46059560332181
 31
0.0
  0
ARC
  5
192
330
2
100
AcDbEntity
  8
0
100
AcDbCircle
 10
-0.6199503548034677
 20
20.46867075752901
 30
0.0
 40
0.0312000000000039
100
AcDbArc
 50
225.0000000000092
 51
345.0000000000032
  0
LINE
  5
193
330
2
100
AcDbEntity
  8
0
100
AcDbLine
 10
-0.6420120863764858
 20
20.44660902595598
 30
0.0
 11
-0.7604885401956629
 21
20.63717932794451
 31
0.0
  0
ARC
  5
194
330
2
100
AcDbEntity
  8
0
100
AcDbCircle
 10
-0.7384268086226413
 20
20.65924105951753
 30
0.0
 40
0.0311999999999994
100
AcDbArc
 50
105.0000000000031
 51
224.9999999999954
  0
LINE
  5
195
330
2
100
AcDbEntity
  8
0
100
AcDbLine
 10
-0.7465019628298428
 20
20.68937794529775
 30
0.0
 11
-0.5582719372759861
 21
20.75913151703242
 31
0.0
  0
ARC
  5
196
330
2
100
AcDbEntity
  8
0
100
AcDbCircle
 10
-0.5501967830687882
 20
20.7289946312522
 30
0.0
 40
0.031199999999997
100
AcDbArc
 50
344.9999999999998
 51
105.0000000000002
  0
LINE
  5
197
330
2
100
AcDbEntity
  8
0
100
AcDbLine
 10
-0.5602341228939807
 20
20.72091947704501
 30
0.0
 11
-0.6299876946286531
 21
20.46059560332181
 31
0.0
  0
ARC
  5
198
330
2
100
AcDbEntity
  8
0
100
AcDbCircle
 10
-0.6601245804088762
 20
20.46867075752901
 30
0.0
 40
0.0312000000000039
100
AcDbArc
 50
310.0770898017835
 51
345.0000000000032
  0
ARC
  5
199
330
2
100
AcDbEntity
  8
0
100
AcDbCircle
 10
-0.5903710086741967
 20
20.7289946312522
 30
0.0
 40
0.0311999999999985
100
AcDbArc
 50
344.9999999999998
 51
53.57970205691036
  0
LINE
  5
1D3
330
2
100
AcDbEntity
  8
0
100
AcDbLine
 10
4.971447901323142
 20
13.72515477614654
 30
0.0
 11
4.711124027599936
 21
13.79490834788121
 31
0.0
  0
ARC
  5
1D4
330
2
100
AcDbEntity
  8
0
100
AcDbCircle
 10
4.719199181807131
 20
13.82504523366143
 30
0.0
 40
0.0311999999999995
100
AcDbArc
 50
135.0000000000046
 51
255.0000000000078
  0
LINE
  5
1D5
330
2
100
AcDbEntity
  8
0
100
AcDbLine
 10
4.697137450234109
 20
13.84710696523445
 30
0.0
 11
4.887707752222635
 21
14.03767726722298
 31
0.0
  0
ARC
  5
1D6
330
2
100
AcDbEntity
  8
0
100
AcDbCircle
 10
4.909769483795657
 20
14.01561553564996
 30
0.0
 40
0.0311999999999994
100
AcDbArc
 50
15.00000000000478
 51
135.0000000000046
  0
LINE
  5
1D7
330
2
100
AcDbEntity
  8
0
100
AcDbLine
 10
4.939906369575876
 20
14.02369068985716
 30
0.0
 11
5.009659941310556
 21
13.76336681613396
 31
0.0
  0
ARC
  5
1D8
330
2
100
AcDbEntity
  8
0
100
AcDbCircle
 10
4.97952305553034
 20
13.75529166192676
 30
0.0
 40
0.0311999999999979
100
AcDbArc
 50
254.9999999999998
 51
15.00000000000646
  0
LINE
  5
1D9
330
2
100
AcDbEntity
  8
0
100
AcDbLine
 10
4.971447901323142
 20
16.60015477614654
 30
0.0
 11
4.711124027599936
 21
16.66990834788121
 31
0.0
  0
ARC
  5
1DA
330
2
100
AcDbEntity
  8
0
100
AcDbCircle
 10
4.719199181807131
 20
16.70004523366143
 30
0.0
 40
0.0311999999999995
100
AcDbArc
 50
135.0000000000046
 51
255.0000000000078
  0
LINE
  5
1DB
330
2
100
AcDbEntity
  8
0
100
AcDbLine
 10
4.697137450234109
 20
16.72210696523445
 30
0.0
 11
4.887707752222635
 21
16.91267726722298
 31
0.0
  0
ARC
  5
1DC
330
2
100
AcDbEntity
  8
0
100
AcDbCircle
 10
4.909769483795657
 20
16.89061553564996
 30
0.0
 40
0.0311999999999994
100
AcDbArc
 50
15.00000000000478
 51
135.0000000000046
  0
LINE
  5
1DD
330
2
100
AcDbEntity
  8
0
100
AcDbLine
 10
4.939906369575876
 20
16.89869068985716
 30
0.0
 11
5.009659941310556
 21
16.63836681613396
 31
0.0
  0
ARC
  5
1DE
330
2
100
AcDbEntity
  8
0
100
AcDbCircle
 10
4.97952305553034
 20
16.63029166192676
 30
0.0
 40
0.0311999999999979
100
AcDbArc
 50
254.9999999999998
 51
15.00000000000646
  0
LINE
  5
1DF
330
2
100
AcDbEntity
  8
0
100
AcDbLine
 10
4.971447901323142
 20
19.47515477614654
 30
0.0
 11
4.711124027599936
 21
19.54490834788121
 31
0.0
  0
ARC
  5
1E0
330
2
100
AcDbEntity
  8
0
100
AcDbCircle
 10
4.719199181807131
 20
19.57504523366143
 30
0.0
 40
0.0311999999999995
100
AcDbArc
 50
135.0000000000046
 51
255.0000000000078
  0
LINE
  5
1E1
330
2
100
AcDbEntity
  8
0
100
AcDbLine
 10
4.697137450234109
 20
19.59710696523445
 30
0.0
 11
4.887707752222635
 21
19.78767726722298
 31
0.0
  0
ARC
  5
1E2
330
2
100
AcDbEntity
  8
0
100
AcDbCircle
 10
4.909769483795657
 20
19.76561553564996
 30
0.0
 40
0.0311999999999994
100
AcDbArc
 50
15.00000000000478
 51
135.0000000000046
  0
LINE
  5
1E3
330
2
100
AcDbEntity
  8
0
100
AcDbLine
 10
4.939906369575876
 20
19.77369068985716
 30
0.0
 11
5.009659941310556
 21
19.51336681613396
 31
0.0
  0
ARC
  5
1E4
330
2
100
AcDbEntity
  8
0
100
AcDbCircle
 10
4.97952305553034
 20
19.50529166192676
 30
0.0
 40
0.0311999999999979
100
AcDbArc
 50
254.9999999999998
 51
15.00000000000646
  0
LINE
  5
1E5
330
2
100
AcDbEntity
  8
0
100
AcDbLine
 10
4.971447901323142
 20
22.47515477614654
 30
0.0
 11
4.711124027599936
 21
22.54490834788121
 31
0.0
  0
ARC
  5
1E6
330
2
100
AcDbEntity
  8
0
100
AcDbCircle
 10
4.719199181807134
 20
22.57504523366143
 30
0.0
 40
0.0312000000000039
100
AcDbArc
 50
135.0000000000092
 51
255.0000000000032
  0
LINE
  5
1E7
330
2
100
AcDbEntity
  8
0
100
AcDbLine
 10
4.697137450234109
 20
22.59710696523445
 30
0.0
 11
4.887707752222635
 21
22.78767726722298
 31
0.0
  0
ARC
  5
1E8
330
2
100
AcDbEntity
  8
0
100
AcDbCircle
 10
4.90976948379566
 20
22.76561553564996
 30
0.0
 40
0.0312000000000019
100
AcDbArc
 50
15.00000000001277
 51
135.0000000000092
  0
LINE
  5
1E9
330
2
100
AcDbEntity
  8
0
100
AcDbLine
 10
4.939906369575876
 20
22.77369068985717
 30
0.0
 11
5.009659941310556
 21
22.51336681613396
 31
0.0
  0
ARC
  5
1EA
330
2
100
AcDbEntity
  8
0
100
AcDbCircle
 10
4.97952305553034
 20
22.50529166192676
 30
0.0
 40
0.031199999999997
100
AcDbArc
 50
254.9999999999998
 51
15.00000000000016
  0
LINE
  5
1EB
330
2
100
AcDbEntity
  8
0
100
AcDbLine
 10
-4.563207692681004
 20
13.72515477614654
 30
0.0
 11
-4.302883818957799
 21
13.79490834788121
 31
0.0
  0
ARC
  5
1EC
330
2
100
AcDbEntity
  8
0
100
AcDbCircle
 10
-4.310958973164993
 20
13.82504523366143
 30
0.0
 40
0.0311999999999995
100
AcDbArc
 50
284.9999999999922
 51
44.99999999999539
  0
LINE
  5
1ED
330
2
100
AcDbEntity
  8
0
100
AcDbLine
 10
-4.288897241591972
 20
13.84710696523445
 30
0.0
 11
-4.479467543580498
 21
14.03767726722298
 31
0.0
  0
ARC
  5
1EE
330
2
100
AcDbEntity
  8
0
100
AcDbCircle
 10
-4.501529275153519
 20
14.01561553564996
 30
0.0
 40
0.0311999999999994
100
AcDbArc
 50
44.99999999999539
 51
164.9999999999952
  0
LINE
  5
1EF
330
2
100
AcDbEntity
  8
0
100
AcDbLine
 10
-4.531666160933739
 20
14.02369068985716
 30
0.0
 11
-4.601419732668418
 21
13.76336681613396
 31
0.0
  0
ARC
  5
1F0
330
2
100
AcDbEntity
  8
0
100
AcDbCircle
 10
-4.571282846888202
 20
13.75529166192676
 30
0.0
 40
0.0311999999999979
100
AcDbArc
 50
164.9999999999935
 51
285.0000000000002
  0
LINE
  5
1F1
330
2
100
AcDbEntity
  8
0
100
AcDbLine
 10
-4.563207692681004
 20
16.60015477614654
 30
0.0
 11
-4.302883818957799
 21
16.66990834788121
 31
0.0
  0
ARC
  5
1F2
330
2
100
AcDbEntity
  8
0
100
AcDbCircle
 10
-4.310958973164993
 20
16.70004523366143
 30
0.0
 40
0.0311999999999995
100
AcDbArc
 50
284.9999999999922
 51
44.99999999999539
  0
LINE
  5
1F3
330
2
100
AcDbEntity
  8
0
100
AcDbLine
 10
-4.288897241591972
 20
16.72210696523445
 30
0.0
 11
-4.479467543580498
 21
16.91267726722298
 31
0.0
  0
ARC
  5
1F4
330
2
100
AcDbEntity
  8
0
100
AcDbCircle
 10
-4.501529275153519
 20
16.89061553564996
 30
0.0
 40
0.0311999999999994
100
AcDbArc
 50
44.99999999999539
 51
164.9999999999952
  0
LINE
  5
1F5
330
2
100
AcDbEntity
  8
0
100
AcDbLine
 10
-4.531666160933739
 20
16.89869068985716
 30
0.0
 11
-4.601419732668418
 21
16.63836681613396
 31
0.0
  0
ARC
  5
1F6
330
2
100
AcDbEntity
  8
0
100
AcDbCircle
 10
-4.571282846888202
 20
16.63029166192676
 30
0.0
 40
0.0311999999999979
100
AcDbArc
 50
164.9999999999935
 51
285.0000000000002
  0
LINE
  5
1F7
330
2
100
AcDbEntity
  8
0
100
AcDbLine
 10
-4.563207692681004
 20
19.47515477614654
 30
0.0
 11
-4.302883818957799
 21
19.54490834788121
 31
0.0
  0
ARC
  5
1F8
330
2
100
AcDbEntity
  8
0
100
AcDbCircle
 10
-4.310958973164993
 20
19.57504523366143
 30
0.0
 40
0.0311999999999995
100
AcDbArc
 50
284.9999999999922
 51
44.99999999999539
  0
LINE
  5
1F9
330
2
100
AcDbEntity
  8
0
100
AcDbLine
 10
-4.288897241591972
 20
19.59710696523445
 30
0.0
 11
-4.479467543580498
 21
19.78767726722298
 31
0.0
  0
ARC
  5
1FA
330
2
100
AcDbEntity
  8
0
100
AcDbCircle
 10
-4.501529275153519
 20
19.76561553564996
 30
0.0
 40
0.0311999999999994
100
AcDbArc
 50
44.99999999999539
 51
164.9999999999952
  0
LINE
  5
1FB
330
2
100
AcDbEntity
  8
0
100
AcDbLine
 10
-4.531666160933739
 20
19.77369068985716
 30
0.0
 11
-4.601419732668418
 21
19.51336681613396
 31
0.0
  0
ARC
  5
1FC
330
2
100
AcDbEntity
  8
0
100
AcDbCircle
 10
-4.571282846888202
 20
19.50529166192676
 30
0.0
 40
0.0311999999999979
100
AcDbArc
 50
164.9999999999935
 51
285.0000000000002
  0
LINE
  5
1FD
330
2
100
AcDbEntity
  8
0
100
AcDbLine
 10
-4.563207692681004
 20
22.47515477614654
 30
0.0
 11
-4.302883818957799
 21
22.54490834788121
 31
0.0
  0
ARC
  5
1FE
330
2
100
AcDbEntity
  8
0
100
AcDbCircle
 10
-4.310958973164997
 20
22.57504523366143
 30
0.0
 40
0.0312000000000039
100
AcDbArc
 50
284.9999999999968
 51
44.99999999999078
  0
LINE
  5
1FF
330
2
100
AcDbEntity
  8
0
100
AcDbLine
 10
-4.288897241591972
 20
22.59710696523445
 30
0.0
 11
-4.479467543580498
 21
22.78767726722298
 31
0.0
  0
ARC
  5
200
330
2
100
AcDbEntity
  8
0
100
AcDbCircle
 10
-4.501529275153523
 20
22.76561553564996
 30
0.0
 40
0.0312000000000019
100
AcDbArc
 50
44.99999999999078
 51
164.9999999999872
  0
LINE
  5
201
330
2
100
AcDbEntity
  8
0
100
AcDbLine
 10
-4.531666160933739
 20
22.77369068985717
 30
0.0
 11
-4.601419732668418
 21
22.51336681613396
 31
0.0
  0
ARC
  5
202
330
2
100
AcDbEntity
  8
0
100
AcDbCircle
 10
-4.571282846888202
 20
22.50529166192676
 30
0.0
 40
0.031199999999997
100
AcDbArc
 50
164.9999999999998
 51
285.0000000000002
  0
LINE
  5
237
330
2
100
AcDbEntity
  8
0
100
AcDbLine
 10
0.635121091913561
 20
23.639507996195
 30
0.0
 11
0.635121091913561
 21
4.397700847965737
 31
0.0
  0
ENDSEC
  0
SECTION
  2
OBJECTS
  0
DICTIONARY
  5
9
330
0
100
AcDbDictionary
281
     1
  3
ACAD_COLOR
350
232
  3
ACAD_GROUP
350
23
  3
ACAD_LAYOUT
350
D
  3
ACAD_MATERIAL
350
231
  3
ACAD_MLINESTYLE
350
24
  3
ACAD_PLOTSETTINGS
350
25
  3
ACAD_PLOTSTYLENAME
350
8
  3
ACAD_TABLESTYLE
350
233
  3
ACDBHEADERROUNDTRIPXREC
350
26A
  3
AcDbVariableDictionary
350
F6
  0
DICTIONARY
  5
232
102
{ACAD_REACTORS
330
9
102
}
330
9
100
AcDbDictionary
281
     1
  0
DICTIONARY
  5
23
102
{ACAD_REACTORS
330
9
102
}
330
9
100
AcDbDictionary
281
     1
  0
DICTIONARY
  5
D
102
{ACAD_REACTORS
330
9
102
}
330
9
100
AcDbDictionary
281
     1
  3
Layout1
350
13
  3
Model
350
C
  0
DICTIONARY
  5
231
102
{ACAD_REACTORS
330
9
102
}
330
9
100
AcDbDictionary
281
     1
  0
DICTIONARY
  5
24
102
{ACAD_REACTORS
330
9
102
}
330
9
100
AcDbDictionary
281
     1
  3
Standard
350
27
  0
DICTIONARY
  5
25
102
{ACAD_REACTORS
330
9
102
}
330
9
100
AcDbDictionary
281
     1
  0
ACDBDICTIONARYWDFLT
  5
8
102
{ACAD_REACTORS
330
9
102
}
330
9
100
AcDbDictionary
281
     1
  3
Normal
350
7
100
AcDbDictionaryWithDefault
340
7
  0
DICTIONARY
  5
233
102
{ACAD_REACTORS
330
9
102
}
330
9
100
AcDbDictionary
281
     1
  3
Standard
350
234
  0
DICTIONARY
  5
26A
102
{ACAD_REACTORS
330
9
102
}
330
9
100
AcDbDictionary
281
     1
  3
COLORDICT
350
26B
  3
MATERIALDICT
350
26C
  0
DICTIONARY
  5
F6
102
{ACAD_REACTORS
330
9
102
}
330
9
100
AcDbDictionary
281
     1
  3
CTABLESTYLE
350
258
  3
HIDETEXT
350
269
  0
LAYOUT
  5
13
102
{ACAD_REACTORS
330
D
102
}
102
{ACAD_XDICTIONARY
360
26D
102
}
330
D
100
AcDbPlotSettings
  1

  2
C:\ACAD2000\plotters\HP LaserJet 2100 Series PS.pc3
  4

  6

 40
0.0
 41
0.0
 42
0.0
 43
0.0
 44
0.0
 45
0.0
 46
0.0
 47
0.0
 48
0.0
 49
0.0
140
0.0
141
0.0
142
1.0
143
1.0
 70
   688
 72
     0
 73
     0
 74
     5
  7

 75
    16
147
1.0
148
0.0
149
0.0
100
AcDbLayout
  1
Layout1
 70
     0
 71
     1
 10
0.0
 20
0.0
 11
12.0
 21
9.0
 12
0.0
 22
0.0
 32
0.0
 14
1.000000000000000E+20
 24
1.000000000000000E+20
 34
1.000000000000000E+20
 15
-1.000000000000000E+20
 25
-1.000000000000000E+20
 35
-1.000000000000000E+20
146
0.0
 13
0.0
 23
0.0
 33
0.0
 16
1.0
 26
0.0
 36
0.0
 17
0.0
 27
1.0
 37
0.0
 76
     0
330
E
  0
LAYOUT
  5
C
102
{ACAD_REACTORS
330
D
102
}
102
{ACAD_XDICTIONARY
360
26F
102
}
330
D
100
AcDbPlotSettings
  1

  2
\\29nt\Plotter_29
  4
User262
  6

 40
4.995333194732666
 41
16.97567367553711
 42
4.995330810546875
 43
16.97567749023438
 44
215.857666015625
 45
279.3153381347656
 46
0.0
 47
0.0
 48
0.0
 49
0.0
140
0.0
141
0.0
142
1.0
143
1.0
 70
 11952
 72
     0
 73
     1
 74
     0
  7

 75
     0
147
1.0
148
-150.4290708115996
149
8.336434040123047
100
AcDbLayout
  1
Model
 70
     1
 71
     0
 10
0.0
 20
0.0
 11
12.0
 21
9.0
 12
0.0
 22
0.0
 32
0.0
 14
0.0
 24
0.0
 34
0.0
 15
0.0
 25
0.0
 35
0.0
146
0.0
 13
0.0
 23
0.0
 33
0.0
 16
1.0
 26
0.0
 36
0.0
 17
0.0
 27
1.0
 37
0.0
 76
     0
330
2
  0
MLINESTYLE
  5
27
102
{ACAD_REACTORS
330
24
102
}
330
24
100
AcDbMlineStyle
  2
STANDARD
 70
     0
  3

 62
   256
 51
90.0
 52
90.0
 71
     2
 49
0.5
 62
   256
  6
BYLAYER
 49
-0.5
 62
   256
  6
BYLAYER
  0
ACDBPLACEHOLDER
  5
7
102
{ACAD_REACTORS
330
8
102
}
330
8
  0
ACAD_PROXY_OBJECT
  5
234
102
{ACAD_REACTORS
330
233
102
}
330
233
100
AcDbProxyObject
 90
      499
 91
      508
 95
   983063
 70
     0
 93
     1841
310
4214DD185B99185C9928B81E85EB51B8AE3F2E07A17AD46E2B8FC02B5E8DC0F42B1CFD028000000C1008070000C3001FDFF8000000C1003FBFF000000182007F7FE00000030400FEFFC00000060801FDFF8000000C1003FBFF00000018200000000000000681FA0B0000001820100E000186003FBFF000000182007F7FE000
310
00030400FEFFC00000060801FDFF8000000C1003FBFF000000182007F7FE000000304000AD7A3703D0AC73F4160000003040201C00030C007F7FE00000030400FEFFC00000060801FDFF8000000C1003FBFF000000182007F7FE00000030400FEFFC000000608000
340
16
340
16
340
16
 94
        0
  0
XRECORD
  5
26B
102
{ACAD_REACTORS
330
26A
102
}
330
26A
100
AcDbXrecord
340
232
  0
XRECORD
  5
26C
102
{ACAD_REACTORS
330
26A
102
}
330
26A
100
AcDbXrecord
340
231
  0
DICTIONARYVAR
  5
258
102
{ACAD_REACTORS
330
F6
102
}
330
F6
100
DictionaryVariables
280
     0
  1
STANDARD
  0
DICTIONARYVAR
  5
269
102
{ACAD_REACTORS
330
F6
102
}
330
F6
100
DictionaryVariables
280
     0
  1
0
  0
DICTIONARY
  5
26D
330
13
100
AcDbDictionary
280
     1
281
     1
  3
ACAD_XREC_ROUNDTRIP
360
26E
  0
DICTIONARY
  5
26F
330
C
100
AcDbDictionary
280
     1
281
     1
  3
ACAD_XREC_ROUNDTRIP
360
270
  0
XRECORD
  5
26E
102
{ACAD_REACTORS
330
26D
102
}
330
26D
100
AcDbXrecord
102
SHADEPLOT
 70
     0
102
SHADEPLOTRESLEVEL
 70
     2
102
SHADEPLOTCUSTOMDPI
 70
   300
  0
XRECORD
  5
270
102
{ACAD_REACTORS
330
26F
102
}
330
26F
100
AcDbXrecord
102
SHADEPLOT
 70
     0
102
SHADEPLOTRESLEVEL
 70
     2
102
SHADEPLOTCUSTOMDPI
 70
   300
  0
ENDSEC
  0
EOF
