  0
SECTION
  2
HEADER
  9
$ACADVER
  1
AC1018
  9
$ACADMAINTVER
 70
     0
  9
$DWGCODEPAGE
  3
ANSI_1252
  9
$INSBASE
 10
0.0
 20
0.0
 30
0.0
  9
$EXTMIN
 10
17.41738327937522
 20
-0.1928678052374266
 30
-0.0000000000112498
  9
$EXTMAX
 10
25.43898547438418
 20
25.8836182331015
 30
0.0000000000002956
  9
$LIMMIN
 10
0.0
 20
0.0
  9
$LIMMAX
 10
52.5
 20
40.0
  9
$ORTHOMODE
 70
     1
  9
$REGENMODE
 70
     1
  9
$FILLMODE
 70
     1
  9
$QTEXTMODE
 70
     0
  9
$MIRRTEXT
 70
     0
  9
$LTSCALE
 40
1.0
  9
$ATTMODE
 70
     1
  9
$TEXTSIZE
 40
0.45
  9
$TRACEWID
 40
0.05
  9
$TEXTSTYLE
  7
STANDARD
  9
$CLAYER
  8
OBJECT
  9
$CELTYPE
  6
ByLayer
  9
$CECOLOR
 62
   256
  9
$CELTSCALE
 40
1.0
  9
$DISPSILH
 70
     0
  9
$DIMSCALE
 40
5.0
  9
$DIMASZ
 40
0.125
  9
$DIMEXO
 40
0.062
  9
$DIMDLI
 40
0.375
  9
$DIMRND
 40
0.0
  9
$DIMDLE
 40
0.0
  9
$DIMEXE
 40
0.08
  9
$DIMTP
 40
0.0
  9
$DIMTM
 40
0.0
  9
$DIMTXT
 40
0.09
  9
$DIMCEN
 40
-0.03125
  9
$DIMTSZ
 40
0.0
  9
$DIMTOL
 70
     0
  9
$DIMLIM
 70
     0
  9
$DIMTIH
 70
     1
  9
$DIMTOH
 70
     1
  9
$DIMSE1
 70
     0
  9
$DIMSE2
 70
     0
  9
$DIMTAD
 70
     0
  9
$DIMZIN
 70
     0
  9
$DIMBLK
  1

  9
$DIMASO
 70
     0
  9
$DIMSHO
 70
     0
  9
$DIMPOST
  1

  9
$DIMAPOST
  1

  9
$DIMALT
 70
     0
  9
$DIMALTD
 70
     2
  9
$DIMALTF
 40
25.4
  9
$DIMLFAC
 40
1.0
  9
$DIMTOFL
 70
     0
  9
$DIMTVP
 40
0.0
  9
$DIMTIX
 70
     0
  9
$DIMSOXD
 70
     0
  9
$DIMSAH
 70
     0
  9
$DIMBLK1
  1

  9
$DIMBLK2
  1

  9
$DIMSTYLE
  2
Standard
  9
$DIMCLRD
 70
     0
  9
$DIMCLRE
 70
     0
  9
$DIMCLRT
 70
     0
  9
$DIMTFAC
 40
1.0
  9
$DIMGAP
 40
0.09
  9
$DIMJUST
 70
     0
  9
$DIMSD1
 70
     0
  9
$DIMSD2
 70
     0
  9
$DIMTOLJ
 70
     1
  9
$DIMTZIN
 70
     0
  9
$DIMALTZ
 70
     0
  9
$DIMALTTZ
 70
     0
  9
$DIMUPT
 70
     0
  9
$DIMDEC
 70
     4
  9
$DIMTDEC
 70
     4
  9
$DIMALTU
 70
     2
  9
$DIMALTTD
 70
     2
  9
$DIMTXSTY
  7
STANDARD
  9
$DIMAUNIT
 70
     0
  9
$DIMADEC
 70
     0
  9
$DIMALTRND
 40
0.0
  9
$DIMAZIN
 70
     0
  9
$DIMDSEP
 70
    46
  9
$DIMATFIT
 70
     3
  9
$DIMFRAC
 70
     0
  9
$DIMLDRBLK
  1

  9
$DIMLUNIT
 70
     2
  9
$DIMLWD
 70
    -2
  9
$DIMLWE
 70
    -2
  9
$DIMTMOVE
 70
     2
  9
$LUNITS
 70
     2
  9
$LUPREC
 70
     4
  9
$SKETCHINC
 40
0.1
  9
$FILLETRAD
 40
0.0
  9
$AUNITS
 70
     0
  9
$AUPREC
 70
     0
  9
$MENU
  1
acad
  9
$ELEVATION
 40
0.0
  9
$PELEVATION
 40
0.0
  9
$THICKNESS
 40
0.0
  9
$LIMCHECK
 70
     0
  9
$CHAMFERA
 40
0.0
  9
$CHAMFERB
 40
0.0
  9
$CHAMFERC
 40
0.0
  9
$CHAMFERD
 40
0.0
  9
$SKPOLY
 70
     0
  9
$TDCREATE
 40
2449507.657115857
  9
$TDUCREATE
 40
2449507.948782523
  9
$TDUPDATE
 40
2453812.445164618
  9
$TDUUPDATE
 40
2453812.736831285
  9
$TDINDWG
 40
0.0151958565
  9
$TDUSRTIMER
 40
0.0151958565
  9
$USRTIMER
 70
     1
  9
$ANGBASE
 50
0.0
  9
$ANGDIR
 70
     0
  9
$PDMODE
 70
     0
  9
$PDSIZE
 40
0.0
  9
$PLINEWID
 40
0.0
  9
$SPLFRAME
 70
     0
  9
$SPLINETYPE
 70
     6
  9
$SPLINESEGS
 70
     8
  9
$HANDSEED
  5
28B
  9
$SURFTAB1
 70
     6
  9
$SURFTAB2
 70
     6
  9
$SURFTYPE
 70
     6
  9
$SURFU
 70
     6
  9
$SURFV
 70
     6
  9
$UCSBASE
  2

  9
$UCSNAME
  2

  9
$UCSORG
 10
0.0
 20
0.0
 30
0.0
  9
$UCSXDIR
 10
1.0
 20
0.0
 30
0.0
  9
$UCSYDIR
 10
0.0
 20
1.0
 30
0.0
  9
$UCSORTHOREF
  2

  9
$UCSORTHOVIEW
 70
     0
  9
$UCSORGTOP
 10
0.0
 20
0.0
 30
0.0
  9
$UCSORGBOTTOM
 10
0.0
 20
0.0
 30
0.0
  9
$UCSORGLEFT
 10
0.0
 20
0.0
 30
0.0
  9
$UCSORGRIGHT
 10
0.0
 20
0.0
 30
0.0
  9
$UCSORGFRONT
 10
0.0
 20
0.0
 30
0.0
  9
$UCSORGBACK
 10
0.0
 20
0.0
 30
0.0
  9
$PUCSBASE
  2

  9
$PUCSNAME
  2

  9
$PUCSORG
 10
0.0
 20
0.0
 30
0.0
  9
$PUCSXDIR
 10
1.0
 20
0.0
 30
0.0
  9
$PUCSYDIR
 10
0.0
 20
1.0
 30
0.0
  9
$PUCSORTHOREF
  2

  9
$PUCSORTHOVIEW
 70
     0
  9
$PUCSORGTOP
 10
0.0
 20
0.0
 30
0.0
  9
$PUCSORGBOTTOM
 10
0.0
 20
0.0
 30
0.0
  9
$PUCSORGLEFT
 10
0.0
 20
0.0
 30
0.0
  9
$PUCSORGRIGHT
 10
0.0
 20
0.0
 30
0.0
  9
$PUCSORGFRONT
 10
0.0
 20
0.0
 30
0.0
  9
$PUCSORGBACK
 10
0.0
 20
0.0
 30
0.0
  9
$USERI1
 70
     0
  9
$USERI2
 70
     0
  9
$USERI3
 70
     0
  9
$USERI4
 70
     0
  9
$USERI5
 70
     0
  9
$USERR1
 40
0.0
  9
$USERR2
 40
0.0
  9
$USERR3
 40
0.0
  9
$USERR4
 40
0.0
  9
$USERR5
 40
0.0
  9
$WORLDVIEW
 70
     1
  9
$SHADEDGE
 70
     3
  9
$SHADEDIF
 70
    70
  9
$TILEMODE
 70
     1
  9
$MAXACTVP
 70
    16
  9
$PINSBASE
 10
0.0
 20
0.0
 30
0.0
  9
$PLIMCHECK
 70
     0
  9
$PEXTMIN
 10
1.000000000000000E+20
 20
1.000000000000000E+20
 30
1.000000000000000E+20
  9
$PEXTMAX
 10
-1.000000000000000E+20
 20
-1.000000000000000E+20
 30
-1.000000000000000E+20
  9
$PLIMMIN
 10
0.0
 20
0.0
  9
$PLIMMAX
 10
12.0
 20
9.0
  9
$UNITMODE
 70
     0
  9
$VISRETAIN
 70
     0
  9
$PLINEGEN
 70
     0
  9
$PSLTSCALE
 70
     0
  9
$TREEDEPTH
 70
  3020
  9
$CMLSTYLE
  2
Standard
  9
$CMLJUST
 70
     0
  9
$CMLSCALE
 40
1.0
  9
$PROXYGRAPHICS
 70
     1
  9
$MEASUREMENT
 70
     0
  9
$CELWEIGHT
370
    -1
  9
$ENDCAPS
280
     0
  9
$JOINSTYLE
280
     0
  9
$LWDISPLAY
290
     0
  9
$INSUNITS
 70
     0
  9
$HYPERLINKBASE
  1

  9
$STYLESHEET
  1

  9
$XEDIT
290
     1
  9
$CEPSNTYPE
380
     0
  9
$PSTYLEMODE
290
     1
  9
$FINGERPRINTGUID
  2
{02D2A266-9105-4856-8090-1571EB4EF05B}
  9
$VERSIONGUID
  2
{5A5C8483-A10E-4B46-B907-CBB6FED80ED9}
  9
$EXTNAMES
290
     1
  9
$PSVPSCALE
 40
0.0
  9
$OLESTARTUP
290
     0
  9
$SORTENTS
280
   127
  9
$INDEXCTL
280
     0
  9
$HIDETEXT
280
     1
  9
$XCLIPFRAME
290
     0
  9
$HALOGAP
280
     0
  9
$OBSCOLOR
 70
   257
  9
$OBSLTYPE
280
     0
  9
$INTERSECTIONDISPLAY
280
     0
  9
$INTERSECTIONCOLOR
 70
   257
  9
$DIMASSOC
280
     0
  9
$PROJECTNAME
  1

  0
ENDSEC
  0
SECTION
  2
CLASSES
  0
CLASS
  1
ACDBDICTIONARYWDFLT
  2
AcDbDictionaryWithDefault
  3
ObjectDBX Classes
 90
        0
 91
        3
280
     0
281
     0
  0
CLASS
  1
ACDBPLACEHOLDER
  2
AcDbPlaceHolder
  3
ObjectDBX Classes
 90
        0
 91
        1
280
     0
281
     0
  0
CLASS
  1
LAYOUT
  2
AcDbLayout
  3
ObjectDBX Classes
 90
        0
 91
        1
280
     0
281
     0
  0
CLASS
  1
DUMMY
  2
AcDbLongTransaction
  3
DUMMY
 90
        0
 91
        1
280
     0
281
     0
  0
CLASS
  1
LWPOLYLINE
  2
AcDbPolyline
  3
AutoCAD 2000
 90
        0
 91
        1
280
     0
281
     1
  0
CLASS
  1
HATCH
  2
AcDbHatch
  3
AutoCAD 2000
 90
        0
 91
        1
280
     0
281
     1
  0
CLASS
  1
XRECORD
  2
AcDbXrecord
  3
AutoCAD 2000
 90
        0
 91
        1
280
     0
281
     0
  0
CLASS
  1
DICTIONARYVAR
  2
AcDbDictionaryVar
  3
ObjectDBX Classes
 90
        0
 91
        3
280
     0
281
     0
  0
ENDSEC
  0
SECTION
  2
TABLES
  0
TABLE
  2
VPORT
  5
1D
330
0
100
AcDbSymbolTable
 70
     4
  0
VPORT
  5
289
330
1D
100
AcDbSymbolTableRecord
100
AcDbViewportTableRecord
  2
*Active
 70
     0
 10
0.0
 20
0.0
 11
1.0
 21
1.0
 12
26.25
 22
19.90356609738129
 13
0.0
 23
0.0
 14
0.0625
 24
0.0625
 15
0.25
 25
0.25
 16
0.0
 26
0.0
 36
1.0
 17
0.0
 27
0.0
 37
0.0
 40
40.86649128800677
 41
1.840336134453781
 42
50.0
 43
0.0
 44
0.0
 50
0.0
 51
0.0
 71
     0
 72
   100
 73
     1
 74
     0
 75
     0
 76
     0
 77
     0
 78
     0
281
     0
 65
     1
110
0.0
120
0.0
130
0.0
111
1.0
121
0.0
131
0.0
112
0.0
122
1.0
132
0.0
 79
     0
146
0.0
  0
ENDTAB
  0
TABLE
  2
LTYPE
  5
18
330
0
100
AcDbSymbolTable
 70
     1
  0
LTYPE
  5
19
330
18
100
AcDbSymbolTableRecord
100
AcDbLinetypeTableRecord
  2
ByBlock
 70
     0
  3

 72
    65
 73
     0
 40
0.0
  0
LTYPE
  5
1A
330
18
100
AcDbSymbolTableRecord
100
AcDbLinetypeTableRecord
  2
ByLayer
 70
     0
  3

 72
    65
 73
     0
 40
0.0
  0
LTYPE
  5
A
330
18
100
AcDbSymbolTableRecord
100
AcDbLinetypeTableRecord
  2
CONTINUOUS
 70
     0
  3
Solid line
 72
    65
 73
     0
 40
0.0
  0
ENDTAB
  0
TABLE
  2
LAYER
  5
14
330
0
100
AcDbSymbolTable
 70
     2
  0
LAYER
  5
6
330
14
100
AcDbSymbolTableRecord
100
AcDbLayerTableRecord
  2
0
 70
     0
 62
     1
  6
CONTINUOUS
370
    -3
390
7
  0
LAYER
  5
26
330
14
100
AcDbSymbolTableRecord
100
AcDbLayerTableRecord
  2
OBJECT
 70
     0
 62
     7
  6
CONTINUOUS
370
    -3
390
7
  0
ENDTAB
  0
TABLE
  2
STYLE
  5
15
330
0
100
AcDbSymbolTable
 70
     1
  0
STYLE
  5
16
330
15
100
AcDbSymbolTableRecord
100
AcDbTextStyleTableRecord
  2
STANDARD
 70
     0
 40
0.0
 41
1.0
 50
0.0
 71
     0
 42
0.45
  3
TXT
  4

  0
ENDTAB
  0
TABLE
  2
VIEW
  5
1B
330
0
100
AcDbSymbolTable
 70
     0
  0
ENDTAB
  0
TABLE
  2
UCS
  5
1C
330
0
100
AcDbSymbolTable
 70
     0
  0
ENDTAB
  0
TABLE
  2
APPID
  5
1F
330
0
100
AcDbSymbolTable
 70
     1
  0
APPID
  5
20
330
1F
100
AcDbSymbolTableRecord
100
AcDbRegAppTableRecord
  2
ACAD
 70
     0
  0
ENDTAB
  0
TABLE
  2
DIMSTYLE
  5
21
330
0
100
AcDbSymbolTable
 70
     1
100
AcDbDimStyleTable
  0
DIMSTYLE
105
28
330
21
100
AcDbSymbolTableRecord
100
AcDbDimStyleTableRecord
  2
Standard
 70
     0
340
16
  0
ENDTAB
  0
TABLE
  2
BLOCK_RECORD
  5
1
330
0
100
AcDbSymbolTable
 70
     1
  0
BLOCK_RECORD
  5
2
330
1
100
AcDbSymbolTableRecord
100
AcDbBlockTableRecord
  2
*Model_Space
340
C
  0
BLOCK_RECORD
  5
E
330
1
100
AcDbSymbolTableRecord
100
AcDbBlockTableRecord
  2
*Paper_Space
340
13
  0
BLOCK_RECORD
  5
AF
330
1
100
AcDbSymbolTableRecord
100
AcDbBlockTableRecord
  2
REGTRADE
340
0
  0
ENDTAB
  0
ENDSEC
  0
SECTION
  2
BLOCKS
  0
BLOCK
  5
5
330
2
100
AcDbEntity
  8
0
100
AcDbBlockBegin
  2
*Model_Space
 70
     0
 71
     0
 10
0.0
 20
0.0
 30
0.0
  3
*Model_Space
  1

  0
ENDBLK
  5
B
330
2
100
AcDbEntity
  8
0
100
AcDbBlockEnd
  0
BLOCK
  5
11
330
E
100
AcDbEntity
 67
     1
  8
0
100
AcDbBlockBegin
  2
*Paper_Space
 70
     0
 71
     0
 10
0.0
 20
0.0
 30
0.0
  3
*Paper_Space
  1

  0
ENDBLK
  5
12
330
E
100
AcDbEntity
 67
     1
  8
0
100
AcDbBlockEnd
  0
BLOCK
  5
B3
330
AF
100
AcDbEntity
  8
0
100
AcDbBlockBegin
  2
REGTRADE
 70
     0
 71
     0
 10
6.754739829018028
 20
4.627294914098755
 30
0.0
  3
REGTRADE
  1

  0
LINE
  5
B0
330
AF
100
AcDbEntity
  8
0
100
AcDbLine
 10
6.771984786407902
 20
4.635039856277118
 30
0.0
 11
6.771984786407902
 21
4.630463299535358
 31
0.0
  0
TEXT
  5
B1
330
AF
100
AcDbEntity
  8
0
100
AcDbText
 10
6.771949592617311
 20
4.633455663558817
 30
0.0
 40
0.05
  1
R
100
AcDbText
  0
CIRCLE
  5
B2
330
AF
100
AcDbEntity
  8
0
100
AcDbCircle
 10
6.786005112734824
 20
4.658450704225352
 30
0.0
 40
0.03125
  0
ENDBLK
  5
B4
330
AF
100
AcDbEntity
  8
0
100
AcDbBlockEnd
  0
ENDSEC
  0
SECTION
  2
ENTITIES
  0
LINE
  5
18E
330
2
100
AcDbEntity
  8
OBJECT
100
AcDbLine
 10
18.43750000000003
 20
5.547161062917894
 30
0.0
 11
18.43750000000001
 21
23.5586444120863
 31
0.0
  0
LINE
  5
190
330
2
100
AcDbEntity
  8
OBJECT
100
AcDbLine
 10
17.48000000000001
 20
23.5586444120863
 30
0.0
 11
17.48000000000001
 21
5.431738668210969
 31
0.0
  0
LINE
  5
191
330
2
100
AcDbEntity
  8
OBJECT
100
AcDbLine
 10
22.87500000000001
 20
23.5586444120863
 30
0.0
 11
22.87500000000001
 21
5.431738668210972
 31
0.0
  0
LINE
  5
192
330
2
100
AcDbEntity
  8
OBJECT
100
AcDbLine
 10
25.43750000000001
 20
25.8086444120863
 30
0.0
 11
25.43750000000001
 21
6.808644412086299
 31
0.0
  0
LINE
  5
193
330
2
100
AcDbEntity
  8
OBJECT
100
AcDbLine
 10
17.4175
 20
23.5586444120863
 30
0.0
 11
17.41750000000001
 21
5.431738668210969
 31
0.0
  0
LINE
  5
194
330
2
100
AcDbEntity
  8
OBJECT
100
AcDbLine
 10
18.43750000000003
 20
5.431738668210972
 30
0.0
 11
17.41750000000001
 21
5.431738668210972
 31
0.0
  0
LINE
  5
195
330
2
100
AcDbEntity
  8
OBJECT
100
AcDbLine
 10
22.93750000000001
 20
4.371144412086299
 30
0.0
 11
18.43750000000003
 21
-0.1288555879136943
 31
0.0
  0
LINE
  5
196
330
2
100
AcDbEntity
  8
OBJECT
100
AcDbLine
 10
18.43750000000003
 20
-0.1913555879136783
 30
0.0
 11
25.43750000000001
 21
6.808644412086295
 31
0.0
  0
LINE
  5
197
330
2
100
AcDbEntity
  8
OBJECT
100
AcDbLine
 10
18.43750000000003
 20
-0.1913555879136783
 30
0.0
 11
18.43750000000003
 21
5.431738668210972
 31
0.0
  0
LINE
  5
198
330
2
100
AcDbEntity
  8
OBJECT
100
AcDbLine
 10
22.9375
 20
5.431738668210969
 30
0.0
 11
22.93750000000001
 21
4.308644412086299
 31
0.0
  0
LINE
  5
199
330
2
100
AcDbEntity
  8
OBJECT
100
AcDbLine
 10
22.93750000000003
 20
4.371144412086306
 30
0.0
 11
25.43750000000001
 21
6.871144412086295
 31
0.0
  0
LINE
  5
19A
330
2
100
AcDbEntity
  8
OBJECT
100
AcDbLine
 10
22.93750000000001
 20
5.431738668210976
 30
0.0
 11
22.87500000000001
 21
5.431738668210976
 31
0.0
  0
ARC
  5
19C
330
2
100
AcDbEntity
  8
OBJECT
100
AcDbCircle
 10
17.7925
 20
14.4336444120863
 30
0.0
 40
0.125
100
AcDbArc
 50
284.4775121859331
 51
75.52248781406695
  0
CIRCLE
  5
19D
330
2
100
AcDbEntity
  8
OBJECT
100
AcDbCircle
 10
17.85500000000001
 20
14.4336444120863
 30
0.0
 40
0.125
  0
ARC
  5
19E
330
2
100
AcDbEntity
  8
OBJECT
100
AcDbCircle
 10
17.7925
 20
9.246144412086295
 30
0.0
 40
0.125
100
AcDbArc
 50
284.4775121859331
 51
75.52248781406695
  0
CIRCLE
  5
19F
330
2
100
AcDbEntity
  8
OBJECT
100
AcDbCircle
 10
17.85500000000001
 20
9.246144412086295
 30
0.0
 40
0.125
  0
ARC
  5
1A0
330
2
100
AcDbEntity
  8
OBJECT
100
AcDbCircle
 10
17.98
 20
10.3086444120863
 30
0.0
 40
0.125
100
AcDbArc
 50
284.4775121859331
 51
75.52248781406695
  0
CIRCLE
  5
1A1
330
2
100
AcDbEntity
  8
OBJECT
100
AcDbCircle
 10
18.04250000000001
 20
10.3086444120863
 30
0.0
 40
0.125
  0
ARC
  5
1A2
330
2
100
AcDbEntity
  8
OBJECT
100
AcDbCircle
 10
17.7925
 20
11.5586444120863
 30
0.0
 40
0.125
100
AcDbArc
 50
284.4775121859331
 51
75.52248781406695
  0
CIRCLE
  5
1A3
330
2
100
AcDbEntity
  8
OBJECT
100
AcDbCircle
 10
17.85500000000001
 20
11.5586444120863
 30
0.0
 40
0.125
  0
ARC
  5
1A6
330
2
100
AcDbEntity
  8
OBJECT
100
AcDbCircle
 10
17.98
 20
13.1836444120863
 30
0.0
 40
0.125
100
AcDbArc
 50
284.4775121859331
 51
75.52248781406695
  0
CIRCLE
  5
1A7
330
2
100
AcDbEntity
  8
OBJECT
100
AcDbCircle
 10
18.04250000000001
 20
13.1836444120863
 30
0.0
 40
0.125
  0
ARC
  5
1A8
330
2
100
AcDbEntity
  8
OBJECT
100
AcDbCircle
 10
17.98
 20
16.0586444120863
 30
0.0
 40
0.125
100
AcDbArc
 50
284.4775121859331
 51
75.52248781406695
  0
CIRCLE
  5
1A9
330
2
100
AcDbEntity
  8
OBJECT
100
AcDbCircle
 10
18.04250000000001
 20
16.0586444120863
 30
0.0
 40
0.125
  0
ARC
  5
1AC
330
2
100
AcDbEntity
  8
OBJECT
100
AcDbCircle
 10
17.7925
 20
17.3086444120863
 30
0.0
 40
0.125
100
AcDbArc
 50
284.4775121859331
 51
75.52248781406695
  0
CIRCLE
  5
1AD
330
2
100
AcDbEntity
  8
OBJECT
100
AcDbCircle
 10
17.85500000000001
 20
17.3086444120863
 30
0.0
 40
0.125
  0
ARC
  5
1AE
330
2
100
AcDbEntity
  8
OBJECT
100
AcDbCircle
 10
17.98
 20
18.9336444120863
 30
0.0
 40
0.125
100
AcDbArc
 50
284.4775121859331
 51
75.52248781406695
  0
CIRCLE
  5
1AF
330
2
100
AcDbEntity
  8
OBJECT
100
AcDbCircle
 10
18.04250000000001
 20
18.9336444120863
 30
0.0
 40
0.125
  0
ARC
  5
1B2
330
2
100
AcDbEntity
  8
OBJECT
100
AcDbCircle
 10
17.7925
 20
20.1836444120863
 30
0.0
 40
0.125
100
AcDbArc
 50
284.4775121859331
 51
75.52248781406658
  0
CIRCLE
  5
1B3
330
2
100
AcDbEntity
  8
OBJECT
100
AcDbCircle
 10
17.85500000000001
 20
20.1836444120863
 30
0.0
 40
0.125
  0
CIRCLE
  5
1B4
330
2
100
AcDbEntity
  8
OBJECT
100
AcDbCircle
 10
24.68750000000001
 20
14.4961444120863
 30
0.0
 40
0.109375
  0
CIRCLE
  5
1B5
330
2
100
AcDbEntity
  8
OBJECT
100
AcDbCircle
 10
25.06250000000001
 20
9.746144412086295
 30
0.0
 40
0.109375
  0
CIRCLE
  5
1B6
330
2
100
AcDbEntity
  8
OBJECT
100
AcDbCircle
 10
24.68750000000001
 20
10.4961444120863
 30
0.0
 40
0.109375
  0
CIRCLE
  5
1B7
330
2
100
AcDbEntity
  8
OBJECT
100
AcDbCircle
 10
25.06250000000001
 20
13.7461444120863
 30
0.0
 40
0.109375
  0
CIRCLE
  5
1BA
330
2
100
AcDbEntity
  8
OBJECT
100
AcDbCircle
 10
24.68750000000001
 20
18.4961444120863
 30
0.0
 40
0.109375
  0
CIRCLE
  5
1BB
330
2
100
AcDbEntity
  8
OBJECT
100
AcDbCircle
 10
25.06250000000001
 20
17.7461444120863
 30
0.0
 40
0.109375
  0
LINE
  5
1BE
330
2
100
AcDbEntity
  8
OBJECT
100
AcDbLine
 10
17.4175
 20
23.5586444120863
 30
0.0
 11
22.62700000000002
 21
23.5586444120863
 31
0.0
  0
LINE
  5
1BF
330
2
100
AcDbEntity
  8
OBJECT
100
AcDbLine
 10
17.48000000000001
 20
23.5586444120863
 30
0.0
 11
22.93750000000001
 21
23.5586444120863
 31
0.0
  0
ARC
  5
1C0
330
2
100
AcDbEntity
  8
OBJECT
100
AcDbCircle
 10
17.98
 20
21.9336444120863
 30
0.0
 40
0.125
100
AcDbArc
 50
284.4775121859334
 51
75.52248781406658
  0
CIRCLE
  5
1C1
330
2
100
AcDbEntity
  8
OBJECT
100
AcDbCircle
 10
18.04250000000001
 20
21.9336444120863
 30
0.0
 40
0.125
  0
ARC
  5
1C2
330
2
100
AcDbEntity
  8
OBJECT
100
AcDbCircle
 10
17.7925
 20
23.1836444120863
 30
0.0
 40
0.125
100
AcDbArc
 50
284.4775121859334
 51
75.52248781406658
  0
CIRCLE
  5
1C3
330
2
100
AcDbEntity
  8
OBJECT
100
AcDbCircle
 10
17.85500000000001
 20
23.1836444120863
 30
0.0
 40
0.125
  0
LINE
  5
1C6
330
2
100
AcDbEntity
  8
OBJECT
100
AcDbLine
 10
25.26072330470338
 20
25.88186771678966
 30
0.0
 11
22.93750000000001
 21
23.5586444120863
 31
0.0
  0
CIRCLE
  5
1C8
330
2
100
AcDbEntity
  8
OBJECT
100
AcDbCircle
 10
25.06250000000001
 20
21.7461444120863
 30
0.0
 40
0.109375
  0
CIRCLE
  5
1C9
330
2
100
AcDbEntity
  8
OBJECT
100
AcDbCircle
 10
24.68750000000001
 20
22.4961444120863
 30
0.0
 40
0.109375
  0
LINE
  5
1CA
330
2
100
AcDbEntity
  8
OBJECT
100
AcDbLine
 10
25.43750000000001
 20
25.8086444120863
 30
0.0
 11
25.26072330470338
 21
25.88186771678966
 31
0.0
  0
LINE
  5
20A
330
2
100
AcDbEntity
  8
OBJECT
100
AcDbLine
 10
17.83767220299794
 20
13.64429119203784
 30
0.0
 11
18.09799607672115
 21
13.71404476377251
 31
0.0
  0
ARC
  5
20B
330
2
100
AcDbEntity
  8
OBJECT
100
AcDbCircle
 10
18.08992092251395
 20
13.74418164955272
 30
0.0
 40
0.0311999999999952
100
AcDbArc
 50
284.9999999999876
 51
45.0
  0
LINE
  5
20C
330
2
100
AcDbEntity
  8
OBJECT
100
AcDbLine
 10
18.11198265408697
 20
13.76624338112574
 30
0.0
 11
17.92141235209844
 21
13.95681368311428
 31
0.0
  0
ARC
  5
20D
330
2
100
AcDbEntity
  8
OBJECT
100
AcDbCircle
 10
17.89935062052542
 20
13.93475195154126
 30
0.0
 40
0.0312000000000019
100
AcDbArc
 50
44.99999999999078
 51
164.9999999999998
  0
LINE
  5
20E
330
2
100
AcDbEntity
  8
OBJECT
100
AcDbLine
 10
17.8692137347452
 20
13.94282710574846
 30
0.0
 11
17.79946016301052
 21
13.68250323202525
 31
0.0
  0
ARC
  5
20F
330
2
100
AcDbEntity
  8
OBJECT
100
AcDbCircle
 10
17.82959704879074
 20
13.67442807781806
 30
0.0
 40
0.031199999999997
100
AcDbArc
 50
164.9999999999998
 51
285.0000000000002
  0
LINE
  5
210
330
2
100
AcDbEntity
  8
OBJECT
100
AcDbLine
 10
17.80707267695556
 20
13.65283889827295
 30
0.0
 11
18.03549607672114
 21
13.71404476377251
 31
0.0
  0
ARC
  5
211
330
2
100
AcDbEntity
  8
OBJECT
100
AcDbCircle
 10
18.02742092251395
 20
13.74418164955272
 30
0.0
 40
0.0311999999999952
100
AcDbArc
 50
284.9999999999876
 51
45.0
  0
LINE
  5
212
330
2
100
AcDbEntity
  8
OBJECT
100
AcDbLine
 10
18.04948265408697
 20
13.76624338112574
 30
0.0
 11
17.87010504112927
 21
13.94562099408344
 31
0.0
  0
LINE
  5
213
330
2
100
AcDbEntity
  8
OBJECT
100
AcDbLine
 10
17.83767220299794
 20
16.51929119203784
 30
0.0
 11
18.09799607672115
 21
16.58904476377251
 31
0.0
  0
ARC
  5
214
330
2
100
AcDbEntity
  8
OBJECT
100
AcDbCircle
 10
18.08992092251395
 20
16.61918164955272
 30
0.0
 40
0.0311999999999952
100
AcDbArc
 50
284.9999999999876
 51
45.0
  0
LINE
  5
215
330
2
100
AcDbEntity
  8
OBJECT
100
AcDbLine
 10
18.11198265408697
 20
16.64124338112574
 30
0.0
 11
17.92141235209844
 21
16.83181368311428
 31
0.0
  0
ARC
  5
216
330
2
100
AcDbEntity
  8
OBJECT
100
AcDbCircle
 10
17.89935062052542
 20
16.80975195154126
 30
0.0
 40
0.0312000000000019
100
AcDbArc
 50
44.99999999999078
 51
164.9999999999998
  0
LINE
  5
217
330
2
100
AcDbEntity
  8
OBJECT
100
AcDbLine
 10
17.8692137347452
 20
16.81782710574846
 30
0.0
 11
17.79946016301052
 21
16.55750323202525
 31
0.0
  0
ARC
  5
218
330
2
100
AcDbEntity
  8
OBJECT
100
AcDbCircle
 10
17.82959704879074
 20
16.54942807781806
 30
0.0
 40
0.031199999999997
100
AcDbArc
 50
164.9999999999998
 51
285.0000000000002
  0
LINE
  5
219
330
2
100
AcDbEntity
  8
OBJECT
100
AcDbLine
 10
17.80707267695556
 20
16.52783889827295
 30
0.0
 11
18.03549607672114
 21
16.58904476377251
 31
0.0
  0
ARC
  5
21A
330
2
100
AcDbEntity
  8
OBJECT
100
AcDbCircle
 10
18.02742092251395
 20
16.61918164955272
 30
0.0
 40
0.0311999999999952
100
AcDbArc
 50
284.9999999999876
 51
45.0
  0
LINE
  5
21B
330
2
100
AcDbEntity
  8
OBJECT
100
AcDbLine
 10
18.04948265408697
 20
16.64124338112574
 30
0.0
 11
17.87010504112927
 21
16.82062099408344
 31
0.0
  0
LINE
  5
21C
330
2
100
AcDbEntity
  8
OBJECT
100
AcDbLine
 10
17.83767220299794
 20
19.39429119203784
 30
0.0
 11
18.09799607672115
 21
19.46404476377251
 31
0.0
  0
ARC
  5
21D
330
2
100
AcDbEntity
  8
OBJECT
100
AcDbCircle
 10
18.08992092251395
 20
19.49418164955272
 30
0.0
 40
0.0311999999999952
100
AcDbArc
 50
284.9999999999876
 51
45.0
  0
LINE
  5
21E
330
2
100
AcDbEntity
  8
OBJECT
100
AcDbLine
 10
18.11198265408697
 20
19.51624338112574
 30
0.0
 11
17.92141235209844
 21
19.70681368311428
 31
0.0
  0
ARC
  5
21F
330
2
100
AcDbEntity
  8
OBJECT
100
AcDbCircle
 10
17.89935062052542
 20
19.68475195154126
 30
0.0
 40
0.0312000000000019
100
AcDbArc
 50
44.99999999999078
 51
164.9999999999998
  0
LINE
  5
220
330
2
100
AcDbEntity
  8
OBJECT
100
AcDbLine
 10
17.8692137347452
 20
19.69282710574846
 30
0.0
 11
17.79946016301052
 21
19.43250323202525
 31
0.0
  0
ARC
  5
221
330
2
100
AcDbEntity
  8
OBJECT
100
AcDbCircle
 10
17.82959704879074
 20
19.42442807781806
 30
0.0
 40
0.031199999999997
100
AcDbArc
 50
164.9999999999998
 51
285.0000000000002
  0
LINE
  5
222
330
2
100
AcDbEntity
  8
OBJECT
100
AcDbLine
 10
17.80707267695556
 20
19.40283889827295
 30
0.0
 11
18.03549607672114
 21
19.46404476377251
 31
0.0
  0
ARC
  5
223
330
2
100
AcDbEntity
  8
OBJECT
100
AcDbCircle
 10
18.02742092251395
 20
19.49418164955272
 30
0.0
 40
0.0311999999999952
100
AcDbArc
 50
284.9999999999876
 51
45.0
  0
LINE
  5
224
330
2
100
AcDbEntity
  8
OBJECT
100
AcDbLine
 10
18.04948265408697
 20
19.51624338112574
 30
0.0
 11
17.87010504112927
 21
19.69562099408344
 31
0.0
  0
LINE
  5
229
330
2
100
AcDbEntity
  8
OBJECT
100
AcDbLine
 10
17.83767220299794
 20
22.39429119203784
 30
0.0
 11
18.09799607672115
 21
22.46404476377251
 31
0.0
  0
ARC
  5
22A
330
2
100
AcDbEntity
  8
OBJECT
100
AcDbCircle
 10
18.08992092251395
 20
22.49418164955273
 30
0.0
 40
0.0312000000000039
100
AcDbArc
 50
284.9999999999968
 51
44.99999999999078
  0
LINE
  5
22B
330
2
100
AcDbEntity
  8
OBJECT
100
AcDbLine
 10
18.11198265408697
 20
22.51624338112575
 30
0.0
 11
17.92141235209844
 21
22.70681368311428
 31
0.0
  0
ARC
  5
22C
330
2
100
AcDbEntity
  8
OBJECT
100
AcDbCircle
 10
17.89935062052542
 20
22.68475195154126
 30
0.0
 40
0.0312000000000019
100
AcDbArc
 50
44.99999999999078
 51
164.9999999999872
  0
LINE
  5
22D
330
2
100
AcDbEntity
  8
OBJECT
100
AcDbLine
 10
17.8692137347452
 20
22.69282710574846
 30
0.0
 11
17.79946016301052
 21
22.43250323202525
 31
0.0
  0
ARC
  5
22E
330
2
100
AcDbEntity
  8
OBJECT
100
AcDbCircle
 10
17.82959704879074
 20
22.42442807781806
 30
0.0
 40
0.031199999999997
100
AcDbArc
 50
164.9999999999998
 51
285.0000000000002
  0
LINE
  5
22F
330
2
100
AcDbEntity
  8
OBJECT
100
AcDbLine
 10
17.80707267695556
 20
22.40283889827296
 30
0.0
 11
18.03549607672114
 21
22.46404476377251
 31
0.0
  0
ARC
  5
230
330
2
100
AcDbEntity
  8
OBJECT
100
AcDbCircle
 10
18.02742092251394
 20
22.49418164955273
 30
0.0
 40
0.0312000000000039
100
AcDbArc
 50
284.9999999999968
 51
44.99999999999078
  0
LINE
  5
231
330
2
100
AcDbEntity
  8
OBJECT
100
AcDbLine
 10
18.04948265408697
 20
22.51624338112575
 30
0.0
 11
17.87010504112927
 21
22.69562099408344
 31
0.0
  0
LINE
  5
265
330
2
100
AcDbEntity
  8
OBJECT
100
AcDbLine
 10
24.91701655379202
 20
15.8676584382577
 30
0.0
 11
24.98677012552669
 21
15.60733456453449
 31
0.0
  0
ARC
  5
266
330
2
100
AcDbEntity
  8
OBJECT
100
AcDbCircle
 10
25.01690701130691
 20
15.61540971874169
 30
0.0
 40
0.0312000000000029
100
AcDbArc
 50
194.9999999999905
 51
314.9999999999954
  0
LINE
  5
267
330
2
100
AcDbEntity
  8
OBJECT
100
AcDbLine
 10
25.03896874287993
 20
15.59334798716867
 30
0.0
 11
25.22953904486845
 21
15.7839182891572
 31
0.0
  0
ARC
  5
268
330
2
100
AcDbEntity
  8
OBJECT
100
AcDbCircle
 10
25.20747731329543
 20
15.80598002073022
 30
0.0
 40
0.0311999999999994
100
AcDbArc
 50
314.9999999999954
 51
74.99999999998893
  0
LINE
  5
269
330
2
100
AcDbEntity
  8
OBJECT
100
AcDbLine
 10
25.21555246750264
 20
15.83611690651044
 30
0.0
 11
24.95522859377943
 21
15.90587047824511
 31
0.0
  0
ARC
  5
26A
330
2
100
AcDbEntity
  8
OBJECT
100
AcDbCircle
 10
24.94715343957223
 20
15.87573359246489
 30
0.0
 40
0.031199999999997
100
AcDbArc
 50
74.99999999999984
 51
195.0000000000001
  0
LINE
  5
26B
330
2
100
AcDbEntity
  8
OBJECT
100
AcDbLine
 10
24.5468776796594
 20
16.6355275708952
 30
0.0
 11
24.61663125139408
 21
16.37520369717199
 31
0.0
  0
ARC
  5
26C
330
2
100
AcDbEntity
  8
OBJECT
100
AcDbCircle
 10
24.6467681371743
 20
16.38327885137919
 30
0.0
 40
0.0312000000000029
100
AcDbArc
 50
194.9999999999905
 51
314.9999999999954
  0
LINE
  5
26D
330
2
100
AcDbEntity
  8
OBJECT
100
AcDbLine
 10
24.66882986874732
 20
16.36121711980617
 30
0.0
 11
24.85940017073585
 21
16.5517874217947
 31
0.0
  0
ARC
  5
26E
330
2
100
AcDbEntity
  8
OBJECT
100
AcDbCircle
 10
24.83733843916282
 20
16.57384915336772
 30
0.0
 40
0.0312000000000044
100
AcDbArc
 50
315.0000000000046
 51
75.00000000000153
  0
LINE
  5
26F
330
2
100
AcDbEntity
  8
OBJECT
100
AcDbLine
 10
24.84541359337002
 20
16.60398603914794
 30
0.0
 11
24.58508971964682
 21
16.67373961088261
 31
0.0
  0
ARC
  5
270
330
2
100
AcDbEntity
  8
OBJECT
100
AcDbCircle
 10
24.57701456543962
 20
16.64360272510239
 30
0.0
 40
0.031199999999997
100
AcDbArc
 50
74.99999999999984
 51
195.0000000000001
  0
LINE
  5
271
330
2
100
AcDbEntity
  8
OBJECT
100
AcDbLine
 10
24.91701655379202
 20
19.89012074674828
 30
0.0
 11
24.98677012552669
 21
19.62979687302508
 31
0.0
  0
ARC
  5
272
330
2
100
AcDbEntity
  8
OBJECT
100
AcDbCircle
 10
25.01690701130691
 20
19.63787202723227
 30
0.0
 40
0.0312000000000029
100
AcDbArc
 50
194.9999999999905
 51
314.9999999999954
  0
LINE
  5
273
330
2
100
AcDbEntity
  8
OBJECT
100
AcDbLine
 10
25.03896874287993
 20
19.61581029565925
 30
0.0
 11
25.22953904486845
 21
19.80638059764778
 31
0.0
  0
ARC
  5
274
330
2
100
AcDbEntity
  8
OBJECT
100
AcDbCircle
 10
25.20747731329543
 20
19.8284423292208
 30
0.0
 40
0.0311999999999994
100
AcDbArc
 50
314.9999999999954
 51
74.99999999998893
  0
LINE
  5
275
330
2
100
AcDbEntity
  8
OBJECT
100
AcDbLine
 10
25.21555246750264
 20
19.85857921500102
 30
0.0
 11
24.95522859377943
 21
19.92833278673569
 31
0.0
  0
ARC
  5
276
330
2
100
AcDbEntity
  8
OBJECT
100
AcDbCircle
 10
24.94715343957223
 20
19.89819590095547
 30
0.0
 40
0.031199999999997
100
AcDbArc
 50
74.99999999999984
 51
195.0000000000001
  0
LINE
  5
277
330
2
100
AcDbEntity
  8
OBJECT
100
AcDbLine
 10
24.5468776796594
 20
20.65798987938578
 30
0.0
 11
24.61663125139408
 21
20.39766600566257
 31
0.0
  0
ARC
  5
278
330
2
100
AcDbEntity
  8
OBJECT
100
AcDbCircle
 10
24.6467681371743
 20
20.40574115986977
 30
0.0
 40
0.0312000000000039
100
AcDbArc
 50
194.9999999999968
 51
314.9999999999908
  0
LINE
  5
279
330
2
100
AcDbEntity
  8
OBJECT
100
AcDbLine
 10
24.66882986874732
 20
20.38367942829674
 30
0.0
 11
24.85940017073585
 21
20.57424973028527
 31
0.0
  0
ARC
  5
27A
330
2
100
AcDbEntity
  8
OBJECT
100
AcDbCircle
 10
24.83733843916282
 20
20.59631146185829
 30
0.0
 40
0.0312000000000019
100
AcDbArc
 50
315.0000000000092
 51
75.00000000000323
  0
LINE
  5
27B
330
2
100
AcDbEntity
  8
OBJECT
100
AcDbLine
 10
24.84541359337002
 20
20.62644834763852
 30
0.0
 11
24.58508971964682
 21
20.69620191937319
 31
0.0
  0
ARC
  5
27C
330
2
100
AcDbEntity
  8
OBJECT
100
AcDbCircle
 10
24.57701456543962
 20
20.66606503359298
 30
0.0
 40
0.031199999999997
100
AcDbArc
 50
74.99999999999984
 51
195.0000000000001
  0
ENDSEC
  0
SECTION
  2
OBJECTS
  0
DICTIONARY
  5
9
330
0
100
AcDbDictionary
281
     1
  3
ACAD_GROUP
350
23
  3
ACAD_LAYOUT
350
D
  3
ACAD_MLINESTYLE
350
24
  3
ACAD_PLOTSETTINGS
350
25
  3
ACAD_PLOTSTYLENAME
350
8
  3
ACAD_TABLESTYLE
350
28A
  3
AcDbVariableDictionary
350
118
  0
DICTIONARY
  5
23
102
{ACAD_REACTORS
330
9
102
}
330
9
100
AcDbDictionary
281
     1
  0
DICTIONARY
  5
D
102
{ACAD_REACTORS
330
9
102
}
330
9
100
AcDbDictionary
281
     1
  3
Layout1
350
13
  3
Model
350
C
  0
DICTIONARY
  5
24
102
{ACAD_REACTORS
330
9
102
}
330
9
100
AcDbDictionary
281
     1
  3
Standard
350
27
  0
DICTIONARY
  5
25
102
{ACAD_REACTORS
330
9
102
}
330
9
100
AcDbDictionary
281
     1
  0
ACDBDICTIONARYWDFLT
  5
8
102
{ACAD_REACTORS
330
9
102
}
330
9
100
AcDbDictionary
281
     1
  3
Normal
350
7
100
AcDbDictionaryWithDefault
340
7
  0
DICTIONARY
  5
28A
102
{ACAD_REACTORS
330
9
102
}
330
9
100
AcDbDictionary
281
     1
  0
DICTIONARY
  5
118
102
{ACAD_REACTORS
330
9
102
}
330
9
100
AcDbDictionary
281
     1
  3
DIMASSOC
350
11A
  3
HIDETEXT
350
119
  0
LAYOUT
  5
13
102
{ACAD_REACTORS
330
D
102
}
330
D
100
AcDbPlotSettings
  1

  2
C:\ACAD2000\plotters\HP LaserJet 2100 Series PS.pc3
  4

  6

 40
0.0
 41
0.0
 42
0.0
 43
0.0
 44
0.0
 45
0.0
 46
0.0
 47
0.0
 48
0.0
 49
0.0
140
0.0
141
0.0
142
1.0
143
1.0
 70
   688
 72
     0
 73
     0
 74
     5
  7

 75
    16
 76
     0
 77
     2
 78
   300
147
1.0
148
0.0
149
0.0
100
AcDbLayout
  1
Layout1
 70
     0
 71
     1
 10
0.0
 20
0.0
 11
12.0
 21
9.0
 12
0.0
 22
0.0
 32
0.0
 14
1.000000000000000E+20
 24
1.000000000000000E+20
 34
1.000000000000000E+20
 15
-1.000000000000000E+20
 25
-1.000000000000000E+20
 35
-1.000000000000000E+20
146
0.0
 13
0.0
 23
0.0
 33
0.0
 16
1.0
 26
0.0
 36
0.0
 17
0.0
 27
1.0
 37
0.0
 76
     0
330
E
  0
LAYOUT
  5
C
102
{ACAD_REACTORS
330
D
102
}
330
D
100
AcDbPlotSettings
  1

  2
HP LaserJet 2100 Series PS
  4
Letter
  6

 40
5.365749835968018
 41
5.365735054016113
 42
3.175003051757812
 43
3.17498779296875
 44
210.4813232421875
 45
273.9813232421875
 46
0.0
 47
0.0
 48
0.0
 49
0.0
140
0.0
141
0.0
142
1.0
143
6.603427917725189
 70
 28336
 72
     0
 73
     1
 74
     2
  7

 75
     0
 76
     0
 77
     2
 78
   300
147
0.1514364982035708
148
0.0
149
0.0
100
AcDbLayout
  1
Model
 70
     1
 71
     0
 10
0.0
 20
0.0
 11
12.0
 21
9.0
 12
0.0
 22
0.0
 32
0.0
 14
0.0
 24
0.0
 34
0.0
 15
0.0
 25
0.0
 35
0.0
146
0.0
 13
0.0
 23
0.0
 33
0.0
 16
1.0
 26
0.0
 36
0.0
 17
0.0
 27
1.0
 37
0.0
 76
     0
330
2
331
289
  0
MLINESTYLE
  5
27
102
{ACAD_REACTORS
330
24
102
}
330
24
100
AcDbMlineStyle
  2
STANDARD
 70
     0
  3

 62
   256
 51
90.0
 52
90.0
 71
     2
 49
0.5
 62
   256
  6
BYLAYER
 49
-0.5
 62
   256
  6
BYLAYER
  0
ACDBPLACEHOLDER
  5
7
102
{ACAD_REACTORS
330
8
102
}
330
8
  0
DICTIONARYVAR
  5
11A
102
{ACAD_REACTORS
330
118
102
}
330
118
100
DictionaryVariables
280
     0
  1
0
  0
DICTIONARYVAR
  5
119
102
{ACAD_REACTORS
330
118
102
}
330
118
100
DictionaryVariables
280
     0
  1
1
  0
ENDSEC
  0
EOF
