  0
SECTION
  2
HEADER
  9
$ACADVER
  1
AC1015
  9
$ACADMAINTVER
 70
     6
  9
$DWGCODEPAGE
  3
ANSI_1252
  9
$INSBASE
 10
0.0
 20
0.0
 30
0.0
  9
$EXTMIN
 10
-10.12441587056493
 20
-0.027959415460193
 30
0.0
  9
$EXTMAX
 10
10.12441587056494
 20
19.60548413167573
 30
0.0
  9
$LIMMIN
 10
0.0
 20
0.0
  9
$LIMMAX
 10
24.0
 20
31.5
  9
$ORTHOMODE
 70
     1
  9
$REGENMODE
 70
     1
  9
$FILLMODE
 70
     1
  9
$QTEXTMODE
 70
     0
  9
$MIRRTEXT
 70
     0
  9
$LTSCALE
 40
0.6
  9
$ATTMODE
 70
     1
  9
$TEXTSIZE
 40
0.27
  9
$TRACEWID
 40
0.05
  9
$TEXTSTYLE
  7
STANDARD
  9
$CLAYER
  8
0
  9
$CELTYPE
  6
HIDDEN
  9
$CECOLOR
 62
   256
  9
$CELTSCALE
 40
1.0
  9
$DISPSILH
 70
     0
  9
$DIMSCALE
 40
3.0
  9
$DIMASZ
 40
0.125
  9
$DIMEXO
 40
0.062
  9
$DIMDLI
 40
0.375
  9
$DIMRND
 40
0.0
  9
$DIMDLE
 40
0.0
  9
$DIMEXE
 40
0.08
  9
$DIMTP
 40
0.0
  9
$DIMTM
 40
0.0
  9
$DIMTXT
 40
0.09
  9
$DIMCEN
 40
-0.03125
  9
$DIMTSZ
 40
0.0
  9
$DIMTOL
 70
     0
  9
$DIMLIM
 70
     0
  9
$DIMTIH
 70
     1
  9
$DIMTOH
 70
     1
  9
$DIMSE1
 70
     0
  9
$DIMSE2
 70
     0
  9
$DIMTAD
 70
     0
  9
$DIMZIN
 70
     0
  9
$DIMBLK
  1

  9
$DIMASO
 70
     1
  9
$DIMSHO
 70
     0
  9
$DIMPOST
  1

  9
$DIMAPOST
  1

  9
$DIMALT
 70
     0
  9
$DIMALTD
 70
     2
  9
$DIMALTF
 40
25.4
  9
$DIMLFAC
 40
1.0
  9
$DIMTOFL
 70
     0
  9
$DIMTVP
 40
0.0
  9
$DIMTIX
 70
     0
  9
$DIMSOXD
 70
     0
  9
$DIMSAH
 70
     0
  9
$DIMBLK1
  1

  9
$DIMBLK2
  1

  9
$DIMSTYLE
  2
STANDARD
  9
$DIMCLRD
 70
     0
  9
$DIMCLRE
 70
     0
  9
$DIMCLRT
 70
     0
  9
$DIMTFAC
 40
1.0
  9
$DIMGAP
 40
0.09
  9
$DIMJUST
 70
     0
  9
$DIMSD1
 70
     0
  9
$DIMSD2
 70
     0
  9
$DIMTOLJ
 70
     1
  9
$DIMTZIN
 70
     0
  9
$DIMALTZ
 70
     0
  9
$DIMALTTZ
 70
     0
  9
$DIMUPT
 70
     0
  9
$DIMDEC
 70
     5
  9
$DIMTDEC
 70
     4
  9
$DIMALTU
 70
     2
  9
$DIMALTTD
 70
     2
  9
$DIMTXSTY
  7
STANDARD
  9
$DIMAUNIT
 70
     0
  9
$DIMADEC
 70
     0
  9
$DIMALTRND
 40
0.0
  9
$DIMAZIN
 70
     0
  9
$DIMDSEP
 70
    46
  9
$DIMATFIT
 70
     3
  9
$DIMFRAC
 70
     2
  9
$DIMLDRBLK
  1

  9
$DIMLUNIT
 70
     5
  9
$DIMLWD
 70
    -2
  9
$DIMLWE
 70
    -2
  9
$DIMTMOVE
 70
     2
  9
$LUNITS
 70
     2
  9
$LUPREC
 70
     4
  9
$SKETCHINC
 40
0.1
  9
$FILLETRAD
 40
0.0
  9
$AUNITS
 70
     0
  9
$AUPREC
 70
     0
  9
$MENU
  1
ACAD
  9
$ELEVATION
 40
0.0
  9
$PELEVATION
 40
0.0
  9
$THICKNESS
 40
0.0
  9
$LIMCHECK
 70
     0
  9
$CHAMFERA
 40
0.0
  9
$CHAMFERB
 40
0.0
  9
$CHAMFERC
 40
0.0
  9
$CHAMFERD
 40
0.0
  9
$SKPOLY
 70
     0
  9
$TDCREATE
 40
2449436.829454167
  9
$TDUCREATE
 40
2449437.1627875
  9
$TDUPDATE
 40
2454166.946467014
  9
$TDUUPDATE
 40
2454167.279800347
  9
$TDINDWG
 40
0.6332637847
  9
$TDUSRTIMER
 40
0.6332637847
  9
$USRTIMER
 70
     1
  9
$ANGBASE
 50
0.0
  9
$ANGDIR
 70
     0
  9
$PDMODE
 70
     0
  9
$PDSIZE
 40
0.0
  9
$PLINEWID
 40
0.0
  9
$SPLFRAME
 70
     0
  9
$SPLINETYPE
 70
     6
  9
$SPLINESEGS
 70
     8
  9
$HANDSEED
  5
3D7
  9
$SURFTAB1
 70
     6
  9
$SURFTAB2
 70
     6
  9
$SURFTYPE
 70
     6
  9
$SURFU
 70
     6
  9
$SURFV
 70
     6
  9
$UCSBASE
  2

  9
$UCSNAME
  2

  9
$UCSORG
 10
0.0
 20
0.0
 30
0.0
  9
$UCSXDIR
 10
1.0
 20
0.0
 30
0.0
  9
$UCSYDIR
 10
0.0
 20
1.0
 30
0.0
  9
$UCSORTHOREF
  2

  9
$UCSORTHOVIEW
 70
     0
  9
$UCSORGTOP
 10
0.0
 20
0.0
 30
0.0
  9
$UCSORGBOTTOM
 10
0.0
 20
0.0
 30
0.0
  9
$UCSORGLEFT
 10
0.0
 20
0.0
 30
0.0
  9
$UCSORGRIGHT
 10
0.0
 20
0.0
 30
0.0
  9
$UCSORGFRONT
 10
0.0
 20
0.0
 30
0.0
  9
$UCSORGBACK
 10
0.0
 20
0.0
 30
0.0
  9
$PUCSBASE
  2

  9
$PUCSNAME
  2

  9
$PUCSORG
 10
0.0
 20
0.0
 30
0.0
  9
$PUCSXDIR
 10
1.0
 20
0.0
 30
0.0
  9
$PUCSYDIR
 10
0.0
 20
1.0
 30
0.0
  9
$PUCSORTHOREF
  2

  9
$PUCSORTHOVIEW
 70
     0
  9
$PUCSORGTOP
 10
0.0
 20
0.0
 30
0.0
  9
$PUCSORGBOTTOM
 10
0.0
 20
0.0
 30
0.0
  9
$PUCSORGLEFT
 10
0.0
 20
0.0
 30
0.0
  9
$PUCSORGRIGHT
 10
0.0
 20
0.0
 30
0.0
  9
$PUCSORGFRONT
 10
0.0
 20
0.0
 30
0.0
  9
$PUCSORGBACK
 10
0.0
 20
0.0
 30
0.0
  9
$USERI1
 70
     0
  9
$USERI2
 70
     0
  9
$USERI3
 70
     0
  9
$USERI4
 70
     0
  9
$USERI5
 70
     0
  9
$USERR1
 40
0.0
  9
$USERR2
 40
0.0
  9
$USERR3
 40
0.0
  9
$USERR4
 40
0.0
  9
$USERR5
 40
0.0
  9
$WORLDVIEW
 70
     1
  9
$SHADEDGE
 70
     3
  9
$SHADEDIF
 70
    70
  9
$TILEMODE
 70
     1
  9
$MAXACTVP
 70
    16
  9
$PINSBASE
 10
0.0
 20
0.0
 30
0.0
  9
$PLIMCHECK
 70
     0
  9
$PEXTMIN
 10
1.000000000000000E+20
 20
1.000000000000000E+20
 30
1.000000000000000E+20
  9
$PEXTMAX
 10
-1.000000000000000E+20
 20
-1.000000000000000E+20
 30
-1.000000000000000E+20
  9
$PLIMMIN
 10
0.0
 20
0.0
  9
$PLIMMAX
 10
12.0
 20
9.0
  9
$UNITMODE
 70
     0
  9
$VISRETAIN
 70
     0
  9
$PLINEGEN
 70
     0
  9
$PSLTSCALE
 70
     0
  9
$TREEDEPTH
 70
  3020
  9
$CMLSTYLE
  2
STANDARD
  9
$CMLJUST
 70
     0
  9
$CMLSCALE
 40
1.0
  9
$PROXYGRAPHICS
 70
     1
  9
$MEASUREMENT
 70
     0
  9
$CELWEIGHT
370
    -1
  9
$ENDCAPS
280
     0
  9
$JOINSTYLE
280
     0
  9
$LWDISPLAY
290
     0
  9
$INSUNITS
 70
     0
  9
$HYPERLINKBASE
  1

  9
$STYLESHEET
  1

  9
$XEDIT
290
     1
  9
$CEPSNTYPE
380
     0
  9
$PSTYLEMODE
290
     1
  9
$FINGERPRINTGUID
  2
{7E1BADD1-439C-11D5-BE3F-00508B5FCD51}
  9
$VERSIONGUID
  2
{1275DED7-75FD-4A3C-93A9-8448A36DC56C}
  9
$EXTNAMES
290
     1
  9
$PSVPSCALE
 40
0.0
  9
$OLESTARTUP
290
     0
  0
ENDSEC
  0
SECTION
  2
CLASSES
  0
CLASS
  1
DICTIONARYVAR
  2
AcDbDictionaryVar
  3
AutoCAD 2000
 90
        0
280
     0
281
     0
  0
CLASS
  1
LWPOLYLINE
  2
AcDbPolyline
  3
AutoCAD 2000
 90
        0
280
     0
281
     1
  0
CLASS
  1
ACDBDICTIONARYWDFLT
  2
AcDbDictionaryWithDefault
  3
AutoCAD 2000
 90
        0
280
     0
281
     0
  0
CLASS
  1
ACDBPLACEHOLDER
  2
AcDbPlaceHolder
  3
ObjectDBX Classes
 90
        0
280
     0
281
     0
  0
CLASS
  1
LAYOUT
  2
AcDbLayout
  3
ObjectDBX Classes
 90
        0
280
     0
281
     0
  0
CLASS
  1
LONG_TRANSACTION
  2
AcDbLongTransaction
  3
ObjectDBX Classes
 90
   -65536
280
     1
281
     0
  0
CLASS
  1
LWPOLYLINE
  2
AcDbPolyline
  3
AutoCAD 2000
 90
        0
280
     0
281
     1
  0
CLASS
  1
HATCH
  2
AcDbHatch
  3
AutoCAD 2000
 90
        0
280
     0
281
     1
  0
CLASS
  1
XRECORD
  2
AcDbXrecord
  3
AutoCAD 2000
 90
        0
280
     0
281
     0
  0
CLASS
  1
LONG_TRANSACTION
  2
AcDbLongTransaction
  3
ObjectDBX Classes
 90
   -65536
280
     1
281
     0
  0
CLASS
  1
LWPOLYLINE
  2
AcDbPolyline
  3
AutoCAD 2000
 90
        0
280
     0
281
     1
  0
CLASS
  1
HATCH
  2
AcDbHatch
  3
AutoCAD 2000
 90
        0
280
     0
281
     1
  0
CLASS
  1
XRECORD
  2
AcDbXrecord
  3
AutoCAD 2000
 90
        0
280
     0
281
     0
  0
CLASS
  1
LONG_TRANSACTION
  2
AcDbLongTransaction
  3
ObjectDBX Classes
 90
   -65536
280
     1
281
     0
  0
CLASS
  1
LWPOLYLINE
  2
AcDbPolyline
  3
AutoCAD 2000
 90
        0
280
     0
281
     1
  0
CLASS
  1
HATCH
  2
AcDbHatch
  3
AutoCAD 2000
 90
        0
280
     0
281
     1
  0
CLASS
  1
XRECORD
  2
AcDbXrecord
  3
AutoCAD 2000
 90
        0
280
     0
281
     0
  0
CLASS
  1
LONG_TRANSACTION
  2
AcDbLongTransaction
  3
ObjectDBX Classes
 90
   -65536
280
     1
281
     0
  0
CLASS
  1
LWPOLYLINE
  2
AcDbPolyline
  3
AutoCAD 2000
 90
        0
280
     0
281
     1
  0
CLASS
  1
HATCH
  2
AcDbHatch
  3
AutoCAD 2000
 90
        0
280
     0
281
     1
  0
CLASS
  1
XRECORD
  2
AcDbXrecord
  3
AutoCAD 2000
 90
        0
280
     0
281
     0
  0
CLASS
  1
LONG_TRANSACTION
  2
AcDbLongTransaction
  3
ObjectDBX Classes
 90
   -65536
280
     1
281
     0
  0
CLASS
  1
LWPOLYLINE
  2
AcDbPolyline
  3
AutoCAD 2000
 90
        0
280
     0
281
     1
  0
CLASS
  1
HATCH
  2
AcDbHatch
  3
AutoCAD 2000
 90
        0
280
     0
281
     1
  0
CLASS
  1
XRECORD
  2
AcDbXrecord
  3
AutoCAD 2000
 90
        0
280
     0
281
     0
  0
CLASS
  1
LONG_TRANSACTION
  2
AcDbLongTransaction
  3
ObjectDBX Classes
 90
   -65536
280
     1
281
     0
  0
CLASS
  1
LWPOLYLINE
  2
AcDbPolyline
  3
AutoCAD 2000
 90
        0
280
     0
281
     1
  0
CLASS
  1
HATCH
  2
AcDbHatch
  3
AutoCAD 2000
 90
        0
280
     0
281
     1
  0
CLASS
  1
XRECORD
  2
AcDbXrecord
  3
AutoCAD 2000
 90
        0
280
     0
281
     0
  0
CLASS
  1
LONG_TRANSACTION
  2
AcDbLongTransaction
  3
ObjectDBX Classes
 90
   -65536
280
     1
281
     0
  0
CLASS
  1
LWPOLYLINE
  2
AcDbPolyline
  3
AutoCAD 2000
 90
        0
280
     0
281
     1
  0
CLASS
  1
HATCH
  2
AcDbHatch
  3
AutoCAD 2000
 90
        0
280
     0
281
     1
  0
CLASS
  1
XRECORD
  2
AcDbXrecord
  3
AutoCAD 2000
 90
        0
280
     0
281
     0
  0
CLASS
  1
LONG_TRANSACTION
  2
AcDbLongTransaction
  3
ObjectDBX Classes
 90
   -65536
280
     1
281
     0
  0
CLASS
  1
LWPOLYLINE
  2
AcDbPolyline
  3
AutoCAD 2000
 90
        0
280
     0
281
     1
  0
CLASS
  1
HATCH
  2
AcDbHatch
  3
AutoCAD 2000
 90
        0
280
     0
281
     1
  0
CLASS
  1
XRECORD
  2
AcDbXrecord
  3
AutoCAD 2000
 90
        0
280
     0
281
     0
  0
CLASS
  1
LONG_TRANSACTION
  2
AcDbLongTransaction
  3
ObjectDBX Classes
 90
   -65536
280
     1
281
     0
  0
CLASS
  1
LWPOLYLINE
  2
AcDbPolyline
  3
AutoCAD 2000
 90
        0
280
     0
281
     1
  0
CLASS
  1
HATCH
  2
AcDbHatch
  3
AutoCAD 2000
 90
        0
280
     0
281
     1
  0
CLASS
  1
XRECORD
  2
AcDbXrecord
  3
AutoCAD 2000
 90
        0
280
     0
281
     0
  0
CLASS
  1
LONG_TRANSACTION
  2
AcDbLongTransaction
  3
ObjectDBX Classes
 90
   -65536
280
     1
281
     0
  0
CLASS
  1
LWPOLYLINE
  2
AcDbPolyline
  3
AutoCAD 2000
 90
        0
280
     0
281
     1
  0
CLASS
  1
HATCH
  2
AcDbHatch
  3
AutoCAD 2000
 90
        0
280
     0
281
     1
  0
CLASS
  1
XRECORD
  2
AcDbXrecord
  3
AutoCAD 2000
 90
        0
280
     0
281
     0
  0
CLASS
  1
LONG_TRANSACTION
  2
AcDbLongTransaction
  3
ObjectDBX Classes
 90
   -65536
280
     1
281
     0
  0
CLASS
  1
LWPOLYLINE
  2
AcDbPolyline
  3
AutoCAD 2000
 90
        0
280
     0
281
     1
  0
CLASS
  1
HATCH
  2
AcDbHatch
  3
AutoCAD 2000
 90
        0
280
     0
281
     1
  0
CLASS
  1
XRECORD
  2
AcDbXrecord
  3
AutoCAD 2000
 90
        0
280
     0
281
     0
  0
CLASS
  1
LONG_TRANSACTION
  2
AcDbLongTransaction
  3
ObjectDBX Classes
 90
   -65536
280
     1
281
     0
  0
CLASS
  1
LWPOLYLINE
  2
AcDbPolyline
  3
AutoCAD 2000
 90
        0
280
     0
281
     1
  0
CLASS
  1
HATCH
  2
AcDbHatch
  3
AutoCAD 2000
 90
        0
280
     0
281
     1
  0
CLASS
  1
XRECORD
  2
AcDbXrecord
  3
AutoCAD 2000
 90
        0
280
     0
281
     0
  0
CLASS
  1
LONG_TRANSACTION
  2
AcDbLongTransaction
  3
ObjectDBX Classes
 90
   -65536
280
     1
281
     0
  0
CLASS
  1
LWPOLYLINE
  2
AcDbPolyline
  3
AutoCAD 2000
 90
        0
280
     0
281
     1
  0
CLASS
  1
HATCH
  2
AcDbHatch
  3
AutoCAD 2000
 90
        0
280
     0
281
     1
  0
CLASS
  1
XRECORD
  2
AcDbXrecord
  3
AutoCAD 2000
 90
        0
280
     0
281
     0
  0
CLASS
  1
LONG_TRANSACTION
  2
AcDbLongTransaction
  3
ObjectDBX Classes
 90
   -65536
280
     1
281
     0
  0
CLASS
  1
LWPOLYLINE
  2
AcDbPolyline
  3
AutoCAD 2000
 90
        0
280
     0
281
     1
  0
CLASS
  1
HATCH
  2
AcDbHatch
  3
AutoCAD 2000
 90
        0
280
     0
281
     1
  0
CLASS
  1
XRECORD
  2
AcDbXrecord
  3
AutoCAD 2000
 90
        0
280
     0
281
     0
  0
CLASS
  1
TABLESTYLE
  2
AcDbTableStyle
  3
ObjectDBX Classes
 90
     2047
280
     1
281
     0
  0
ENDSEC
  0
SECTION
  2
TABLES
  0
TABLE
  2
VPORT
  5
1D
330
0
100
AcDbSymbolTable
 70
     3
  0
VPORT
  5
3C9
330
1D
100
AcDbSymbolTableRecord
100
AcDbViewportTableRecord
  2
*Active
 70
     0
 10
0.0
 20
0.0
 11
1.0
 21
1.0
 12
8.532815364591642
 22
8.552751855152728
 13
0.0
 23
0.0
 14
0.063
 24
0.063
 15
0.25
 25
0.25
 16
0.0
 26
0.0
 36
1.0
 17
0.0
 27
0.0
 37
0.0
 40
31.92261613528626
 41
1.814583333333333
 42
50.0
 43
0.0
 44
0.0
 50
0.0
 51
0.0
 71
     0
 72
   100
 73
     1
 74
     0
 75
     0
 76
     0
 77
     0
 78
     1
281
     0
 65
     1
110
0.0
120
0.0
130
0.0
111
1.0
121
0.0
131
0.0
112
0.0
122
1.0
132
0.0
 79
     0
146
0.0
  0
ENDTAB
  0
TABLE
  2
LTYPE
  5
18
330
0
100
AcDbSymbolTable
 70
     3
  0
LTYPE
  5
19
330
18
100
AcDbSymbolTableRecord
100
AcDbLinetypeTableRecord
  2
BYBLOCK
 70
     0
  3

 72
    65
 73
     0
 40
0.0
  0
LTYPE
  5
1A
330
18
100
AcDbSymbolTableRecord
100
AcDbLinetypeTableRecord
  2
BYLAYER
 70
     0
  3

 72
    65
 73
     0
 40
0.0
  0
LTYPE
  5
A
330
18
100
AcDbSymbolTableRecord
100
AcDbLinetypeTableRecord
  2
CONTINUOUS
 70
     0
  3
Solid line
 72
    65
 73
     0
 40
0.0
  0
LTYPE
  5
3B
330
18
100
AcDbSymbolTableRecord
100
AcDbLinetypeTableRecord
  2
HIDDEN2
 70
     0
  3
Hidden (.5x) _ _ _ _ _ _ _ _ _ _ _ _ _ _ _ _ _
 72
    65
 73
     2
 40
0.1875
 49
0.125
 74
     0
 49
-0.0625
 74
     0
  0
LTYPE
  5
361
330
18
100
AcDbSymbolTableRecord
100
AcDbLinetypeTableRecord
  2
HIDDEN
 70
     0
  3
Hidden __ __ __ __ __ __ __ __ __ __ __ __ __ _
 72
    65
 73
     2
 40
0.375
 49
0.25
 74
     0
 49
-0.125
 74
     0
  0
ENDTAB
  0
TABLE
  2
LAYER
  5
14
330
0
100
AcDbSymbolTable
 70
     1
  0
LAYER
  5
6
330
14
100
AcDbSymbolTableRecord
100
AcDbLayerTableRecord
  2
0
 70
     0
 62
     7
  6
CONTINUOUS
370
    -3
390
7
  0
ENDTAB
  0
TABLE
  2
STYLE
  5
15
330
0
100
AcDbSymbolTable
 70
     1
  0
STYLE
  5
16
330
15
100
AcDbSymbolTableRecord
100
AcDbTextStyleTableRecord
  2
STANDARD
 70
     0
 40
0.0
 41
1.0
 50
0.0
 71
     0
 42
0.27
  3
TXT
  4

  0
ENDTAB
  0
TABLE
  2
VIEW
  5
1B
330
0
100
AcDbSymbolTable
 70
     0
  0
ENDTAB
  0
TABLE
  2
UCS
  5
1C
330
0
100
AcDbSymbolTable
 70
     0
  0
ENDTAB
  0
TABLE
  2
APPID
  5
1F
330
0
100
AcDbSymbolTable
 70
     2
  0
APPID
  5
20
330
1F
100
AcDbSymbolTableRecord
100
AcDbRegAppTableRecord
  2
ACAD
 70
     0
  0
APPID
  5
38
330
1F
100
AcDbSymbolTableRecord
100
AcDbRegAppTableRecord
  2
_DIE112SSJYHX
 70
     0
  0
ENDTAB
  0
TABLE
  2
DIMSTYLE
  5
21
330
0
100
AcDbSymbolTable
 70
     1
100
AcDbDimStyleTable
  0
DIMSTYLE
105
28
330
21
100
AcDbSymbolTableRecord
100
AcDbDimStyleTableRecord
  2
STANDARD
 70
     0
  3

  4

340
16
  0
ENDTAB
  0
TABLE
  2
BLOCK_RECORD
  5
1
330
0
100
AcDbSymbolTable
 70
     0
  0
BLOCK_RECORD
  5
2
330
1
100
AcDbSymbolTableRecord
100
AcDbBlockTableRecord
  2
*MODEL_SPACE
340
C
  0
BLOCK_RECORD
  5
E
330
1
100
AcDbSymbolTableRecord
100
AcDbBlockTableRecord
  2
*PAPER_SPACE
340
13
  0
ENDTAB
  0
ENDSEC
  0
SECTION
  2
BLOCKS
  0
BLOCK
  5
5
330
2
100
AcDbEntity
  8
0
100
AcDbBlockBegin
  2
*MODEL_SPACE
 70
     0
 10
0.0
 20
0.0
 30
0.0
  3
*MODEL_SPACE
  1

  4

  0
ENDBLK
  5
B
330
2
100
AcDbEntity
  8
0
100
AcDbBlockEnd
  0
BLOCK
  5
11
330
E
100
AcDbEntity
 67
     1
  8
0
100
AcDbBlockBegin
  2
*PAPER_SPACE
 70
     0
 10
0.0
 20
0.0
 30
0.0
  3
*PAPER_SPACE
  1

  4

  0
ENDBLK
  5
12
330
E
100
AcDbEntity
 67
     1
  8
0
100
AcDbBlockEnd
  0
ENDSEC
  0
SECTION
  2
ENTITIES
  0
LINE
  5
2DD
330
2
100
AcDbEntity
  8
0
100
AcDbLine
 10
0.3435237410347014
 20
5.179757062137358
 30
0.0
 11
0.3435237410347085
 21
11.27519722692673
 31
0.0
  0
LINE
  5
2DE
330
2
100
AcDbEntity
  8
0
100
AcDbLine
 10
-0.5314762589652986
 20
11.91599999999997
 30
0.0
 11
-0.5314762589652986
 21
2.105037001685483
 31
0.0
  0
LINE
  5
2DF
330
2
100
AcDbEntity
  8
0
100
AcDbLine
 10
-0.4814762589653014
 20
11.91599999999998
 30
0.0
 11
-0.4814762589653014
 21
2.033629601348386
 31
0.0
  0
LINE
  5
2E0
330
2
100
AcDbEntity
  8
0
  6
HIDDEN2
100
AcDbLine
 10
1.312273741034701
 20
0.0729999999999738
 30
0.0
 11
1.31227374103473
 21
1.635499999999952
 31
0.0
  0
LINE
  5
2E1
330
2
100
AcDbEntity
  8
0
  6
HIDDEN2
100
AcDbLine
 10
1.124773741034709
 20
0.0729999999999738
 30
0.0
 11
1.12477374103473
 21
1.635499999999952
 31
0.0
  0
LINE
  5
2E2
330
2
100
AcDbEntity
  8
0
100
AcDbLine
 10
1.718523741034844
 20
0.2034999999999325
 30
0.0
 11
1.718523741034616
 21
1.586138852532367
 31
0.0
  0
LINE
  5
2E3
330
2
100
AcDbEntity
  8
0
  6
HIDDEN2
100
AcDbLine
 10
0.3122737410347298
 20
2.197999999999954
 30
0.0
 11
0.3122737410347014
 21
0.0729999999999738
 31
0.0
  0
LINE
  5
2E4
330
2
100
AcDbEntity
  8
0
  6
HIDDEN2
100
AcDbLine
 10
0.1247737410347298
 20
2.197999999999954
 30
0.0
 11
0.1247737410347014
 21
0.0729999999999738
 31
0.0
  0
LINE
  5
2E5
330
2
100
AcDbEntity
  8
0
100
AcDbLine
 10
-0.2814762589653839
 20
1.586138852532367
 30
0.0
 11
-0.2814762589653839
 21
0.2034999999999325
 31
0.0
  0
ARC
  5
2E7
330
2
100
AcDbEntity
  8
0
100
AcDbCircle
 10
0.9185237410347185
 20
0.8804999999999783
 30
0.0
 40
0.1875
100
AcDbArc
 50
216.869897645846
 51
323.1301023541623
  0
LINE
  5
2E8
330
2
100
AcDbEntity
  8
0
100
AcDbLine
 10
0.9185237410346616
 20
0.7452605845752434
 30
0.0
 11
1.068523741034696
 21
0.7679999999999101
 31
0.0
  0
LINE
  5
2E9
330
2
100
AcDbEntity
  8
0
100
AcDbLine
 10
0.9185237410347753
 20
0.9429999999999783
 30
0.0
 11
1.068523741034753
 21
0.7679999999999101
 31
0.0
  0
LINE
  5
2ED
330
2
100
AcDbEntity
  8
0
100
AcDbLine
 10
0.9185237410346616
 20
0.7452605845752434
 30
0.0
 11
0.7685237410346844
 21
0.7680000000000238
 31
0.0
  0
LINE
  5
2EE
330
2
100
AcDbEntity
  8
0
100
AcDbLine
 10
0.768523741034798
 20
0.7679999999999101
 30
0.0
 11
0.9185237410347753
 21
0.9429999999999783
 31
0.0
  0
LINE
  5
2EF
330
2
100
AcDbEntity
  8
0
100
AcDbLine
 10
0.9185237410346616
 20
0.7452605845752434
 30
0.0
 11
0.9185237410347753
 21
0.9429999999998646
 31
0.0
  0
ARC
  5
2F7
330
2
100
AcDbEntity
  8
0
100
AcDbCircle
 10
1.721023741034628
 20
3.487235042592939
 30
0.0
 40
1.002500000000012
100
AcDbArc
 50
180.0000000000002
 51
214.9999999999975
1001
_DIE112SSJYHX
1002
{
1000
comp_type
1000
DBL24
1000
material
1000
D-2
1000
thickness
1040
1.25
1000
mount
1000
SBP10
1000
mntlay
1000
DIE_SUB_PLATE
1002
}
  0
LINE
  5
2F8
330
2
100
AcDbEntity
  8
0
100
AcDbLine
 10
1.628551883068369
 20
1.871493129617038
 30
0.0
 11
0.8998238166348784
 21
2.912224665151047
 31
0.0
  0
POINT
  5
2F9
330
2
100
AcDbEntity
  8
0
  6
ByBlock
 62
     0
100
AcDbPoint
 10
1.718523741034701
 20
1.747999999999969
 30
0.0
  0
ARC
  5
2FA
330
2
100
AcDbEntity
  8
0
100
AcDbCircle
 10
1.221023741034614
 20
1.586138852532367
 30
0.0
 40
0.4975
100
AcDbArc
 50
0.000000000000007
 51
35.00000000000366
1001
_DIE112SSJYHX
1002
{
1000
comp_type
1000
DBL24
1000
material
1000
D-2
1000
thickness
1040
1.25
1000
mount
1000
SBP10
1000
mntlay
1000
DIE_SUB_PLATE
1002
}
  0
ARC
  5
2FB
330
2
100
AcDbEntity
  8
0
  6
HIDDEN2
100
AcDbCircle
 10
1.21852374103473
 20
1.635499999999952
 30
0.0
 40
0.09375
100
AcDbArc
 50
0.000000000000007
 51
180.0
  0
LINE
  5
2FC
330
2
100
AcDbEntity
  8
0
100
AcDbLine
 10
0.5656436639853126
 20
2.168260034176566
 30
0.0
 11
0.5737351016852443
 21
2.219311956276552
 31
0.0
  0
LINE
  5
2FD
330
2
100
AcDbEntity
  8
0
100
AcDbLine
 10
0.8635676294854164
 20
2.219985305676456
 30
0.0
 11
0.8716830738853076
 21
2.168877662876522
 31
0.0
  0
ARC
  5
2FE
330
2
100
AcDbEntity
  8
0
100
AcDbCircle
 10
0.5910237410347037
 20
1.377328618174586
 30
0.0
 40
0.06
100
AcDbArc
 50
180.0000000000001
 51
269.9999999999998
  0
LINE
  5
2FF
330
2
100
AcDbEntity
  8
0
100
AcDbLine
 10
0.5185237410346844
 20
1.020260584575221
 30
0.0
 11
0.6685237410347185
 21
1.042999999999887
 31
0.0
  0
LINE
  5
300
330
2
100
AcDbEntity
  8
0
100
AcDbLine
 10
0.518523741034798
 20
1.217999999999842
 30
0.0
 11
0.6685237410347753
 21
1.042999999999887
 31
0.0
  0
ARC
  5
301
330
2
100
AcDbEntity
  8
0
100
AcDbCircle
 10
0.5185237410347412
 20
1.155499999999956
 30
0.0
 40
0.1875
100
AcDbArc
 50
216.869897645846
 51
323.1301023541623
  0
LINE
  5
302
330
2
100
AcDbEntity
  8
0
100
AcDbLine
 10
0.5310237410347014
 20
1.377328618174586
 30
0.0
 11
0.5322759379852613
 21
1.74347841297651
 31
0.0
  0
LINE
  5
303
330
2
100
AcDbEntity
  8
0
100
AcDbLine
 10
0.9051391011852701
 20
1.743596414776556
 30
0.0
 11
0.9060237410347014
 21
1.377328618174586
 31
0.0
  0
ARC
  5
304
330
2
100
AcDbEntity
  8
0
100
AcDbCircle
 10
0.7185237410347014
 20
1.442328618174591
 30
0.0
 40
0.1874999999999982
100
AcDbArc
 50
0.000000000000007
 51
180.0
  0
ARC
  5
305
330
2
100
AcDbEntity
  8
0
100
AcDbCircle
 10
0.7185237410347014
 20
1.442328618174591
 30
0.0
 40
0.1874999999999982
100
AcDbArc
 50
0.000000000000007
 51
180.0
  0
LINE
  5
306
330
2
100
AcDbEntity
  8
0
100
AcDbLine
 10
0.5910237410347037
 20
1.317328618174583
 30
0.0
 11
0.8460237410346991
 21
1.317328618174583
 31
0.0
  0
ARC
  5
307
330
2
100
AcDbEntity
  8
0
100
AcDbCircle
 10
0.8460237410346991
 20
1.377328618174586
 30
0.0
 40
0.06
100
AcDbArc
 50
270.0000000000004
 51
359.9999999999999
  0
POINT
  5
308
330
2
100
AcDbEntity
  8
0
  6
ByBlock
 62
     0
100
AcDbPoint
 10
0.5910237410347037
 20
1.317328618174583
 30
0.0
  0
LINE
  5
309
330
2
100
AcDbEntity
  8
0
100
AcDbLine
 10
0.8716830738853076
 20
2.168877662876522
 30
0.0
 11
0.8792944146852477
 21
2.112940624576478
 31
0.0
  0
LINE
  5
30A
330
2
100
AcDbEntity
  8
0
100
AcDbLine
 10
0.8792944146852477
 20
2.112940624576478
 30
0.0
 11
0.8863063385853565
 21
2.051742866876449
 31
0.0
  0
LINE
  5
30B
330
2
100
AcDbEntity
  8
0
100
AcDbLine
 10
0.8863063385853565
 20
2.051742866876449
 30
0.0
 11
0.8925919755853755
 21
1.984799814376512
 31
0.0
  0
LINE
  5
30C
330
2
100
AcDbEntity
  8
0
100
AcDbLine
 10
0.8925919755853755
 20
1.984799814376512
 30
0.0
 11
0.8979853337854564
 21
1.911550791076589
 31
0.0
  0
LINE
  5
30D
330
2
100
AcDbEntity
  8
0
100
AcDbLine
 10
0.8979853337854564
 20
1.911550791076589
 30
0.0
 11
0.9022655847854111
 21
1.831380101876556
 31
0.0
  0
LINE
  5
30E
330
2
100
AcDbEntity
  8
0
100
AcDbLine
 10
0.9022655847854111
 20
1.831380101876556
 30
0.0
 11
0.9051391011852701
 21
1.743596414776556
 31
0.0
  0
LINE
  5
30F
330
2
100
AcDbEntity
  8
0
100
AcDbLine
 10
0.5322759379852613
 20
1.74347841297651
 30
0.0
 11
0.5351423656854166
 21
1.831155638876561
 31
0.0
  0
LINE
  5
310
330
2
100
AcDbEntity
  8
0
100
AcDbLine
 10
0.5351423656854166
 20
1.831155638876561
 30
0.0
 11
0.539411935485461
 21
1.911230283776487
 31
0.0
  0
LINE
  5
311
330
2
100
AcDbEntity
  8
0
100
AcDbLine
 10
0.539411935485461
 20
1.911230283776487
 30
0.0
 11
0.5447915904853034
 21
1.984392941076404
 31
0.0
  0
LINE
  5
312
330
2
100
AcDbEntity
  8
0
100
AcDbLine
 10
0.5447915904853034
 20
1.984392941076404
 30
0.0
 11
0.551060785985257
 21
2.05125784047652
 31
0.0
  0
LINE
  5
313
330
2
100
AcDbEntity
  8
0
100
AcDbLine
 10
0.551060785985257
 20
2.05125784047652
 30
0.0
 11
0.5580537535853836
 21
2.11238556737646
 31
0.0
  0
LINE
  5
314
330
2
100
AcDbEntity
  8
0
100
AcDbLine
 10
0.5580537535853836
 20
2.11238556737646
 30
0.0
 11
0.5656436639853126
 21
2.168260034176566
 31
0.0
  0
POINT
  5
315
330
2
100
AcDbEntity
  8
0
  6
ByBlock
 62
     0
100
AcDbPoint
 10
0.7185237410347014
 20
1.629828618174587
 30
0.0
  0
POINT
  5
316
330
2
100
AcDbEntity
  8
0
  6
ByBlock
 62
     0
100
AcDbPoint
 10
0.7185237410347014
 20
1.629828618174587
 30
0.0
  0
POINT
  5
317
330
2
100
AcDbEntity
  8
0
  6
ByBlock
 62
     0
100
AcDbPoint
 10
0.7185237410347014
 20
1.629828618174587
 30
0.0
  0
POINT
  5
318
330
2
100
AcDbEntity
  8
0
  6
ByBlock
 62
     0
100
AcDbPoint
 10
0.7185237410347014
 20
1.629828618174587
 30
0.0
  0
LINE
  5
319
330
2
100
AcDbEntity
  8
0
100
AcDbLine
 10
0.5185237410346844
 20
1.020260584575221
 30
0.0
 11
0.518523741034798
 21
1.217999999999842
 31
0.0
  0
LINE
  5
31A
330
2
100
AcDbEntity
  8
0
100
AcDbLine
 10
0.5185237410346844
 20
1.020260584575221
 30
0.0
 11
0.3685237410347071
 21
1.043000000000001
 31
0.0
  0
LINE
  5
31B
330
2
100
AcDbEntity
  8
0
100
AcDbLine
 10
0.3685237410348208
 20
1.042999999999887
 30
0.0
 11
0.518523741034798
 21
1.217999999999842
 31
0.0
  0
LINE
  5
31C
330
2
100
AcDbEntity
  8
0
100
AcDbLine
 10
0.7729400389852543
 20
2.510681044676513
 30
0.0
 11
0.7848362488852416
 21
2.491278693576415
 31
0.0
  0
LINE
  5
31D
330
2
100
AcDbEntity
  8
0
100
AcDbLine
 10
0.7848362488852416
 20
2.491278693576415
 30
0.0
 11
0.7961091897854402
 21
2.468802209376573
 31
0.0
  0
LINE
  5
31E
330
2
100
AcDbEntity
  8
0
100
AcDbLine
 10
0.7961091897854402
 20
2.468802209376573
 30
0.0
 11
0.8068690027852625
 21
2.443321751476443
 31
0.0
  0
LINE
  5
31F
330
2
100
AcDbEntity
  8
0
100
AcDbLine
 10
0.8068690027852625
 20
2.443321751476443
 30
0.0
 11
0.8172085460852685
 21
2.414761808576596
 31
0.0
  0
LINE
  5
320
330
2
100
AcDbEntity
  8
0
100
AcDbLine
 10
0.8172085460852685
 20
2.414761808576596
 30
0.0
 11
0.8271801924853861
 21
2.382995059576498
 31
0.0
  0
LINE
  5
321
330
2
100
AcDbEntity
  8
0
100
AcDbLine
 10
0.8271801924853861
 20
2.382995059576498
 30
0.0
 11
0.8368060804854594
 21
2.347862359176471
 31
0.0
  0
LINE
  5
322
330
2
100
AcDbEntity
  8
0
100
AcDbLine
 10
0.8368060804854594
 20
2.347862359176471
 30
0.0
 11
0.8460910761854592
 21
2.309155018076464
 31
0.0
  0
LINE
  5
323
330
2
100
AcDbEntity
  8
0
100
AcDbLine
 10
0.8460910761854592
 20
2.309155018076464
 30
0.0
 11
0.8550215704853343
 21
2.266626791876544
 31
0.0
  0
LINE
  5
324
330
2
100
AcDbEntity
  8
0
100
AcDbLine
 10
0.8550215704853343
 20
2.266626791876544
 30
0.0
 11
0.8635676294854164
 21
2.219985305676456
 31
0.0
  0
LINE
  5
325
330
2
100
AcDbEntity
  8
0
100
AcDbLine
 10
0.5737351016852443
 20
2.219311956276552
 30
0.0
 11
0.5822546356852598
 21
2.26590559817657
 31
0.0
  0
LINE
  5
326
330
2
100
AcDbEntity
  8
0
100
AcDbLine
 10
0.5822546356852598
 20
2.26590559817657
 30
0.0
 11
0.591155514685326
 21
2.308392250376411
 31
0.0
  0
LINE
  5
327
330
2
100
AcDbEntity
  8
0
100
AcDbLine
 10
0.591155514685326
 20
2.308392250376411
 30
0.0
 11
0.6004077043852902
 21
2.347066008976409
 31
0.0
  0
LINE
  5
328
330
2
100
AcDbEntity
  8
0
100
AcDbLine
 10
0.6004077043852902
 20
2.347066008976409
 30
0.0
 11
0.6099971302852936
 21
2.382173799276526
 31
0.0
  0
LINE
  5
329
330
2
100
AcDbEntity
  8
0
100
AcDbLine
 10
0.6099971302852936
 20
2.382173799276526
 30
0.0
 11
0.6199278936853006
 21
2.413925059676441
 31
0.0
  0
LINE
  5
32A
330
2
100
AcDbEntity
  8
0
100
AcDbLine
 10
0.6199278936853006
 20
2.413925059676441
 30
0.0
 11
0.6302216881853582
 21
2.442481908776582
 31
0.0
  0
LINE
  5
32B
330
2
100
AcDbEntity
  8
0
100
AcDbLine
 10
0.6302216881853582
 20
2.442481908776582
 30
0.0
 11
0.6409280398853952
 21
2.467970441876442
 31
0.0
  0
LINE
  5
32C
330
2
100
AcDbEntity
  8
0
100
AcDbLine
 10
0.6409280398853952
 20
2.467970441876442
 30
0.0
 11
0.6521394154853368
 21
2.490474375976529
 31
0.0
  0
LINE
  5
32D
330
2
100
AcDbEntity
  8
0
100
AcDbLine
 10
0.6521394154853368
 20
2.490474375976529
 30
0.0
 11
0.6639650598853422
 21
2.509932307376513
 31
0.0
  0
LINE
  5
32E
330
2
100
AcDbEntity
  8
0
100
AcDbLine
 10
0.6639650598853422
 20
2.509932307376513
 30
0.0
 11
0.6765429089852404
 21
2.526126267376522
 31
0.0
  0
LINE
  5
32F
330
2
100
AcDbEntity
  8
0
100
AcDbLine
 10
0.6765429089852404
 20
2.526126267376522
 30
0.0
 11
0.690017977885347
 21
2.538605805476546
 31
0.0
  0
LINE
  5
330
330
2
100
AcDbEntity
  8
0
100
AcDbLine
 10
0.690017977885347
 20
2.538605805476546
 30
0.0
 11
0.704169699685437
 21
2.546510903376539
 31
0.0
  0
LINE
  5
331
330
2
100
AcDbEntity
  8
0
100
AcDbLine
 10
0.7182926290853828
 20
2.549224003176615
 30
0.0
 11
0.7324901603853249
 21
2.546786956776597
 31
0.0
  0
LINE
  5
332
330
2
100
AcDbEntity
  8
0
100
AcDbLine
 10
0.7324901603853249
 20
2.546786956776597
 30
0.0
 11
0.7467322864853685
 21
2.539096936376492
 31
0.0
  0
LINE
  5
333
330
2
100
AcDbEntity
  8
0
100
AcDbLine
 10
0.7467322864853685
 20
2.539096936376492
 30
0.0
 11
0.7602783723854572
 21
2.526783372976407
 31
0.0
  0
LINE
  5
334
330
2
100
AcDbEntity
  8
0
100
AcDbLine
 10
0.7602783723854572
 20
2.526783372976407
 30
0.0
 11
0.7729400389852543
 21
2.510681044676513
 31
0.0
  0
LINE
  5
335
330
2
100
AcDbEntity
  8
0
100
AcDbLine
 10
0.704169699685437
 20
2.546510903376539
 30
0.0
 11
0.7182926290853828
 21
2.549224003176615
 31
0.0
  0
ARC
  5
336
330
2
100
AcDbEntity
  8
0
  6
HIDDEN2
100
AcDbCircle
 10
0.2185237410347298
 20
2.197999999999954
 30
0.0
 40
0.09375
100
AcDbArc
 50
0.000000000000007
 51
180.0
  0
ARC
  5
337
330
2
100
AcDbEntity
  8
0
100
AcDbCircle
 10
0.3205700561911726
 20
4.618215883755905
 30
0.0
 40
0.03125
100
AcDbArc
 50
60.0000000000007
 51
180.0000000000026
  0
ARC
  5
338
330
2
100
AcDbEntity
  8
0
100
AcDbCircle
 10
0.2202915079873975
 20
4.417660985765945
 30
0.0
 40
0.4975000000000007
100
AcDbArc
 50
0.000000000000007
 51
44.99999999998108
1001
_DIE112SSJYHX
1002
{
1000
comp_type
1000
DBL24
1000
material
1000
D-2
1000
thickness
1040
1.25
1000
mount
1000
SBP10
1000
mntlay
1000
DIE_SUB_PLATE
1002
}
  0
LINE
  5
339
330
2
100
AcDbEntity
  8
0
100
AcDbLine
 10
0.7185237410346161
 20
3.487235042592939
 30
0.0
 11
0.7177915079873998
 21
4.417660985765945
 31
0.0
  0
ARC
  5
33A
330
2
100
AcDbEntity
  8
0
100
AcDbCircle
 10
0.3205700561911726
 20
4.430288371134697
 30
0.0
 40
0.03125
100
AcDbArc
 50
179.9999999999976
 51
299.9999999999993
  0
LINE
  5
33B
330
2
100
AcDbEntity
  8
0
100
AcDbLine
 10
0.2893237410347069
 20
4.430768255661487
 30
0.0
 11
0.2893237410346927
 21
4.618695768264548
 31
0.0
  0
ARC
  5
33C
330
2
100
AcDbEntity
  8
0
100
AcDbCircle
 10
0.4833200561911895
 20
4.524252127200764
 30
0.0
 40
0.03125
100
AcDbArc
 50
299.9999999999999
 51
60.00000000000286
  0
LINE
  5
33D
330
2
100
AcDbEntity
  8
0
100
AcDbLine
 10
0.3361950561584237
 20
4.403225077265663
 30
0.0
 11
0.4989450561911895
 21
4.497188833332501
 31
0.0
  0
LINE
  5
33E
330
2
100
AcDbEntity
  8
0
100
AcDbLine
 10
0.3361950561911726
 20
4.645279177624172
 30
0.0
 11
0.4989450561911895
 21
4.551315421069031
 31
0.0
  0
LINE
  5
33F
330
2
100
AcDbEntity
  8
0
100
AcDbLine
 10
0.5720771316280349
 20
4.769446609406639
 30
0.0
 11
0.4899703504413679
 21
4.851553390593306
 31
0.0
  0
ARC
  5
340
330
2
100
AcDbEntity
  8
0
100
AcDbCircle
 10
0.8452915079876249
 20
5.206874548139506
 30
0.0
 40
0.5025
100
AcDbArc
 50
180.0
 51
225.0000000000001
  0
LINE
  5
341
330
2
100
AcDbEntity
  8
0
100
AcDbLine
 10
-0.3714481169313473
 20
1.871493129617244
 30
0.0
 11
-0.5314762589651565
 21
2.100037001685447
 31
0.0
  0
ARC
  5
342
330
2
100
AcDbEntity
  8
0
100
AcDbCircle
 10
-0.7789762589653861
 20
1.586138852532367
 30
0.0
 40
0.4975
100
AcDbArc
 50
0.000000000000007
 51
35.00000000000366
1001
_DIE112SSJYHX
1002
{
1000
comp_type
1000
DBL24
1000
material
1000
D-2
1000
thickness
1040
1.25
1000
mount
1000
SBP10
1000
mntlay
1000
DIE_SUB_PLATE
1002
}
  0
LINE
  5
343
330
2
100
AcDbEntity
  8
0
100
AcDbLine
 10
-0.4814762589653014
 20
5.246506350946083
 30
0.0
 11
-0.5314762589652986
 21
5.246506350946083
 31
0.0
  0
LINE
  5
344
330
2
100
AcDbEntity
  8
0
100
AcDbLine
 10
-0.4814762589653014
 20
5.029999999999975
 30
0.0
 11
-0.5314762589652986
 21
5.029999999999975
 31
0.0
  0
LINE
  5
345
330
2
100
AcDbEntity
  8
0
  6
Continuous
100
AcDbLine
 10
-0.4814762589652979
 20
10.26899235226182
 30
0.0
 11
-0.2161568870877915
 21
10.00367298038432
 31
0.0
  0
LINE
  5
346
330
2
100
AcDbEntity
  8
0
  6
Continuous
100
AcDbLine
 10
-0.4720031708998675
 20
10.32457308806556
 30
0.0
 11
-0.1836299751532096
 21
10.0361998923189
 31
0.0
  0
LINE
  5
347
330
2
100
AcDbEntity
  8
0
  6
Continuous
100
AcDbLine
 10
-0.2385712738919921
 20
9.92002135001054
 30
0.0
 11
-0.4800527304642657
 21
9.855316588734905
 31
0.0
  0
LINE
  5
348
330
2
100
AcDbEntity
  8
0
  6
Continuous
100
AcDbLine
 10
-0.2266655978172736
 20
9.875588762001247
 30
0.0
 11
-0.4681470543895472
 21
9.810884000725604
 31
0.0
  0
ARC
  5
349
330
2
100
AcDbEntity
  8
0
  6
Continuous
100
AcDbCircle
 10
-0.2515122261471277
 20
9.96831764132499
 30
0.0
 40
0.05
100
AcDbArc
 50
284.9999999999996
 51
44.99999999999807
  0
ARC
  5
34A
330
2
100
AcDbEntity
  8
0
  6
Continuous
100
AcDbCircle
 10
-0.2515122261471277
 20
9.96831764132499
 30
0.0
 40
0.096
100
AcDbArc
 50
285.0000000000007
 51
44.99999999999807
  0
LINE
  5
34B
330
2
100
AcDbEntity
  8
0
  6
Continuous
100
AcDbLine
 10
-0.4800527304642657
 20
9.855316588734933
 30
0.0
 11
-0.4681470543895614
 21
9.81088400072564
 31
0.0
  0
ARC
  5
34C
330
2
100
AcDbEntity
  8
0
  6
Continuous
100
AcDbCircle
 10
-0.4394762589652856
 20
10.35710000000014
 30
0.0
 40
0.046
100
AcDbArc
 50
204.0706146225166
 51
224.9999999999999
  0
ARC
  5
34D
330
2
100
AcDbEntity
  8
0
  6
Continuous
100
AcDbCircle
 10
-0.4167406984690594
 20
10.36350162342253
 30
0.0
 40
0.1148432675996877
100
AcDbArc
 50
188.4365649615204
 51
224.8347775975267
  0
LINE
  5
34E
330
2
100
AcDbEntity
  8
0
100
AcDbLine
 10
0.3435237410347085
 20
11.09099999999997
 30
0.0
 11
-0.3501217591721755
 21
11.09099999999998
 31
0.0
  0
LINE
  5
34F
330
2
100
AcDbEntity
  8
0
100
AcDbLine
 10
0.0935237410347014
 20
11.52519722692674
 30
0.0
 11
-0.416371759172165
 21
11.52519722692674
 31
0.0
  0
LINE
  5
350
330
2
100
AcDbEntity
  8
0
100
AcDbLine
 10
0.1435237410346986
 20
11.47519722692674
 30
0.0
 11
-0.416371759172165
 21
11.47519722692674
 31
0.0
  0
LINE
  5
351
330
2
100
AcDbEntity
  8
0
100
AcDbLine
 10
0.3435237410347085
 20
11.27519722692673
 30
0.0
 11
0.0935237410347014
 21
11.52519722692674
 31
0.0
  0
LINE
  5
352
330
2
100
AcDbEntity
  8
0
100
AcDbLine
 10
-0.5814762589652958
 20
11.96599999999998
 30
0.0
 11
-1.156476258965299
 21
11.96599999999998
 31
0.0
  0
LINE
  5
353
330
2
100
AcDbEntity
  8
0
100
AcDbLine
 10
-0.5814762589653029
 20
12.01599999999997
 30
0.0
 11
-1.156476258965299
 21
12.01599999999997
 31
0.0
  0
ARC
  5
354
330
2
100
AcDbEntity
  8
0
100
AcDbCircle
 10
-0.5814762589653029
 20
11.91599999999998
 30
0.0
 40
0.1
100
AcDbArc
 50
0.000000000000007
 51
90.0
  0
LINE
  5
355
330
2
100
AcDbEntity
  8
0
100
AcDbLine
 10
-0.416371759172165
 20
11.52519722692674
 30
0.0
 11
-0.416371759172165
 21
11.21872651447523
 31
0.0
  0
ARC
  5
356
330
2
100
AcDbEntity
  8
0
100
AcDbCircle
 10
-0.5063717591721755
 20
11.09099999999998
 30
0.0
 40
0.15625
100
AcDbArc
 50
279.168078897781
 51
54.8303070761397
  0
ARC
  5
357
330
2
100
AcDbEntity
  8
0
100
AcDbCircle
 10
-0.5814762589652958
 20
11.91599999999997
 30
0.0
 40
0.05
100
AcDbArc
 50
0.000000000000007
 51
90.0
  0
LINE
  5
358
330
2
100
AcDbEntity
  8
0
100
AcDbLine
 10
-1.156476258965299
 20
12.01599999999997
 30
0.0
 11
-1.156476258965299
 21
11.96599999999998
 31
0.0
  0
LINE
  5
377
330
2
100
AcDbEntity
  8
0
100
AcDbLine
 10
1.718523741034709
 20
0.0729999999999738
 30
0.0
 11
1.310644691444388
 21
0.0729999999999738
 31
0.0
  0
LINE
  5
378
330
2
100
AcDbEntity
  8
0
100
AcDbLine
 10
1.124773741034709
 20
0.0729999999999738
 30
0.0
 11
0.3114592162395695
 21
0.0729999999999738
 31
0.0
  0
LINE
  5
379
330
2
100
AcDbEntity
  8
0
100
AcDbLine
 10
0.1255882658298901
 20
0.0729999999999738
 30
0.0
 11
-0.2814762589652915
 21
0.0729999999999738
 31
0.0
  0
LINE
  5
37A
330
2
100
AcDbEntity
  8
0
100
AcDbLine
 10
1.718523741034709
 20
0.122999999999978
 30
0.0
 11
1.718523741034709
 21
0.0729999999999738
 31
0.0
  0
LINE
  5
37B
330
2
100
AcDbEntity
  8
0
  6
Continuous
100
AcDbLine
 10
1.718523741034709
 20
0.122999999999978
 30
0.0
 11
1.633170065074168
 21
0.1229999999999798
 31
0.0
  0
ARC
  5
37C
330
2
100
AcDbEntity
  8
0
100
AcDbCircle
 10
1.718523741034844
 20
0.1179999999999328
 30
0.0
 40
0.0855
100
AcDbArc
 50
90.0
 51
211.7568638592875
  0
LINE
  5
37D
330
2
100
AcDbEntity
  8
0
  6
Continuous
100
AcDbLine
 10
-0.1961225830047084
 20
0.1229999999999709
 30
0.0
 11
-0.2814762589652986
 21
0.1229999999999727
 31
0.0
  0
ARC
  5
37E
330
2
100
AcDbEntity
  8
0
100
AcDbCircle
 10
-0.2814762589653839
 20
0.1179999999999328
 30
0.0
 40
0.0855
100
AcDbArc
 50
328.2431361407129
 51
90.0
  0
POINT
  5
37F
330
2
100
AcDbEntity
  8
0
  6
ByBlock
100
AcDbPoint
 10
-0.2814762589652986
 20
0.1229999999999727
 30
0.0
 50
180.0
  0
POINT
  5
380
330
2
100
AcDbEntity
  8
0
  6
ByBlock
100
AcDbPoint
 10
-0.2814762589652986
 20
0.1229999999999727
 30
0.0
 50
180.0
  0
POINT
  5
381
330
2
100
AcDbEntity
  8
0
  6
ByBlock
100
AcDbPoint
 10
-0.2814762589652986
 20
0.1229999999999727
 30
0.0
 50
180.0
  0
POINT
  5
382
330
2
100
AcDbEntity
  8
0
  6
ByBlock
100
AcDbPoint
 10
-0.2814762589652986
 20
0.1229999999999727
 30
0.0
 50
180.0
  0
LINE
  5
383
330
2
100
AcDbEntity
  8
0
100
AcDbLine
 10
-0.2814762589652986
 20
0.1229999999999727
 30
0.0
 11
-0.2814762589652915
 21
0.0729999999999738
 31
0.0
  0
LINE
  5
384
330
2
100
AcDbEntity
  8
0
  6
HIDDEN
100
AcDbLine
 10
-0.1961225830047084
 20
0.1229999999999709
 30
0.0
 11
1.633170065074168
 21
0.1229999999999798
 31
0.0
  0
ARC
  5
385
330
2
100
AcDbEntity
  8
0
100
AcDbCircle
 10
0.2185237410347298
 20
0.0853312589969537
 30
0.0
 40
0.09375
100
AcDbArc
 50
180.0
 51
0.0
  0
ARC
  5
386
330
2
100
AcDbEntity
  8
0
100
AcDbCircle
 10
1.217709216239548
 20
0.0853312589969537
 30
0.0
 40
0.09375
100
AcDbArc
 50
180.0
 51
0.0
  0
ENDSEC
  0
SECTION
  2
OBJECTS
  0
DICTIONARY
  5
9
330
0
100
AcDbDictionary
281
     1
  3
ACAD_COLOR
350
35C
  3
ACAD_GROUP
350
23
  3
ACAD_LAYOUT
350
D
  3
ACAD_MATERIAL
350
35B
  3
ACAD_MLINESTYLE
350
24
  3
ACAD_PLOTSETTINGS
350
25
  3
ACAD_PLOTSTYLENAME
350
8
  3
ACAD_TABLESTYLE
350
35D
  3
ACDBHEADERROUNDTRIPXREC
350
3D0
  3
AcDbVariableDictionary
350
171
  0
DICTIONARY
  5
35C
102
{ACAD_REACTORS
330
9
102
}
330
9
100
AcDbDictionary
281
     1
  0
DICTIONARY
  5
23
102
{ACAD_REACTORS
330
9
102
}
330
9
100
AcDbDictionary
281
     1
  0
DICTIONARY
  5
D
102
{ACAD_REACTORS
330
9
102
}
330
9
100
AcDbDictionary
281
     1
  3
Layout1
350
13
  3
Model
350
C
  0
DICTIONARY
  5
35B
102
{ACAD_REACTORS
330
9
102
}
330
9
100
AcDbDictionary
281
     1
  0
DICTIONARY
  5
24
102
{ACAD_REACTORS
330
9
102
}
330
9
100
AcDbDictionary
281
     1
  3
STANDARD
350
27
  0
DICTIONARY
  5
25
102
{ACAD_REACTORS
330
9
102
}
330
9
100
AcDbDictionary
281
     1
  0
ACDBDICTIONARYWDFLT
  5
8
102
{ACAD_REACTORS
330
9
102
}
330
9
100
AcDbDictionary
281
     1
  3
Normal
350
7
100
AcDbDictionaryWithDefault
340
7
  0
DICTIONARY
  5
35D
102
{ACAD_REACTORS
330
9
102
}
330
9
100
AcDbDictionary
281
     1
  3
Standard
350
35E
  0
DICTIONARY
  5
3D0
102
{ACAD_REACTORS
330
9
102
}
330
9
100
AcDbDictionary
281
     1
  3
COLORDICT
350
3D1
  3
MATERIALDICT
350
3D2
  0
DICTIONARY
  5
171
102
{ACAD_REACTORS
330
9
102
}
330
9
100
AcDbDictionary
281
     1
  3
CTABLESTYLE
350
3BE
  3
HIDETEXT
350
3CF
  0
LAYOUT
  5
13
102
{ACAD_REACTORS
330
D
102
}
102
{ACAD_XDICTIONARY
360
3D3
102
}
330
D
100
AcDbPlotSettings
  1

  2
HP LaserJet 2100 Series PS
  4

  6

 40
0.0
 41
0.0
 42
0.0
 43
0.0
 44
0.0
 45
0.0
 46
0.0
 47
0.0
 48
0.0
 49
0.0
140
0.0
141
0.0
142
1.0
143
1.0
 70
   688
 72
     0
 73
     0
 74
     5
  7

 75
    16
147
1.0
148
0.0
149
0.0
100
AcDbLayout
  1
Layout1
 70
     0
 71
     1
 10
0.0
 20
0.0
 11
12.0
 21
9.0
 12
0.0
 22
0.0
 32
0.0
 14
1.000000000000000E+20
 24
1.000000000000000E+20
 34
1.000000000000000E+20
 15
-1.000000000000000E+20
 25
-1.000000000000000E+20
 35
-1.000000000000000E+20
146
0.0
 13
0.0
 23
0.0
 33
0.0
 16
1.0
 26
0.0
 36
0.0
 17
0.0
 27
1.0
 37
0.0
 76
     0
330
E
  0
LAYOUT
  5
C
102
{ACAD_REACTORS
330
D
102
}
102
{ACAD_XDICTIONARY
360
3D5
102
}
330
D
100
AcDbPlotSettings
  1

  2
HP LaserJet 2100 Series PS
  4
Letter
  6

 40
5.365749835968018
 41
5.386905193328857
 42
5.386917114257813
 43
5.365753173828125
 44
215.8999938964844
 45
279.3999938964844
 46
0.0
 47
0.0
 48
0.0
 49
0.0
140
0.0
141
0.0
142
1.0
143
1.0
 70
 11952
 72
     0
 73
     1
 74
     0
  7

 75
     0
147
1.0
148
-109.2120479562036
149
4.761312409500627
100
AcDbLayout
  1
Model
 70
     1
 71
     0
 10
0.0
 20
0.0
 11
12.0
 21
9.0
 12
0.0
 22
0.0
 32
0.0
 14
0.0
 24
0.0
 34
0.0
 15
0.0
 25
0.0
 35
0.0
146
0.0
 13
0.0
 23
0.0
 33
0.0
 16
1.0
 26
0.0
 36
0.0
 17
0.0
 27
1.0
 37
0.0
 76
     0
330
2
  0
MLINESTYLE
  5
27
102
{ACAD_REACTORS
330
24
102
}
330
24
100
AcDbMlineStyle
  2
STANDARD
 70
     0
  3

 62
   256
 51
90.0
 52
90.0
 71
     2
 49
0.5
 62
   256
  6
BYLAYER
 49
-0.5
 62
   256
  6
BYLAYER
  0
ACDBPLACEHOLDER
  5
7
102
{ACAD_REACTORS
330
8
102
}
330
8
  0
ACAD_PROXY_OBJECT
  5
35E
102
{ACAD_REACTORS
330
35D
102
}
330
35D
100
AcDbProxyObject
 90
      499
 91
      561
 95
   983063
 70
     0
 93
     1841
310
4214DD185B99185C9928B81E85EB51B8AE3F2E07A17AD46E2B8FC02B5E8DC0F42B1CFD028000000C1008070000C3001FDFF8000000C1003FBFF000000182007F7FE00000030400FEFFC00000060801FDFF8000000C1003FBFF00000018200000000000000681FA0B0000001820100E000186003FBFF000000182007F7FE000
310
00030400FEFFC00000060801FDFF8000000C1003FBFF000000182007F7FE000000304000AD7A3703D0AC73F4160000003040201C00030C007F7FE00000030400FEFFC00000060801FDFF8000000C1003FBFF000000182007F7FE00000030400FEFFC000000608000
340
16
340
16
340
16
 94
        0
  0
XRECORD
  5
3D1
102
{ACAD_REACTORS
330
3D0
102
}
330
3D0
100
AcDbXrecord
340
35C
  0
XRECORD
  5
3D2
102
{ACAD_REACTORS
330
3D0
102
}
330
3D0
100
AcDbXrecord
340
35B
  0
DICTIONARYVAR
  5
3BE
102
{ACAD_REACTORS
330
171
102
}
330
171
100
DictionaryVariables
280
     0
  1
STANDARD
  0
DICTIONARYVAR
  5
3CF
102
{ACAD_REACTORS
330
171
102
}
330
171
100
DictionaryVariables
280
     0
  1
1
  0
DICTIONARY
  5
3D3
330
13
100
AcDbDictionary
280
     1
281
     1
  3
ACAD_XREC_ROUNDTRIP
360
3D4
  0
DICTIONARY
  5
3D5
330
C
100
AcDbDictionary
280
     1
281
     1
  3
ACAD_XREC_ROUNDTRIP
360
3D6
  0
XRECORD
  5
3D4
102
{ACAD_REACTORS
330
3D3
102
}
330
3D3
100
AcDbXrecord
102
SHADEPLOT
 70
     0
102
SHADEPLOTRESLEVEL
 70
     2
102
SHADEPLOTCUSTOMDPI
 70
   300
  0
XRECORD
  5
3D6
102
{ACAD_REACTORS
330
3D5
102
}
330
3D5
100
AcDbXrecord
102
SHADEPLOT
 70
     0
102
SHADEPLOTRESLEVEL
 70
     2
102
SHADEPLOTCUSTOMDPI
 70
   300
  0
ENDSEC
  0
EOF
