  0
SECTION
  2
HEADER
  9
$ACADVER
  1
AC1015
  9
$ACADMAINTVER
 70
     6
  9
$DWGCODEPAGE
  3
ANSI_1252
  9
$INSBASE
 10
0.0
 20
0.0
 30
0.0
  9
$EXTMIN
 10
-9.773828178766923
 20
-0.0314187410030197
 30
0.0
  9
$EXTMAX
 10
9.773828178766923
 20
21.73393075500108
 30
0.0
  9
$LIMMIN
 10
0.0
 20
0.0
  9
$LIMMAX
 10
24.0
 20
31.5
  9
$ORTHOMODE
 70
     1
  9
$REGENMODE
 70
     1
  9
$FILLMODE
 70
     1
  9
$QTEXTMODE
 70
     0
  9
$MIRRTEXT
 70
     0
  9
$LTSCALE
 40
0.6
  9
$ATTMODE
 70
     1
  9
$TEXTSIZE
 40
0.27
  9
$TRACEWID
 40
0.05
  9
$TEXTSTYLE
  7
STANDARD
  9
$CLAYER
  8
0
  9
$CELTYPE
  6
HIDDEN
  9
$CECOLOR
 62
   256
  9
$CELTSCALE
 40
1.0
  9
$DISPSILH
 70
     0
  9
$DIMSCALE
 40
3.0
  9
$DIMASZ
 40
0.125
  9
$DIMEXO
 40
0.062
  9
$DIMDLI
 40
0.375
  9
$DIMRND
 40
0.0
  9
$DIMDLE
 40
0.0
  9
$DIMEXE
 40
0.08
  9
$DIMTP
 40
0.0
  9
$DIMTM
 40
0.0
  9
$DIMTXT
 40
0.09
  9
$DIMCEN
 40
-0.03125
  9
$DIMTSZ
 40
0.0
  9
$DIMTOL
 70
     0
  9
$DIMLIM
 70
     0
  9
$DIMTIH
 70
     1
  9
$DIMTOH
 70
     1
  9
$DIMSE1
 70
     0
  9
$DIMSE2
 70
     0
  9
$DIMTAD
 70
     0
  9
$DIMZIN
 70
     0
  9
$DIMBLK
  1

  9
$DIMASO
 70
     1
  9
$DIMSHO
 70
     0
  9
$DIMPOST
  1

  9
$DIMAPOST
  1

  9
$DIMALT
 70
     0
  9
$DIMALTD
 70
     2
  9
$DIMALTF
 40
25.4
  9
$DIMLFAC
 40
1.0
  9
$DIMTOFL
 70
     0
  9
$DIMTVP
 40
0.0
  9
$DIMTIX
 70
     0
  9
$DIMSOXD
 70
     0
  9
$DIMSAH
 70
     0
  9
$DIMBLK1
  1

  9
$DIMBLK2
  1

  9
$DIMSTYLE
  2
STANDARD
  9
$DIMCLRD
 70
     0
  9
$DIMCLRE
 70
     0
  9
$DIMCLRT
 70
     0
  9
$DIMTFAC
 40
1.0
  9
$DIMGAP
 40
0.09
  9
$DIMJUST
 70
     0
  9
$DIMSD1
 70
     0
  9
$DIMSD2
 70
     0
  9
$DIMTOLJ
 70
     1
  9
$DIMTZIN
 70
     0
  9
$DIMALTZ
 70
     0
  9
$DIMALTTZ
 70
     0
  9
$DIMUPT
 70
     0
  9
$DIMDEC
 70
     5
  9
$DIMTDEC
 70
     4
  9
$DIMALTU
 70
     2
  9
$DIMALTTD
 70
     2
  9
$DIMTXSTY
  7
STANDARD
  9
$DIMAUNIT
 70
     0
  9
$DIMADEC
 70
     0
  9
$DIMALTRND
 40
0.0
  9
$DIMAZIN
 70
     0
  9
$DIMDSEP
 70
    46
  9
$DIMATFIT
 70
     3
  9
$DIMFRAC
 70
     2
  9
$DIMLDRBLK
  1

  9
$DIMLUNIT
 70
     5
  9
$DIMLWD
 70
    -2
  9
$DIMLWE
 70
    -2
  9
$DIMTMOVE
 70
     2
  9
$LUNITS
 70
     2
  9
$LUPREC
 70
     4
  9
$SKETCHINC
 40
0.1
  9
$FILLETRAD
 40
0.0
  9
$AUNITS
 70
     0
  9
$AUPREC
 70
     0
  9
$MENU
  1
ACAD
  9
$ELEVATION
 40
0.0
  9
$PELEVATION
 40
0.0
  9
$THICKNESS
 40
0.0
  9
$LIMCHECK
 70
     0
  9
$CHAMFERA
 40
0.0
  9
$CHAMFERB
 40
0.0
  9
$CHAMFERC
 40
0.0
  9
$CHAMFERD
 40
0.0
  9
$SKPOLY
 70
     0
  9
$TDCREATE
 40
2449436.829454167
  9
$TDUCREATE
 40
2449437.1627875
  9
$TDUPDATE
 40
2454166.86340279
  9
$TDUUPDATE
 40
2454167.196736123
  9
$TDINDWG
 40
0.5557522106
  9
$TDUSRTIMER
 40
0.5557522106
  9
$USRTIMER
 70
     1
  9
$ANGBASE
 50
0.0
  9
$ANGDIR
 70
     0
  9
$PDMODE
 70
     0
  9
$PDSIZE
 40
0.0
  9
$PLINEWID
 40
0.0
  9
$SPLFRAME
 70
     0
  9
$SPLINETYPE
 70
     6
  9
$SPLINESEGS
 70
     8
  9
$HANDSEED
  5
3C8
  9
$SURFTAB1
 70
     6
  9
$SURFTAB2
 70
     6
  9
$SURFTYPE
 70
     6
  9
$SURFU
 70
     6
  9
$SURFV
 70
     6
  9
$UCSBASE
  2

  9
$UCSNAME
  2

  9
$UCSORG
 10
0.0
 20
0.0
 30
0.0
  9
$UCSXDIR
 10
1.0
 20
0.0
 30
0.0
  9
$UCSYDIR
 10
0.0
 20
1.0
 30
0.0
  9
$UCSORTHOREF
  2

  9
$UCSORTHOVIEW
 70
     0
  9
$UCSORGTOP
 10
0.0
 20
0.0
 30
0.0
  9
$UCSORGBOTTOM
 10
0.0
 20
0.0
 30
0.0
  9
$UCSORGLEFT
 10
0.0
 20
0.0
 30
0.0
  9
$UCSORGRIGHT
 10
0.0
 20
0.0
 30
0.0
  9
$UCSORGFRONT
 10
0.0
 20
0.0
 30
0.0
  9
$UCSORGBACK
 10
0.0
 20
0.0
 30
0.0
  9
$PUCSBASE
  2

  9
$PUCSNAME
  2

  9
$PUCSORG
 10
0.0
 20
0.0
 30
0.0
  9
$PUCSXDIR
 10
1.0
 20
0.0
 30
0.0
  9
$PUCSYDIR
 10
0.0
 20
1.0
 30
0.0
  9
$PUCSORTHOREF
  2

  9
$PUCSORTHOVIEW
 70
     0
  9
$PUCSORGTOP
 10
0.0
 20
0.0
 30
0.0
  9
$PUCSORGBOTTOM
 10
0.0
 20
0.0
 30
0.0
  9
$PUCSORGLEFT
 10
0.0
 20
0.0
 30
0.0
  9
$PUCSORGRIGHT
 10
0.0
 20
0.0
 30
0.0
  9
$PUCSORGFRONT
 10
0.0
 20
0.0
 30
0.0
  9
$PUCSORGBACK
 10
0.0
 20
0.0
 30
0.0
  9
$USERI1
 70
     0
  9
$USERI2
 70
     0
  9
$USERI3
 70
     0
  9
$USERI4
 70
     0
  9
$USERI5
 70
     0
  9
$USERR1
 40
0.0
  9
$USERR2
 40
0.0
  9
$USERR3
 40
0.0
  9
$USERR4
 40
0.0
  9
$USERR5
 40
0.0
  9
$WORLDVIEW
 70
     1
  9
$SHADEDGE
 70
     3
  9
$SHADEDIF
 70
    70
  9
$TILEMODE
 70
     1
  9
$MAXACTVP
 70
    16
  9
$PINSBASE
 10
0.0
 20
0.0
 30
0.0
  9
$PLIMCHECK
 70
     0
  9
$PEXTMIN
 10
1.000000000000000E+20
 20
1.000000000000000E+20
 30
1.000000000000000E+20
  9
$PEXTMAX
 10
-1.000000000000000E+20
 20
-1.000000000000000E+20
 30
-1.000000000000000E+20
  9
$PLIMMIN
 10
0.0
 20
0.0
  9
$PLIMMAX
 10
12.0
 20
9.0
  9
$UNITMODE
 70
     0
  9
$VISRETAIN
 70
     0
  9
$PLINEGEN
 70
     0
  9
$PSLTSCALE
 70
     0
  9
$TREEDEPTH
 70
  3020
  9
$CMLSTYLE
  2
STANDARD
  9
$CMLJUST
 70
     0
  9
$CMLSCALE
 40
1.0
  9
$PROXYGRAPHICS
 70
     1
  9
$MEASUREMENT
 70
     0
  9
$CELWEIGHT
370
    -1
  9
$ENDCAPS
280
     0
  9
$JOINSTYLE
280
     0
  9
$LWDISPLAY
290
     0
  9
$INSUNITS
 70
     0
  9
$HYPERLINKBASE
  1

  9
$STYLESHEET
  1

  9
$XEDIT
290
     1
  9
$CEPSNTYPE
380
     0
  9
$PSTYLEMODE
290
     1
  9
$FINGERPRINTGUID
  2
{7E1BADD4-439C-11D5-BE3F-00508B5FCD51}
  9
$VERSIONGUID
  2
{139CE6EB-FBB8-4C1B-882E-642223FEF287}
  9
$EXTNAMES
290
     1
  9
$PSVPSCALE
 40
0.0
  9
$OLESTARTUP
290
     0
  0
ENDSEC
  0
SECTION
  2
CLASSES
  0
CLASS
  1
DICTIONARYVAR
  2
AcDbDictionaryVar
  3
AutoCAD 2000
 90
        0
280
     0
281
     0
  0
CLASS
  1
LWPOLYLINE
  2
AcDbPolyline
  3
AutoCAD 2000
 90
        0
280
     0
281
     1
  0
CLASS
  1
ACDBDICTIONARYWDFLT
  2
AcDbDictionaryWithDefault
  3
AutoCAD 2000
 90
        0
280
     0
281
     0
  0
CLASS
  1
ACDBPLACEHOLDER
  2
AcDbPlaceHolder
  3
ObjectDBX Classes
 90
        0
280
     0
281
     0
  0
CLASS
  1
LAYOUT
  2
AcDbLayout
  3
ObjectDBX Classes
 90
        0
280
     0
281
     0
  0
CLASS
  1
LONG_TRANSACTION
  2
AcDbLongTransaction
  3
ObjectDBX Classes
 90
   -65536
280
     1
281
     0
  0
CLASS
  1
LWPOLYLINE
  2
AcDbPolyline
  3
AutoCAD 2000
 90
        0
280
     0
281
     1
  0
CLASS
  1
HATCH
  2
AcDbHatch
  3
AutoCAD 2000
 90
        0
280
     0
281
     1
  0
CLASS
  1
XRECORD
  2
AcDbXrecord
  3
AutoCAD 2000
 90
        0
280
     0
281
     0
  0
CLASS
  1
LONG_TRANSACTION
  2
AcDbLongTransaction
  3
ObjectDBX Classes
 90
   -65536
280
     1
281
     0
  0
CLASS
  1
LWPOLYLINE
  2
AcDbPolyline
  3
AutoCAD 2000
 90
        0
280
     0
281
     1
  0
CLASS
  1
HATCH
  2
AcDbHatch
  3
AutoCAD 2000
 90
        0
280
     0
281
     1
  0
CLASS
  1
XRECORD
  2
AcDbXrecord
  3
AutoCAD 2000
 90
        0
280
     0
281
     0
  0
CLASS
  1
LONG_TRANSACTION
  2
AcDbLongTransaction
  3
ObjectDBX Classes
 90
   -65536
280
     1
281
     0
  0
CLASS
  1
LWPOLYLINE
  2
AcDbPolyline
  3
AutoCAD 2000
 90
        0
280
     0
281
     1
  0
CLASS
  1
HATCH
  2
AcDbHatch
  3
AutoCAD 2000
 90
        0
280
     0
281
     1
  0
CLASS
  1
XRECORD
  2
AcDbXrecord
  3
AutoCAD 2000
 90
        0
280
     0
281
     0
  0
CLASS
  1
LONG_TRANSACTION
  2
AcDbLongTransaction
  3
ObjectDBX Classes
 90
   -65536
280
     1
281
     0
  0
CLASS
  1
LWPOLYLINE
  2
AcDbPolyline
  3
AutoCAD 2000
 90
        0
280
     0
281
     1
  0
CLASS
  1
HATCH
  2
AcDbHatch
  3
AutoCAD 2000
 90
        0
280
     0
281
     1
  0
CLASS
  1
XRECORD
  2
AcDbXrecord
  3
AutoCAD 2000
 90
        0
280
     0
281
     0
  0
CLASS
  1
LONG_TRANSACTION
  2
AcDbLongTransaction
  3
ObjectDBX Classes
 90
   -65536
280
     1
281
     0
  0
CLASS
  1
LWPOLYLINE
  2
AcDbPolyline
  3
AutoCAD 2000
 90
        0
280
     0
281
     1
  0
CLASS
  1
HATCH
  2
AcDbHatch
  3
AutoCAD 2000
 90
        0
280
     0
281
     1
  0
CLASS
  1
XRECORD
  2
AcDbXrecord
  3
AutoCAD 2000
 90
        0
280
     0
281
     0
  0
CLASS
  1
LONG_TRANSACTION
  2
AcDbLongTransaction
  3
ObjectDBX Classes
 90
   -65536
280
     1
281
     0
  0
CLASS
  1
LWPOLYLINE
  2
AcDbPolyline
  3
AutoCAD 2000
 90
        0
280
     0
281
     1
  0
CLASS
  1
HATCH
  2
AcDbHatch
  3
AutoCAD 2000
 90
        0
280
     0
281
     1
  0
CLASS
  1
XRECORD
  2
AcDbXrecord
  3
AutoCAD 2000
 90
        0
280
     0
281
     0
  0
CLASS
  1
LONG_TRANSACTION
  2
AcDbLongTransaction
  3
ObjectDBX Classes
 90
   -65536
280
     1
281
     0
  0
CLASS
  1
LWPOLYLINE
  2
AcDbPolyline
  3
AutoCAD 2000
 90
        0
280
     0
281
     1
  0
CLASS
  1
HATCH
  2
AcDbHatch
  3
AutoCAD 2000
 90
        0
280
     0
281
     1
  0
CLASS
  1
XRECORD
  2
AcDbXrecord
  3
AutoCAD 2000
 90
        0
280
     0
281
     0
  0
CLASS
  1
LONG_TRANSACTION
  2
AcDbLongTransaction
  3
ObjectDBX Classes
 90
   -65536
280
     1
281
     0
  0
CLASS
  1
LWPOLYLINE
  2
AcDbPolyline
  3
AutoCAD 2000
 90
        0
280
     0
281
     1
  0
CLASS
  1
HATCH
  2
AcDbHatch
  3
AutoCAD 2000
 90
        0
280
     0
281
     1
  0
CLASS
  1
XRECORD
  2
AcDbXrecord
  3
AutoCAD 2000
 90
        0
280
     0
281
     0
  0
CLASS
  1
LONG_TRANSACTION
  2
AcDbLongTransaction
  3
ObjectDBX Classes
 90
   -65536
280
     1
281
     0
  0
CLASS
  1
LWPOLYLINE
  2
AcDbPolyline
  3
AutoCAD 2000
 90
        0
280
     0
281
     1
  0
CLASS
  1
HATCH
  2
AcDbHatch
  3
AutoCAD 2000
 90
        0
280
     0
281
     1
  0
CLASS
  1
XRECORD
  2
AcDbXrecord
  3
AutoCAD 2000
 90
        0
280
     0
281
     0
  0
CLASS
  1
LONG_TRANSACTION
  2
AcDbLongTransaction
  3
ObjectDBX Classes
 90
   -65536
280
     1
281
     0
  0
CLASS
  1
LWPOLYLINE
  2
AcDbPolyline
  3
AutoCAD 2000
 90
        0
280
     0
281
     1
  0
CLASS
  1
HATCH
  2
AcDbHatch
  3
AutoCAD 2000
 90
        0
280
     0
281
     1
  0
CLASS
  1
XRECORD
  2
AcDbXrecord
  3
AutoCAD 2000
 90
        0
280
     0
281
     0
  0
CLASS
  1
LONG_TRANSACTION
  2
AcDbLongTransaction
  3
ObjectDBX Classes
 90
   -65536
280
     1
281
     0
  0
CLASS
  1
LWPOLYLINE
  2
AcDbPolyline
  3
AutoCAD 2000
 90
        0
280
     0
281
     1
  0
CLASS
  1
HATCH
  2
AcDbHatch
  3
AutoCAD 2000
 90
        0
280
     0
281
     1
  0
CLASS
  1
XRECORD
  2
AcDbXrecord
  3
AutoCAD 2000
 90
        0
280
     0
281
     0
  0
CLASS
  1
LONG_TRANSACTION
  2
AcDbLongTransaction
  3
ObjectDBX Classes
 90
   -65536
280
     1
281
     0
  0
CLASS
  1
LWPOLYLINE
  2
AcDbPolyline
  3
AutoCAD 2000
 90
        0
280
     0
281
     1
  0
CLASS
  1
HATCH
  2
AcDbHatch
  3
AutoCAD 2000
 90
        0
280
     0
281
     1
  0
CLASS
  1
XRECORD
  2
AcDbXrecord
  3
AutoCAD 2000
 90
        0
280
     0
281
     0
  0
CLASS
  1
LONG_TRANSACTION
  2
AcDbLongTransaction
  3
ObjectDBX Classes
 90
   -65536
280
     1
281
     0
  0
CLASS
  1
LWPOLYLINE
  2
AcDbPolyline
  3
AutoCAD 2000
 90
        0
280
     0
281
     1
  0
CLASS
  1
HATCH
  2
AcDbHatch
  3
AutoCAD 2000
 90
        0
280
     0
281
     1
  0
CLASS
  1
XRECORD
  2
AcDbXrecord
  3
AutoCAD 2000
 90
        0
280
     0
281
     0
  0
CLASS
  1
LONG_TRANSACTION
  2
AcDbLongTransaction
  3
ObjectDBX Classes
 90
   -65536
280
     1
281
     0
  0
CLASS
  1
LWPOLYLINE
  2
AcDbPolyline
  3
AutoCAD 2000
 90
        0
280
     0
281
     1
  0
CLASS
  1
HATCH
  2
AcDbHatch
  3
AutoCAD 2000
 90
        0
280
     0
281
     1
  0
CLASS
  1
XRECORD
  2
AcDbXrecord
  3
AutoCAD 2000
 90
        0
280
     0
281
     0
  0
CLASS
  1
TABLESTYLE
  2
AcDbTableStyle
  3
ObjectDBX Classes
 90
     2047
280
     1
281
     0
  0
CLASS
  1
SORTENTSTABLE
  2
AcDbSortentsTable
  3
AutoCAD 2000
 90
        0
280
     0
281
     0
  0
ENDSEC
  0
SECTION
  2
TABLES
  0
TABLE
  2
VPORT
  5
1D
330
0
100
AcDbSymbolTable
 70
     3
  0
VPORT
  5
3BA
330
1D
100
AcDbSymbolTableRecord
100
AcDbViewportTableRecord
  2
*Active
 70
     0
 10
0.0
 20
0.0
 11
1.0
 21
1.0
 12
7.112570602213829
 22
13.93835484114564
 13
0.0
 23
0.0
 14
0.063
 24
0.063
 15
0.25
 25
0.25
 16
0.0
 26
0.0
 36
1.0
 17
0.0
 27
0.0
 37
0.0
 40
31.92504934890422
 41
1.814583333333333
 42
50.0
 43
0.0
 44
0.0
 50
0.0
 51
0.0
 71
     0
 72
   100
 73
     1
 74
     0
 75
     0
 76
     0
 77
     0
 78
     1
281
     0
 65
     1
110
0.0
120
0.0
130
0.0
111
1.0
121
0.0
131
0.0
112
0.0
122
1.0
132
0.0
 79
     0
146
0.0
  0
ENDTAB
  0
TABLE
  2
LTYPE
  5
18
330
0
100
AcDbSymbolTable
 70
     3
  0
LTYPE
  5
19
330
18
100
AcDbSymbolTableRecord
100
AcDbLinetypeTableRecord
  2
BYBLOCK
 70
     0
  3

 72
    65
 73
     0
 40
0.0
  0
LTYPE
  5
1A
330
18
100
AcDbSymbolTableRecord
100
AcDbLinetypeTableRecord
  2
BYLAYER
 70
     0
  3

 72
    65
 73
     0
 40
0.0
  0
LTYPE
  5
A
330
18
100
AcDbSymbolTableRecord
100
AcDbLinetypeTableRecord
  2
CONTINUOUS
 70
     0
  3
Solid line
 72
    65
 73
     0
 40
0.0
  0
LTYPE
  5
3B
330
18
100
AcDbSymbolTableRecord
100
AcDbLinetypeTableRecord
  2
HIDDEN2
 70
     0
  3
Hidden (.5x) _ _ _ _ _ _ _ _ _ _ _ _ _ _ _ _ _
 72
    65
 73
     2
 40
0.1875
 49
0.125
 74
     0
 49
-0.0625
 74
     0
  0
LTYPE
  5
359
330
18
100
AcDbSymbolTableRecord
100
AcDbLinetypeTableRecord
  2
HIDDEN
 70
     0
  3
Hidden __ __ __ __ __ __ __ __ __ __ __ __ __ _
 72
    65
 73
     2
 40
0.375
 49
0.25
 74
     0
 49
-0.125
 74
     0
  0
ENDTAB
  0
TABLE
  2
LAYER
  5
14
330
0
100
AcDbSymbolTable
 70
     1
  0
LAYER
  5
6
330
14
100
AcDbSymbolTableRecord
100
AcDbLayerTableRecord
  2
0
 70
     0
 62
     7
  6
CONTINUOUS
370
    -3
390
7
  0
ENDTAB
  0
TABLE
  2
STYLE
  5
15
330
0
100
AcDbSymbolTable
 70
     1
  0
STYLE
  5
16
330
15
100
AcDbSymbolTableRecord
100
AcDbTextStyleTableRecord
  2
STANDARD
 70
     0
 40
0.0
 41
1.0
 50
0.0
 71
     0
 42
0.27
  3
TXT
  4

  0
ENDTAB
  0
TABLE
  2
VIEW
  5
1B
330
0
100
AcDbSymbolTable
 70
     0
  0
ENDTAB
  0
TABLE
  2
UCS
  5
1C
330
0
100
AcDbSymbolTable
 70
     0
  0
ENDTAB
  0
TABLE
  2
APPID
  5
1F
330
0
100
AcDbSymbolTable
 70
     2
  0
APPID
  5
20
330
1F
100
AcDbSymbolTableRecord
100
AcDbRegAppTableRecord
  2
ACAD
 70
     0
  0
APPID
  5
38
330
1F
100
AcDbSymbolTableRecord
100
AcDbRegAppTableRecord
  2
_DIE112SSJYHX
 70
     0
  0
ENDTAB
  0
TABLE
  2
DIMSTYLE
  5
21
330
0
100
AcDbSymbolTable
 70
     1
100
AcDbDimStyleTable
  0
DIMSTYLE
105
28
330
21
100
AcDbSymbolTableRecord
100
AcDbDimStyleTableRecord
  2
STANDARD
 70
     0
  3

  4

340
16
  0
ENDTAB
  0
TABLE
  2
BLOCK_RECORD
  5
1
330
0
100
AcDbSymbolTable
 70
     0
  0
BLOCK_RECORD
  5
2
330
1
100
AcDbSymbolTableRecord
100
AcDbBlockTableRecord
  2
*MODEL_SPACE
340
C
  0
BLOCK_RECORD
  5
E
330
1
100
AcDbSymbolTableRecord
100
AcDbBlockTableRecord
  2
*PAPER_SPACE
340
13
  0
ENDTAB
  0
ENDSEC
  0
SECTION
  2
BLOCKS
  0
BLOCK
  5
5
330
2
100
AcDbEntity
  8
0
100
AcDbBlockBegin
  2
*MODEL_SPACE
 70
     0
 10
0.0
 20
0.0
 30
0.0
  3
*MODEL_SPACE
  1

  4

  0
ENDBLK
  5
B
330
2
100
AcDbEntity
  8
0
100
AcDbBlockEnd
  0
BLOCK
  5
11
330
E
100
AcDbEntity
 67
     1
  8
0
100
AcDbBlockBegin
  2
*PAPER_SPACE
 70
     0
 10
0.0
 20
0.0
 30
0.0
  3
*PAPER_SPACE
  1

  4

  0
ENDBLK
  5
12
330
E
100
AcDbEntity
 67
     1
  8
0
100
AcDbBlockEnd
  0
ENDSEC
  0
SECTION
  2
ENTITIES
  0
LINE
  5
2FB
330
2
100
AcDbEntity
  8
0
100
AcDbLine
 10
-0.180204875754626
 20
14.05
 30
0.0
 11
-0.1802048757546295
 21
2.08203700168551
 31
0.0
  0
LINE
  5
2FC
330
2
100
AcDbEntity
  8
0
100
AcDbLine
 10
-0.1302048757546324
 20
14.05
 30
0.0
 11
-0.1302048757546324
 21
2.010629601348413
 31
0.0
  0
LINE
  5
2FD
330
2
100
AcDbEntity
  8
0
100
AcDbLine
 10
0.6940628911982927
 20
5.183874548139533
 30
0.0
 11
0.6947951242453776
 21
13.40919722692676
 31
0.0
  0
ARC
  5
2FE
330
2
100
AcDbEntity
  8
0
100
AcDbCircle
 10
1.572295124245283
 20
1.563138852532394
 30
0.0
 40
0.4975
100
AcDbArc
 50
0.000000000000007
 51
35.00000000000366
1001
_DIE112SSJYHX
1002
{
1000
comp_type
1000
DBL24
1000
material
1000
D-2
1000
thickness
1040
1.25
1000
mount
1000
SBP10
1000
mntlay
1000
DIE_SUB_PLATE
1002
}
  0
LINE
  5
302
330
2
100
AcDbEntity
  8
0
100
AcDbLine
 10
2.069795124245513
 20
0.1804999999999595
 30
0.0
 11
2.069795124245285
 21
1.563138852532394
 31
0.0
  0
ARC
  5
304
330
2
100
AcDbEntity
  8
0
100
AcDbCircle
 10
0.8697951242454103
 20
1.132499999999983
 30
0.0
 40
0.1875
100
AcDbArc
 50
216.869897645846
 51
323.1301023541623
  0
LINE
  5
305
330
2
100
AcDbEntity
  8
0
  6
HIDDEN2
100
AcDbLine
 10
1.476045124245378
 20
0.0500000000000007
 30
0.0
 11
1.476045124245399
 21
1.612499999999979
 31
0.0
  0
LINE
  5
306
330
2
100
AcDbEntity
  8
0
  6
HIDDEN2
100
AcDbLine
 10
1.663545124245371
 20
0.0500000000000007
 30
0.0
 11
1.663545124245399
 21
1.612499999999979
 31
0.0
  0
LINE
  5
307
330
2
100
AcDbEntity
  8
0
100
AcDbLine
 10
0.0697951242452852
 20
1.563138852532394
 30
0.0
 11
0.0697951242452852
 21
0.1804999999999595
 31
0.0
  0
LINE
  5
308
330
2
100
AcDbEntity
  8
0
  6
HIDDEN2
100
AcDbLine
 10
0.4760451242453989
 20
2.174999999999981
 30
0.0
 11
0.4760451242453705
 21
0.0500000000000007
 31
0.0
  0
LINE
  5
309
330
2
100
AcDbEntity
  8
0
  6
HIDDEN2
100
AcDbLine
 10
0.6635451242453989
 20
2.174999999999981
 30
0.0
 11
0.6635451242453705
 21
0.0500000000000007
 31
0.0
  0
LINE
  5
30B
330
2
100
AcDbEntity
  8
0
100
AcDbLine
 10
1.119795124245467
 20
0.7449999999999371
 30
0.0
 11
1.269795124245444
 21
0.9200000000000053
 31
0.0
  0
ARC
  5
30C
330
2
100
AcDbEntity
  8
0
100
AcDbCircle
 10
1.269795124245388
 20
0.8575000000000053
 30
0.0
 40
0.1875
100
AcDbArc
 50
216.869897645846
 51
323.1301023541623
  0
LINE
  5
30D
330
2
100
AcDbEntity
  8
0
100
AcDbLine
 10
1.269795124245331
 20
0.7222605845752703
 30
0.0
 11
1.119795124245353
 21
0.7450000000000507
 31
0.0
  0
LINE
  5
30E
330
2
100
AcDbEntity
  8
0
100
AcDbLine
 10
1.269795124245444
 20
0.9200000000000053
 30
0.0
 11
1.419795124245422
 21
0.7449999999999371
 31
0.0
  0
LINE
  5
30F
330
2
100
AcDbEntity
  8
0
100
AcDbLine
 10
1.269795124245331
 20
0.7222605845752703
 30
0.0
 11
1.269795124245444
 21
0.9199999999998916
 31
0.0
  0
LINE
  5
310
330
2
100
AcDbEntity
  8
0
100
AcDbLine
 10
1.269795124245331
 20
0.7222605845752703
 30
0.0
 11
1.419795124245365
 21
0.7449999999999371
 31
0.0
  0
ARC
  5
318
330
2
100
AcDbEntity
  8
0
100
AcDbCircle
 10
-0.4277048757547171
 20
1.563138852532394
 30
0.0
 40
0.4975
100
AcDbArc
 50
0.000000000000007
 51
35.00000000000366
1001
_DIE112SSJYHX
1002
{
1000
comp_type
1000
DBL24
1000
material
1000
D-2
1000
thickness
1040
1.25
1000
mount
1000
SBP10
1000
mntlay
1000
DIE_SUB_PLATE
1002
}
  0
ARC
  5
319
330
2
100
AcDbEntity
  8
0
100
AcDbCircle
 10
2.072295124245297
 20
3.464235042592966
 30
0.0
 40
1.002500000000012
100
AcDbArc
 50
180.0000000000002
 51
214.9999999999975
1001
_DIE112SSJYHX
1002
{
1000
comp_type
1000
DBL24
1000
material
1000
D-2
1000
thickness
1040
1.25
1000
mount
1000
SBP10
1000
mntlay
1000
DIE_SUB_PLATE
1002
}
  0
LINE
  5
31A
330
2
100
AcDbEntity
  8
0
100
AcDbLine
 10
0.9422951242453728
 20
1.29432861817461
 30
0.0
 11
1.197295124245368
 21
1.29432861817461
 31
0.0
  0
LINE
  5
31B
330
2
100
AcDbEntity
  8
0
100
AcDbLine
 10
0.8697951242454671
 20
1.194999999999869
 30
0.0
 11
1.019795124245444
 21
1.019999999999914
 31
0.0
  0
LINE
  5
31C
330
2
100
AcDbEntity
  8
0
100
AcDbLine
 10
0.8697951242453534
 20
0.9972605845752476
 30
0.0
 11
1.019795124245388
 21
1.019999999999914
 31
0.0
  0
ARC
  5
31D
330
2
100
AcDbEntity
  8
0
100
AcDbCircle
 10
1.069795124245371
 20
1.419328618174617
 30
0.0
 40
0.1874999999999982
100
AcDbArc
 50
0.000000000000007
 51
180.0
  0
ARC
  5
31E
330
2
100
AcDbEntity
  8
0
100
AcDbCircle
 10
1.069795124245371
 20
1.419328618174617
 30
0.0
 40
0.1874999999999982
100
AcDbArc
 50
0.000000000000007
 51
180.0
  0
ARC
  5
31F
330
2
100
AcDbEntity
  8
0
100
AcDbCircle
 10
1.069795124245371
 20
1.419328618174617
 30
0.0
 40
0.1874999999999982
100
AcDbArc
 50
0.000000000000007
 51
180.0
  0
LWPOLYLINE
  5
320
330
2
100
AcDbEntity
  8
0
100
AcDbPolyline
 90
       43
 70
     0
 43
0.0
 10
0.8822951242453705
 20
1.354328618174613
 10
0.8835473211959304
 20
1.720478412976537
 10
0.8864137488960857
 20
1.808155638876588
 10
0.89068331869613
 20
1.888230283776514
 10
0.8960629736959724
 20
1.961392941076431
 10
0.9023321691959261
 20
2.028257840476547
 10
0.9093251367960527
 20
2.089385567376487
 10
0.9169150471959817
 20
2.145260034176593
 10
0.9250064848959134
 20
2.196311956276579
 10
0.9335260188959289
 20
2.242905598176597
 10
0.9424268978959951
 20
2.285392250376438
 10
0.9516790875959593
 20
2.324066008976436
 10
0.9612685134959627
 20
2.359173799276553
 10
0.9711992768959696
 20
2.390925059676468
 10
0.9814930713960273
 20
2.419481908776609
 10
0.9921994230960642
 20
2.444970441876469
 10
1.003410798696006
 20
2.467474375976556
 10
1.015236443096011
 20
2.48693230737654
 10
1.02781429219591
 20
2.503126267376549
 10
1.041289361096016
 20
2.515605805476573
 10
1.055441082896106
 20
2.523510903376566
 10
1.069564012296052
 20
2.526224003176642
 10
1.083761543595994
 20
2.523786956776624
 10
1.098003669696038
 20
2.516096936376519
 10
1.111549755596126
 20
2.503783372976434
 10
1.124211422195923
 20
2.48768104467654
 10
1.136107632095911
 20
2.468278693576442
 10
1.147380572996109
 20
2.4458022093766
 10
1.158140385995932
 20
2.42032175147647
 10
1.168479929295938
 20
2.391761808576623
 10
1.178451575696055
 20
2.359995059576525
 10
1.188077463696128
 20
2.324862359176498
 10
1.197362459396128
 20
2.286155018076491
 10
1.206292953696003
 20
2.24362679187657
 10
1.214839012696086
 20
2.196985305676483
 10
1.222954457095977
 20
2.145877662876549
 10
1.230565797895917
 20
2.089940624576505
 10
1.237577721796026
 20
2.028742866876476
 10
1.243863358796045
 20
1.961799814376539
 10
1.249256716996126
 20
1.888550791076616
 10
1.25353696799608
 20
1.808380101876583
 10
1.256410484395939
 20
1.720596414776583
 10
1.257295124245371
 20
1.354328618174613
  0
LINE
  5
321
330
2
100
AcDbEntity
  8
0
100
AcDbLine
 10
1.979823266279038
 20
1.848493129617065
 30
0.0
 11
1.251095199845548
 21
2.889224665151074
 31
0.0
  0
ARC
  5
322
330
2
100
AcDbEntity
  8
0
  6
HIDDEN2
100
AcDbCircle
 10
1.569795124245399
 20
1.612499999999979
 30
0.0
 40
0.09375
100
AcDbArc
 50
0.000000000000007
 51
180.0
  0
ARC
  5
323
330
2
100
AcDbEntity
  8
0
100
AcDbCircle
 10
1.197295124245368
 20
1.354328618174613
 30
0.0
 40
0.06
100
AcDbArc
 50
270.0000000000004
 51
359.9999999999999
  0
POINT
  5
324
330
2
100
AcDbEntity
  8
0
  6
ByBlock
100
AcDbPoint
 10
1.069795124245371
 20
1.606828618174614
 30
0.0
  0
POINT
  5
325
330
2
100
AcDbEntity
  8
0
  6
ByBlock
100
AcDbPoint
 10
1.069795124245371
 20
1.606828618174614
 30
0.0
  0
POINT
  5
326
330
2
100
AcDbEntity
  8
0
  6
ByBlock
100
AcDbPoint
 10
1.069795124245371
 20
1.606828618174614
 30
0.0
  0
POINT
  5
327
330
2
100
AcDbEntity
  8
0
  6
ByBlock
100
AcDbPoint
 10
1.069795124245371
 20
1.606828618174614
 30
0.0
  0
POINT
  5
328
330
2
100
AcDbEntity
  8
0
  6
ByBlock
100
AcDbPoint
 10
1.069795124245371
 20
1.606828618174614
 30
0.0
  0
POINT
  5
329
330
2
100
AcDbEntity
  8
0
  6
ByBlock
100
AcDbPoint
 10
1.069795124245371
 20
1.606828618174614
 30
0.0
  0
ARC
  5
32A
330
2
100
AcDbEntity
  8
0
  6
HIDDEN2
100
AcDbCircle
 10
0.5697951242453989
 20
2.174999999999981
 30
0.0
 40
0.09375
100
AcDbArc
 50
0.000000000000007
 51
180.0
  0
LINE
  5
32B
330
2
100
AcDbEntity
  8
0
100
AcDbLine
 10
0.7197951242454899
 20
1.019999999999914
 30
0.0
 11
0.8697951242454671
 21
1.194999999999869
 31
0.0
  0
LINE
  5
32C
330
2
100
AcDbEntity
  8
0
100
AcDbLine
 10
0.8697951242453534
 20
0.9972605845752476
 30
0.0
 11
0.7197951242453762
 21
1.020000000000028
 31
0.0
  0
LINE
  5
32D
330
2
100
AcDbEntity
  8
0
100
AcDbLine
 10
0.8697951242453534
 20
0.9972605845752476
 30
0.0
 11
0.8697951242454671
 21
1.194999999999869
 31
0.0
  0
POINT
  5
32E
330
2
100
AcDbEntity
  8
0
  6
ByBlock
100
AcDbPoint
 10
0.9422951242453728
 20
1.29432861817461
 30
0.0
  0
ARC
  5
32F
330
2
100
AcDbEntity
  8
0
100
AcDbCircle
 10
0.9422951242453728
 20
1.354328618174613
 30
0.0
 40
0.06
100
AcDbArc
 50
180.0000000000001
 51
269.9999999999998
  0
ARC
  5
330
330
2
100
AcDbEntity
  8
0
100
AcDbCircle
 10
0.5715628911980666
 20
4.394660985765972
 30
0.0
 40
0.4975000000000007
100
AcDbArc
 50
0.000000000000007
 51
44.99999999998113
1001
_DIE112SSJYHX
1002
{
1000
comp_type
1000
DBL24
1000
material
1000
D-2
1000
thickness
1040
1.25
1000
mount
1000
SBP10
1000
mntlay
1000
DIE_SUB_PLATE
1002
}
  0
LINE
  5
331
330
2
100
AcDbEntity
  8
0
100
AcDbLine
 10
1.069795124245285
 20
3.464235042592966
 30
0.0
 11
1.069062891198069
 21
4.394660985765972
 31
0.0
  0
LINE
  5
332
330
2
100
AcDbEntity
  8
0
100
AcDbLine
 10
0.6874664394018417
 20
4.622279177624199
 30
0.0
 11
0.8502164394018585
 21
4.528315421069058
 31
0.0
  0
LINE
  5
333
330
2
100
AcDbEntity
  8
0
100
AcDbLine
 10
0.6874664393690928
 20
4.38022507726569
 30
0.0
 11
0.8502164394018585
 21
4.474188833332528
 31
0.0
  0
ARC
  5
334
330
2
100
AcDbEntity
  8
0
100
AcDbCircle
 10
0.8345914394018585
 20
4.501252127200791
 30
0.0
 40
0.03125
100
AcDbArc
 50
299.9999999999999
 51
60.00000000000284
  0
LINE
  5
335
330
2
100
AcDbEntity
  8
0
100
AcDbLine
 10
0.640595124245376
 20
4.407768255661514
 30
0.0
 11
0.6405951242453618
 21
4.595695768264575
 31
0.0
  0
ARC
  5
336
330
2
100
AcDbEntity
  8
0
100
AcDbCircle
 10
0.6718414394018417
 20
4.595215883755932
 30
0.0
 40
0.03125
100
AcDbArc
 50
60.0000000000007
 51
180.0000000000026
  0
ARC
  5
337
330
2
100
AcDbEntity
  8
0
100
AcDbCircle
 10
0.6718414394018417
 20
4.407288371134724
 30
0.0
 40
0.03125
100
AcDbArc
 50
179.9999999999976
 51
299.9999999999993
  0
ARC
  5
338
330
2
100
AcDbEntity
  8
0
100
AcDbCircle
 10
1.196562891198294
 20
5.183874548139533
 30
0.0
 40
0.5025
100
AcDbArc
 50
180.0
 51
225.0000000000001
  0
LINE
  5
339
330
2
100
AcDbEntity
  8
0
100
AcDbLine
 10
0.923348514838704
 20
4.746446609406666
 30
0.0
 11
0.841241733652037
 21
4.828553390593333
 31
0.0
  0
LINE
  5
33A
330
2
100
AcDbEntity
  8
0
100
AcDbLine
 10
-0.0201767337206782
 20
1.848493129617271
 30
0.0
 11
-0.1802048757544874
 21
2.077037001685474
 31
0.0
  0
LINE
  5
33B
330
2
100
AcDbEntity
  8
0
100
AcDbLine
 10
-0.1302048757546324
 20
5.22350635094611
 30
0.0
 11
-0.1802048757546295
 21
5.22350635094611
 31
0.0
  0
LINE
  5
33C
330
2
100
AcDbEntity
  8
0
100
AcDbLine
 10
-0.1302048757546324
 20
5.007000000000001
 30
0.0
 11
-0.1802048757546295
 21
5.007000000000001
 31
0.0
  0
LINE
  5
33D
330
2
100
AcDbEntity
  8
0
  6
Continuous
100
AcDbLine
 10
-0.1207317876891985
 20
12.45857308806558
 30
0.0
 11
0.1676414080574595
 21
12.17019989231893
 31
0.0
  0
LINE
  5
33E
330
2
100
AcDbEntity
  8
0
  6
Continuous
100
AcDbLine
 10
-0.1302048757546288
 20
12.40299235226184
 30
0.0
 11
0.1351144961228776
 21
12.13767298038434
 31
0.0
  0
LINE
  5
33F
330
2
100
AcDbEntity
  8
0
  6
Continuous
100
AcDbLine
 10
0.112700109318677
 20
12.05402135001056
 30
0.0
 11
-0.1287813472535966
 21
11.98931658873493
 31
0.0
  0
LINE
  5
340
330
2
100
AcDbEntity
  8
0
  6
Continuous
100
AcDbLine
 10
0.1246057853933955
 20
12.00958876200127
 30
0.0
 11
-0.1168756711788781
 21
11.94488400072563
 31
0.0
  0
ARC
  5
341
330
2
100
AcDbEntity
  8
0
100
AcDbCircle
 10
-0.1551003759615064
 20
13.225
 30
0.0
 40
0.15625
100
AcDbArc
 50
279.168078897781
 51
54.8303070761397
  0
LINE
  5
342
330
2
100
AcDbEntity
  8
0
100
AcDbLine
 10
0.4447951242453705
 20
13.65919722692676
 30
0.0
 11
-0.0651003759614959
 21
13.65919722692676
 31
0.0
  0
LINE
  5
343
330
2
100
AcDbEntity
  8
0
100
AcDbLine
 10
0.4947951242453677
 20
13.60919722692677
 30
0.0
 11
-0.0651003759614959
 21
13.60919722692677
 31
0.0
  0
ARC
  5
344
330
2
100
AcDbEntity
  8
0
  6
Continuous
100
AcDbCircle
 10
0.0997591570635414
 20
12.10231764132501
 30
0.0
 40
0.05
100
AcDbArc
 50
284.9999999999996
 51
44.99999999999807
  0
ARC
  5
345
330
2
100
AcDbEntity
  8
0
  6
Continuous
100
AcDbCircle
 10
0.0997591570635414
 20
12.10231764132501
 30
0.0
 40
0.096
100
AcDbArc
 50
285.0000000000007
 51
44.99999999999807
  0
LINE
  5
346
330
2
100
AcDbEntity
  8
0
100
AcDbLine
 10
0.6947951242453776
 20
13.22499999999999
 30
0.0
 11
0.0011496240384936
 21
13.225
 31
0.0
  0
LINE
  5
347
330
2
100
AcDbEntity
  8
0
100
AcDbLine
 10
0.6947951242453776
 20
13.40919722692676
 30
0.0
 11
0.4447951242453705
 21
13.65919722692676
 31
0.0
  0
LINE
  5
348
330
2
100
AcDbEntity
  8
0
  6
Continuous
100
AcDbLine
 10
-0.1287813472535966
 20
11.98931658873496
 30
0.0
 11
-0.1168756711788923
 21
11.94488400072566
 31
0.0
  0
ARC
  5
349
330
2
100
AcDbEntity
  8
0
  6
Continuous
100
AcDbCircle
 10
-0.0882048757546166
 20
12.49110000000017
 30
0.0
 40
0.046
100
AcDbArc
 50
204.0706146225166
 51
224.9999999999999
  0
ARC
  5
34A
330
2
100
AcDbEntity
  8
0
  6
Continuous
100
AcDbCircle
 10
-0.0654693152583903
 20
12.49750162342256
 30
0.0
 40
0.1148432675996877
100
AcDbArc
 50
188.4365649615204
 51
224.8347775975267
  0
LINE
  5
34B
330
2
100
AcDbEntity
  8
0
100
AcDbLine
 10
-0.2302048757546267
 20
14.1
 30
0.0
 11
-0.8052048757546295
 21
14.1
 31
0.0
  0
LINE
  5
34C
330
2
100
AcDbEntity
  8
0
100
AcDbLine
 10
-0.2302048757546338
 20
14.15
 30
0.0
 11
-0.8052048757546295
 21
14.15
 31
0.0
  0
LINE
  5
34D
330
2
100
AcDbEntity
  8
0
100
AcDbLine
 10
-0.0651003759614959
 20
13.65919722692676
 30
0.0
 11
-0.0651003759614959
 21
13.35272651447526
 31
0.0
  0
ARC
  5
34E
330
2
100
AcDbEntity
  8
0
100
AcDbCircle
 10
-0.2302048757546338
 20
14.05
 30
0.0
 40
0.1
100
AcDbArc
 50
0.000000000000007
 51
90.0
  0
ARC
  5
34F
330
2
100
AcDbEntity
  8
0
100
AcDbCircle
 10
-0.2302048757546267
 20
14.05
 30
0.0
 40
0.05
100
AcDbArc
 50
0.000000000000007
 51
90.0
  0
LINE
  5
350
330
2
100
AcDbEntity
  8
0
100
AcDbLine
 10
-0.8052048757546295
 20
14.15
 30
0.0
 11
-0.8052048757546295
 21
14.1
 31
0.0
  0
LINE
  5
370
330
2
100
AcDbEntity
  8
0
100
AcDbLine
 10
2.069795124245378
 20
0.0500000000000007
 30
0.0
 11
1.661916074655057
 21
0.0500000000000007
 31
0.0
  0
LINE
  5
371
330
2
100
AcDbEntity
  8
0
100
AcDbLine
 10
1.476045124245378
 20
0.0500000000000007
 30
0.0
 11
0.6627305994502386
 21
0.0500000000000007
 31
0.0
  0
LINE
  5
372
330
2
100
AcDbEntity
  8
0
100
AcDbLine
 10
0.4768596490405592
 20
0.0500000000000007
 30
0.0
 11
0.0697951242453776
 21
0.0500000000000007
 31
0.0
  0
LINE
  5
373
330
2
100
AcDbEntity
  8
0
100
AcDbLine
 10
2.069795124245378
 20
0.100000000000005
 30
0.0
 11
2.069795124245378
 21
0.0500000000000007
 31
0.0
  0
LINE
  5
374
330
2
100
AcDbEntity
  8
0
  6
Continuous
100
AcDbLine
 10
2.069795124245378
 20
0.100000000000005
 30
0.0
 11
1.984441448284837
 21
0.1000000000000068
 31
0.0
  0
ARC
  5
375
330
2
100
AcDbEntity
  8
0
100
AcDbCircle
 10
2.069795124245513
 20
0.0949999999999598
 30
0.0
 40
0.0855
100
AcDbArc
 50
90.0
 51
211.7568638592875
  0
LINE
  5
376
330
2
100
AcDbEntity
  8
0
  6
Continuous
100
AcDbLine
 10
0.1551488002059607
 20
0.0999999999999979
 30
0.0
 11
0.0697951242453705
 21
0.0999999999999996
 31
0.0
  0
ARC
  5
377
330
2
100
AcDbEntity
  8
0
100
AcDbCircle
 10
0.0697951242452852
 20
0.0949999999999598
 30
0.0
 40
0.0855
100
AcDbArc
 50
328.2431361407129
 51
90.0
  0
POINT
  5
378
330
2
100
AcDbEntity
  8
0
  6
ByBlock
100
AcDbPoint
 10
0.0697951242453705
 20
0.0999999999999996
 30
0.0
 50
180.0
  0
POINT
  5
379
330
2
100
AcDbEntity
  8
0
  6
ByBlock
100
AcDbPoint
 10
0.0697951242453705
 20
0.0999999999999996
 30
0.0
 50
180.0
  0
POINT
  5
37A
330
2
100
AcDbEntity
  8
0
  6
ByBlock
100
AcDbPoint
 10
0.0697951242453705
 20
0.0999999999999996
 30
0.0
 50
180.0
  0
POINT
  5
37B
330
2
100
AcDbEntity
  8
0
  6
ByBlock
100
AcDbPoint
 10
0.0697951242453705
 20
0.0999999999999996
 30
0.0
 50
180.0
  0
LINE
  5
37C
330
2
100
AcDbEntity
  8
0
100
AcDbLine
 10
0.0697951242453705
 20
0.0999999999999996
 30
0.0
 11
0.0697951242453776
 21
0.0500000000000007
 31
0.0
  0
LINE
  5
37D
330
2
100
AcDbEntity
  8
0
  6
HIDDEN
100
AcDbLine
 10
0.1551488002059607
 20
0.0999999999999979
 30
0.0
 11
1.984441448284837
 21
0.1000000000000068
 31
0.0
  0
ARC
  5
37E
330
2
100
AcDbEntity
  8
0
100
AcDbCircle
 10
0.5697951242453989
 20
0.0623312589969807
 30
0.0
 40
0.09375
100
AcDbArc
 50
180.0
 51
0.0
  0
ARC
  5
37F
330
2
100
AcDbEntity
  8
0
100
AcDbCircle
 10
1.568980599450217
 20
0.0623312589969807
 30
0.0
 40
0.09375
100
AcDbArc
 50
180.0
 51
0.0
  0
ENDSEC
  0
SECTION
  2
OBJECTS
  0
DICTIONARY
  5
9
330
0
100
AcDbDictionary
281
     1
  3
ACAD_COLOR
350
354
  3
ACAD_GROUP
350
23
  3
ACAD_LAYOUT
350
D
  3
ACAD_MATERIAL
350
353
  3
ACAD_MLINESTYLE
350
24
  3
ACAD_PLOTSETTINGS
350
25
  3
ACAD_PLOTSTYLENAME
350
8
  3
ACAD_TABLESTYLE
350
355
  3
ACDBHEADERROUNDTRIPXREC
350
3C1
  3
AcDbVariableDictionary
350
180
  0
DICTIONARY
  5
354
102
{ACAD_REACTORS
330
9
102
}
330
9
100
AcDbDictionary
281
     1
  0
DICTIONARY
  5
23
102
{ACAD_REACTORS
330
9
102
}
330
9
100
AcDbDictionary
281
     1
  0
DICTIONARY
  5
D
102
{ACAD_REACTORS
330
9
102
}
330
9
100
AcDbDictionary
281
     1
  3
Layout1
350
13
  3
Model
350
C
  0
DICTIONARY
  5
353
102
{ACAD_REACTORS
330
9
102
}
330
9
100
AcDbDictionary
281
     1
  0
DICTIONARY
  5
24
102
{ACAD_REACTORS
330
9
102
}
330
9
100
AcDbDictionary
281
     1
  3
STANDARD
350
27
  0
DICTIONARY
  5
25
102
{ACAD_REACTORS
330
9
102
}
330
9
100
AcDbDictionary
281
     1
  0
ACDBDICTIONARYWDFLT
  5
8
102
{ACAD_REACTORS
330
9
102
}
330
9
100
AcDbDictionary
281
     1
  3
Normal
350
7
100
AcDbDictionaryWithDefault
340
7
  0
DICTIONARY
  5
355
102
{ACAD_REACTORS
330
9
102
}
330
9
100
AcDbDictionary
281
     1
  3
Standard
350
356
  0
DICTIONARY
  5
3C1
102
{ACAD_REACTORS
330
9
102
}
330
9
100
AcDbDictionary
281
     1
  3
COLORDICT
350
3C2
  3
MATERIALDICT
350
3C3
  0
DICTIONARY
  5
180
102
{ACAD_REACTORS
330
9
102
}
330
9
100
AcDbDictionary
281
     1
  3
CTABLESTYLE
350
3AF
  3
HIDETEXT
350
3C0
  0
LAYOUT
  5
13
102
{ACAD_REACTORS
330
D
102
}
102
{ACAD_XDICTIONARY
360
3C4
102
}
330
D
100
AcDbPlotSettings
  1

  2
HP LaserJet 2100 Series PS
  4

  6

 40
0.0
 41
0.0
 42
0.0
 43
0.0
 44
0.0
 45
0.0
 46
0.0
 47
0.0
 48
0.0
 49
0.0
140
0.0
141
0.0
142
1.0
143
1.0
 70
   688
 72
     0
 73
     0
 74
     5
  7

 75
    16
147
1.0
148
0.0
149
0.0
100
AcDbLayout
  1
Layout1
 70
     0
 71
     1
 10
0.0
 20
0.0
 11
12.0
 21
9.0
 12
0.0
 22
0.0
 32
0.0
 14
1.000000000000000E+20
 24
1.000000000000000E+20
 34
1.000000000000000E+20
 15
-1.000000000000000E+20
 25
-1.000000000000000E+20
 35
-1.000000000000000E+20
146
0.0
 13
0.0
 23
0.0
 33
0.0
 16
1.0
 26
0.0
 36
0.0
 17
0.0
 27
1.0
 37
0.0
 76
     0
330
E
  0
LAYOUT
  5
C
102
{ACAD_REACTORS
330
D
102
}
102
{ACAD_XDICTIONARY
360
3C6
102
}
330
D
100
AcDbPlotSettings
  1

  2
HP LaserJet 2100 Series PS
  4
Letter
  6

 40
5.365749835968018
 41
5.386905193328857
 42
5.386917114257813
 43
5.365753173828125
 44
215.8999938964844
 45
279.3999938964844
 46
0.0
 47
0.0
 48
0.0
 49
0.0
140
0.0
141
0.0
142
1.0
143
1.0
 70
 11952
 72
     0
 73
     1
 74
     0
  7

 75
     0
147
1.0
148
-109.2000906416364
149
4.773316820069854
100
AcDbLayout
  1
Model
 70
     1
 71
     0
 10
0.0
 20
0.0
 11
12.0
 21
9.0
 12
0.0
 22
0.0
 32
0.0
 14
0.0
 24
0.0
 34
0.0
 15
0.0
 25
0.0
 35
0.0
146
0.0
 13
0.0
 23
0.0
 33
0.0
 16
1.0
 26
0.0
 36
0.0
 17
0.0
 27
1.0
 37
0.0
 76
     0
330
2
  0
MLINESTYLE
  5
27
102
{ACAD_REACTORS
330
24
102
}
330
24
100
AcDbMlineStyle
  2
STANDARD
 70
     0
  3

 62
   256
 51
90.0
 52
90.0
 71
     2
 49
0.5
 62
   256
  6
BYLAYER
 49
-0.5
 62
   256
  6
BYLAYER
  0
ACDBPLACEHOLDER
  5
7
102
{ACAD_REACTORS
330
8
102
}
330
8
  0
ACAD_PROXY_OBJECT
  5
356
102
{ACAD_REACTORS
330
355
102
}
330
355
100
AcDbProxyObject
 90
      499
 91
      561
 95
   983063
 70
     0
 93
     1841
310
4214DD185B99185C9928B81E85EB51B8AE3F2E07A17AD46E2B8FC02B5E8DC0F42B1CFD028000000C1008070000C3001FDFF8000000C1003FBFF000000182007F7FE00000030400FEFFC00000060801FDFF8000000C1003FBFF00000018200000000000000681FA0B0000001820100E000186003FBFF000000182007F7FE000
310
00030400FEFFC00000060801FDFF8000000C1003FBFF000000182007F7FE000000304000AD7A3703D0AC73F4160000003040201C00030C007F7FE00000030400FEFFC00000060801FDFF8000000C1003FBFF000000182007F7FE00000030400FEFFC000000608000
340
16
340
16
340
16
 94
        0
  0
XRECORD
  5
3C2
102
{ACAD_REACTORS
330
3C1
102
}
330
3C1
100
AcDbXrecord
340
354
  0
XRECORD
  5
3C3
102
{ACAD_REACTORS
330
3C1
102
}
330
3C1
100
AcDbXrecord
340
353
  0
DICTIONARYVAR
  5
3AF
102
{ACAD_REACTORS
330
180
102
}
330
180
100
DictionaryVariables
280
     0
  1
STANDARD
  0
DICTIONARYVAR
  5
3C0
102
{ACAD_REACTORS
330
180
102
}
330
180
100
DictionaryVariables
280
     0
  1
1
  0
DICTIONARY
  5
3C4
330
13
100
AcDbDictionary
280
     1
281
     1
  3
ACAD_XREC_ROUNDTRIP
360
3C5
  0
DICTIONARY
  5
3C6
330
C
100
AcDbDictionary
280
     1
281
     1
  3
ACAD_XREC_ROUNDTRIP
360
3C7
  0
XRECORD
  5
3C5
102
{ACAD_REACTORS
330
3C4
102
}
330
3C4
100
AcDbXrecord
102
SHADEPLOT
 70
     0
102
SHADEPLOTRESLEVEL
 70
     2
102
SHADEPLOTCUSTOMDPI
 70
   300
  0
XRECORD
  5
3C7
102
{ACAD_REACTORS
330
3C6
102
}
330
3C6
100
AcDbXrecord
102
SHADEPLOT
 70
     0
102
SHADEPLOTRESLEVEL
 70
     2
102
SHADEPLOTCUSTOMDPI
 70
   300
  0
ENDSEC
  0
EOF
