  0
SECTION
  2
HEADER
  9
$ACADVER
  1
AC1015
  9
$ACADMAINTVER
 70
     6
  9
$DWGCODEPAGE
  3
ANSI_1252
  9
$INSBASE
 10
0.0
 20
0.0
 30
0.0
  9
$EXTMIN
 10
-9.774858795572328
 20
-0.0317222668861419
 30
-0.0000000000112498
  9
$EXTMAX
 10
9.774856946558856
 20
21.73586227724361
 30
0.0000000000002956
  9
$LIMMIN
 10
0.0
 20
0.0
  9
$LIMMAX
 10
24.0
 20
31.5
  9
$ORTHOMODE
 70
     1
  9
$REGENMODE
 70
     1
  9
$FILLMODE
 70
     1
  9
$QTEXTMODE
 70
     0
  9
$MIRRTEXT
 70
     0
  9
$LTSCALE
 40
0.6
  9
$ATTMODE
 70
     1
  9
$TEXTSIZE
 40
0.27
  9
$TRACEWID
 40
0.05
  9
$TEXTSTYLE
  7
STANDARD
  9
$CLAYER
  8
0
  9
$CELTYPE
  6
HIDDEN
  9
$CECOLOR
 62
   256
  9
$CELTSCALE
 40
1.0
  9
$DISPSILH
 70
     0
  9
$DIMSCALE
 40
3.0
  9
$DIMASZ
 40
0.125
  9
$DIMEXO
 40
0.062
  9
$DIMDLI
 40
0.375
  9
$DIMRND
 40
0.0
  9
$DIMDLE
 40
0.0
  9
$DIMEXE
 40
0.08
  9
$DIMTP
 40
0.0
  9
$DIMTM
 40
0.0
  9
$DIMTXT
 40
0.09
  9
$DIMCEN
 40
-0.03125
  9
$DIMTSZ
 40
0.0
  9
$DIMTOL
 70
     0
  9
$DIMLIM
 70
     0
  9
$DIMTIH
 70
     1
  9
$DIMTOH
 70
     1
  9
$DIMSE1
 70
     0
  9
$DIMSE2
 70
     0
  9
$DIMTAD
 70
     0
  9
$DIMZIN
 70
     0
  9
$DIMBLK
  1

  9
$DIMASO
 70
     1
  9
$DIMSHO
 70
     0
  9
$DIMPOST
  1

  9
$DIMAPOST
  1

  9
$DIMALT
 70
     0
  9
$DIMALTD
 70
     2
  9
$DIMALTF
 40
25.4
  9
$DIMLFAC
 40
1.0
  9
$DIMTOFL
 70
     0
  9
$DIMTVP
 40
0.0
  9
$DIMTIX
 70
     0
  9
$DIMSOXD
 70
     0
  9
$DIMSAH
 70
     0
  9
$DIMBLK1
  1

  9
$DIMBLK2
  1

  9
$DIMSTYLE
  2
STANDARD
  9
$DIMCLRD
 70
     0
  9
$DIMCLRE
 70
     0
  9
$DIMCLRT
 70
     0
  9
$DIMTFAC
 40
1.0
  9
$DIMGAP
 40
0.09
  9
$DIMJUST
 70
     0
  9
$DIMSD1
 70
     0
  9
$DIMSD2
 70
     0
  9
$DIMTOLJ
 70
     1
  9
$DIMTZIN
 70
     0
  9
$DIMALTZ
 70
     0
  9
$DIMALTTZ
 70
     0
  9
$DIMUPT
 70
     0
  9
$DIMDEC
 70
     5
  9
$DIMTDEC
 70
     4
  9
$DIMALTU
 70
     2
  9
$DIMALTTD
 70
     2
  9
$DIMTXSTY
  7
STANDARD
  9
$DIMAUNIT
 70
     0
  9
$DIMADEC
 70
     0
  9
$DIMALTRND
 40
0.0
  9
$DIMAZIN
 70
     0
  9
$DIMDSEP
 70
    46
  9
$DIMATFIT
 70
     3
  9
$DIMFRAC
 70
     2
  9
$DIMLDRBLK
  1

  9
$DIMLUNIT
 70
     5
  9
$DIMLWD
 70
    -2
  9
$DIMLWE
 70
    -2
  9
$DIMTMOVE
 70
     2
  9
$LUNITS
 70
     2
  9
$LUPREC
 70
     4
  9
$SKETCHINC
 40
0.1
  9
$FILLETRAD
 40
0.0
  9
$AUNITS
 70
     0
  9
$AUPREC
 70
     0
  9
$MENU
  1
ACAD
  9
$ELEVATION
 40
0.0
  9
$PELEVATION
 40
0.0
  9
$THICKNESS
 40
0.0
  9
$LIMCHECK
 70
     0
  9
$CHAMFERA
 40
0.0
  9
$CHAMFERB
 40
0.0
  9
$CHAMFERC
 40
0.0
  9
$CHAMFERD
 40
0.0
  9
$SKPOLY
 70
     0
  9
$TDCREATE
 40
2449436.829454167
  9
$TDUCREATE
 40
2449437.1627875
  9
$TDUPDATE
 40
2454166.862515926
  9
$TDUUPDATE
 40
2454167.195849259
  9
$TDINDWG
 40
0.5554341088
  9
$TDUSRTIMER
 40
0.5554341088
  9
$USRTIMER
 70
     1
  9
$ANGBASE
 50
0.0
  9
$ANGDIR
 70
     0
  9
$PDMODE
 70
     0
  9
$PDSIZE
 40
0.0
  9
$PLINEWID
 40
0.0
  9
$SPLFRAME
 70
     0
  9
$SPLINETYPE
 70
     6
  9
$SPLINESEGS
 70
     8
  9
$HANDSEED
  5
3B9
  9
$SURFTAB1
 70
     6
  9
$SURFTAB2
 70
     6
  9
$SURFTYPE
 70
     6
  9
$SURFU
 70
     6
  9
$SURFV
 70
     6
  9
$UCSBASE
  2

  9
$UCSNAME
  2

  9
$UCSORG
 10
0.0
 20
0.0
 30
0.0
  9
$UCSXDIR
 10
1.0
 20
0.0
 30
0.0
  9
$UCSYDIR
 10
0.0
 20
1.0
 30
0.0
  9
$UCSORTHOREF
  2

  9
$UCSORTHOVIEW
 70
     0
  9
$UCSORGTOP
 10
0.0
 20
0.0
 30
0.0
  9
$UCSORGBOTTOM
 10
0.0
 20
0.0
 30
0.0
  9
$UCSORGLEFT
 10
0.0
 20
0.0
 30
0.0
  9
$UCSORGRIGHT
 10
0.0
 20
0.0
 30
0.0
  9
$UCSORGFRONT
 10
0.0
 20
0.0
 30
0.0
  9
$UCSORGBACK
 10
0.0
 20
0.0
 30
0.0
  9
$PUCSBASE
  2

  9
$PUCSNAME
  2

  9
$PUCSORG
 10
0.0
 20
0.0
 30
0.0
  9
$PUCSXDIR
 10
1.0
 20
0.0
 30
0.0
  9
$PUCSYDIR
 10
0.0
 20
1.0
 30
0.0
  9
$PUCSORTHOREF
  2

  9
$PUCSORTHOVIEW
 70
     0
  9
$PUCSORGTOP
 10
0.0
 20
0.0
 30
0.0
  9
$PUCSORGBOTTOM
 10
0.0
 20
0.0
 30
0.0
  9
$PUCSORGLEFT
 10
0.0
 20
0.0
 30
0.0
  9
$PUCSORGRIGHT
 10
0.0
 20
0.0
 30
0.0
  9
$PUCSORGFRONT
 10
0.0
 20
0.0
 30
0.0
  9
$PUCSORGBACK
 10
0.0
 20
0.0
 30
0.0
  9
$USERI1
 70
     0
  9
$USERI2
 70
     0
  9
$USERI3
 70
     0
  9
$USERI4
 70
     0
  9
$USERI5
 70
     0
  9
$USERR1
 40
0.0
  9
$USERR2
 40
0.0
  9
$USERR3
 40
0.0
  9
$USERR4
 40
0.0
  9
$USERR5
 40
0.0
  9
$WORLDVIEW
 70
     1
  9
$SHADEDGE
 70
     3
  9
$SHADEDIF
 70
    70
  9
$TILEMODE
 70
     1
  9
$MAXACTVP
 70
    16
  9
$PINSBASE
 10
0.0
 20
0.0
 30
0.0
  9
$PLIMCHECK
 70
     0
  9
$PEXTMIN
 10
1.000000000000000E+20
 20
1.000000000000000E+20
 30
1.000000000000000E+20
  9
$PEXTMAX
 10
-1.000000000000000E+20
 20
-1.000000000000000E+20
 30
-1.000000000000000E+20
  9
$PLIMMIN
 10
0.0
 20
0.0
  9
$PLIMMAX
 10
12.0
 20
9.0
  9
$UNITMODE
 70
     0
  9
$VISRETAIN
 70
     0
  9
$PLINEGEN
 70
     0
  9
$PSLTSCALE
 70
     0
  9
$TREEDEPTH
 70
  3020
  9
$CMLSTYLE
  2
STANDARD
  9
$CMLJUST
 70
     0
  9
$CMLSCALE
 40
1.0
  9
$PROXYGRAPHICS
 70
     1
  9
$MEASUREMENT
 70
     0
  9
$CELWEIGHT
370
    -1
  9
$ENDCAPS
280
     0
  9
$JOINSTYLE
280
     0
  9
$LWDISPLAY
290
     0
  9
$INSUNITS
 70
     0
  9
$HYPERLINKBASE
  1

  9
$STYLESHEET
  1

  9
$XEDIT
290
     1
  9
$CEPSNTYPE
380
     0
  9
$PSTYLEMODE
290
     1
  9
$FINGERPRINTGUID
  2
{7E1BADD4-439C-11D5-BE3F-00508B5FCD51}
  9
$VERSIONGUID
  2
{C49994E5-996F-468C-AEE2-7BFF5F23383E}
  9
$EXTNAMES
290
     1
  9
$PSVPSCALE
 40
0.0
  9
$OLESTARTUP
290
     0
  0
ENDSEC
  0
SECTION
  2
CLASSES
  0
CLASS
  1
DICTIONARYVAR
  2
AcDbDictionaryVar
  3
AutoCAD 2000
 90
        0
280
     0
281
     0
  0
CLASS
  1
LWPOLYLINE
  2
AcDbPolyline
  3
AutoCAD 2000
 90
        0
280
     0
281
     1
  0
CLASS
  1
ACDBDICTIONARYWDFLT
  2
AcDbDictionaryWithDefault
  3
AutoCAD 2000
 90
        0
280
     0
281
     0
  0
CLASS
  1
ACDBPLACEHOLDER
  2
AcDbPlaceHolder
  3
ObjectDBX Classes
 90
        0
280
     0
281
     0
  0
CLASS
  1
LAYOUT
  2
AcDbLayout
  3
ObjectDBX Classes
 90
        0
280
     0
281
     0
  0
CLASS
  1
LONG_TRANSACTION
  2
AcDbLongTransaction
  3
ObjectDBX Classes
 90
   -65536
280
     1
281
     0
  0
CLASS
  1
LWPOLYLINE
  2
AcDbPolyline
  3
AutoCAD 2000
 90
        0
280
     0
281
     1
  0
CLASS
  1
HATCH
  2
AcDbHatch
  3
AutoCAD 2000
 90
        0
280
     0
281
     1
  0
CLASS
  1
XRECORD
  2
AcDbXrecord
  3
AutoCAD 2000
 90
        0
280
     0
281
     0
  0
CLASS
  1
LONG_TRANSACTION
  2
AcDbLongTransaction
  3
ObjectDBX Classes
 90
   -65536
280
     1
281
     0
  0
CLASS
  1
LWPOLYLINE
  2
AcDbPolyline
  3
AutoCAD 2000
 90
        0
280
     0
281
     1
  0
CLASS
  1
HATCH
  2
AcDbHatch
  3
AutoCAD 2000
 90
        0
280
     0
281
     1
  0
CLASS
  1
XRECORD
  2
AcDbXrecord
  3
AutoCAD 2000
 90
        0
280
     0
281
     0
  0
CLASS
  1
LONG_TRANSACTION
  2
AcDbLongTransaction
  3
ObjectDBX Classes
 90
   -65536
280
     1
281
     0
  0
CLASS
  1
LWPOLYLINE
  2
AcDbPolyline
  3
AutoCAD 2000
 90
        0
280
     0
281
     1
  0
CLASS
  1
HATCH
  2
AcDbHatch
  3
AutoCAD 2000
 90
        0
280
     0
281
     1
  0
CLASS
  1
XRECORD
  2
AcDbXrecord
  3
AutoCAD 2000
 90
        0
280
     0
281
     0
  0
CLASS
  1
LONG_TRANSACTION
  2
AcDbLongTransaction
  3
ObjectDBX Classes
 90
   -65536
280
     1
281
     0
  0
CLASS
  1
LWPOLYLINE
  2
AcDbPolyline
  3
AutoCAD 2000
 90
        0
280
     0
281
     1
  0
CLASS
  1
HATCH
  2
AcDbHatch
  3
AutoCAD 2000
 90
        0
280
     0
281
     1
  0
CLASS
  1
XRECORD
  2
AcDbXrecord
  3
AutoCAD 2000
 90
        0
280
     0
281
     0
  0
CLASS
  1
LONG_TRANSACTION
  2
AcDbLongTransaction
  3
ObjectDBX Classes
 90
   -65536
280
     1
281
     0
  0
CLASS
  1
LWPOLYLINE
  2
AcDbPolyline
  3
AutoCAD 2000
 90
        0
280
     0
281
     1
  0
CLASS
  1
HATCH
  2
AcDbHatch
  3
AutoCAD 2000
 90
        0
280
     0
281
     1
  0
CLASS
  1
XRECORD
  2
AcDbXrecord
  3
AutoCAD 2000
 90
        0
280
     0
281
     0
  0
CLASS
  1
LONG_TRANSACTION
  2
AcDbLongTransaction
  3
ObjectDBX Classes
 90
   -65536
280
     1
281
     0
  0
CLASS
  1
LWPOLYLINE
  2
AcDbPolyline
  3
AutoCAD 2000
 90
        0
280
     0
281
     1
  0
CLASS
  1
HATCH
  2
AcDbHatch
  3
AutoCAD 2000
 90
        0
280
     0
281
     1
  0
CLASS
  1
XRECORD
  2
AcDbXrecord
  3
AutoCAD 2000
 90
        0
280
     0
281
     0
  0
CLASS
  1
LONG_TRANSACTION
  2
AcDbLongTransaction
  3
ObjectDBX Classes
 90
   -65536
280
     1
281
     0
  0
CLASS
  1
LWPOLYLINE
  2
AcDbPolyline
  3
AutoCAD 2000
 90
        0
280
     0
281
     1
  0
CLASS
  1
HATCH
  2
AcDbHatch
  3
AutoCAD 2000
 90
        0
280
     0
281
     1
  0
CLASS
  1
XRECORD
  2
AcDbXrecord
  3
AutoCAD 2000
 90
        0
280
     0
281
     0
  0
CLASS
  1
LONG_TRANSACTION
  2
AcDbLongTransaction
  3
ObjectDBX Classes
 90
   -65536
280
     1
281
     0
  0
CLASS
  1
LWPOLYLINE
  2
AcDbPolyline
  3
AutoCAD 2000
 90
        0
280
     0
281
     1
  0
CLASS
  1
HATCH
  2
AcDbHatch
  3
AutoCAD 2000
 90
        0
280
     0
281
     1
  0
CLASS
  1
XRECORD
  2
AcDbXrecord
  3
AutoCAD 2000
 90
        0
280
     0
281
     0
  0
CLASS
  1
LONG_TRANSACTION
  2
AcDbLongTransaction
  3
ObjectDBX Classes
 90
   -65536
280
     1
281
     0
  0
CLASS
  1
LWPOLYLINE
  2
AcDbPolyline
  3
AutoCAD 2000
 90
        0
280
     0
281
     1
  0
CLASS
  1
HATCH
  2
AcDbHatch
  3
AutoCAD 2000
 90
        0
280
     0
281
     1
  0
CLASS
  1
XRECORD
  2
AcDbXrecord
  3
AutoCAD 2000
 90
        0
280
     0
281
     0
  0
CLASS
  1
LONG_TRANSACTION
  2
AcDbLongTransaction
  3
ObjectDBX Classes
 90
   -65536
280
     1
281
     0
  0
CLASS
  1
LWPOLYLINE
  2
AcDbPolyline
  3
AutoCAD 2000
 90
        0
280
     0
281
     1
  0
CLASS
  1
HATCH
  2
AcDbHatch
  3
AutoCAD 2000
 90
        0
280
     0
281
     1
  0
CLASS
  1
XRECORD
  2
AcDbXrecord
  3
AutoCAD 2000
 90
        0
280
     0
281
     0
  0
CLASS
  1
LONG_TRANSACTION
  2
AcDbLongTransaction
  3
ObjectDBX Classes
 90
   -65536
280
     1
281
     0
  0
CLASS
  1
LWPOLYLINE
  2
AcDbPolyline
  3
AutoCAD 2000
 90
        0
280
     0
281
     1
  0
CLASS
  1
HATCH
  2
AcDbHatch
  3
AutoCAD 2000
 90
        0
280
     0
281
     1
  0
CLASS
  1
XRECORD
  2
AcDbXrecord
  3
AutoCAD 2000
 90
        0
280
     0
281
     0
  0
CLASS
  1
LONG_TRANSACTION
  2
AcDbLongTransaction
  3
ObjectDBX Classes
 90
   -65536
280
     1
281
     0
  0
CLASS
  1
LWPOLYLINE
  2
AcDbPolyline
  3
AutoCAD 2000
 90
        0
280
     0
281
     1
  0
CLASS
  1
HATCH
  2
AcDbHatch
  3
AutoCAD 2000
 90
        0
280
     0
281
     1
  0
CLASS
  1
XRECORD
  2
AcDbXrecord
  3
AutoCAD 2000
 90
        0
280
     0
281
     0
  0
CLASS
  1
LONG_TRANSACTION
  2
AcDbLongTransaction
  3
ObjectDBX Classes
 90
   -65536
280
     1
281
     0
  0
CLASS
  1
LWPOLYLINE
  2
AcDbPolyline
  3
AutoCAD 2000
 90
        0
280
     0
281
     1
  0
CLASS
  1
HATCH
  2
AcDbHatch
  3
AutoCAD 2000
 90
        0
280
     0
281
     1
  0
CLASS
  1
XRECORD
  2
AcDbXrecord
  3
AutoCAD 2000
 90
        0
280
     0
281
     0
  0
CLASS
  1
LONG_TRANSACTION
  2
AcDbLongTransaction
  3
ObjectDBX Classes
 90
   -65536
280
     1
281
     0
  0
CLASS
  1
LWPOLYLINE
  2
AcDbPolyline
  3
AutoCAD 2000
 90
        0
280
     0
281
     1
  0
CLASS
  1
HATCH
  2
AcDbHatch
  3
AutoCAD 2000
 90
        0
280
     0
281
     1
  0
CLASS
  1
XRECORD
  2
AcDbXrecord
  3
AutoCAD 2000
 90
        0
280
     0
281
     0
  0
CLASS
  1
TABLESTYLE
  2
AcDbTableStyle
  3
ObjectDBX Classes
 90
     2047
280
     1
281
     0
  0
CLASS
  1
SORTENTSTABLE
  2
AcDbSortentsTable
  3
AutoCAD 2000
 90
        0
280
     0
281
     0
  0
ENDSEC
  0
SECTION
  2
TABLES
  0
TABLE
  2
VPORT
  5
1D
330
0
100
AcDbSymbolTable
 70
     2
  0
VPORT
  5
3A9
330
1D
100
AcDbSymbolTableRecord
100
AcDbViewportTableRecord
  2
*Active
 70
     0
 10
0.0
 20
0.0
 11
1.0
 21
1.0
 12
7.112570602213834
 22
15.73413886655693
 13
0.0
 23
0.0
 14
0.063
 24
0.063
 15
0.25
 25
0.25
 16
0.0
 26
0.0
 36
1.0
 17
0.0
 27
0.0
 37
0.0
 40
31.92504936377038
 41
1.814583333333333
 42
50.0
 43
0.0
 44
0.0
 50
0.0
 51
0.0
 71
     0
 72
   100
 73
     1
 74
     0
 75
     0
 76
     0
 77
     0
 78
     1
281
     0
 65
     1
110
0.0
120
0.0
130
0.0
111
1.0
121
0.0
131
0.0
112
0.0
122
1.0
132
0.0
 79
     0
146
0.0
  0
ENDTAB
  0
TABLE
  2
LTYPE
  5
18
330
0
100
AcDbSymbolTable
 70
     3
  0
LTYPE
  5
19
330
18
100
AcDbSymbolTableRecord
100
AcDbLinetypeTableRecord
  2
BYBLOCK
 70
     0
  3

 72
    65
 73
     0
 40
0.0
  0
LTYPE
  5
1A
330
18
100
AcDbSymbolTableRecord
100
AcDbLinetypeTableRecord
  2
BYLAYER
 70
     0
  3

 72
    65
 73
     0
 40
0.0
  0
LTYPE
  5
A
330
18
100
AcDbSymbolTableRecord
100
AcDbLinetypeTableRecord
  2
CONTINUOUS
 70
     0
  3
Solid line
 72
    65
 73
     0
 40
0.0
  0
LTYPE
  5
3B
330
18
100
AcDbSymbolTableRecord
100
AcDbLinetypeTableRecord
  2
HIDDEN2
 70
     0
  3
Hidden (.5x) _ _ _ _ _ _ _ _ _ _ _ _ _ _ _ _ _
 72
    65
 73
     2
 40
0.1875
 49
0.125
 74
     0
 49
-0.0625
 74
     0
  0
LTYPE
  5
359
330
18
100
AcDbSymbolTableRecord
100
AcDbLinetypeTableRecord
  2
HIDDEN
 70
     0
  3
Hidden __ __ __ __ __ __ __ __ __ __ __ __ __ _
 72
    65
 73
     2
 40
0.375
 49
0.25
 74
     0
 49
-0.125
 74
     0
  0
ENDTAB
  0
TABLE
  2
LAYER
  5
14
330
0
100
AcDbSymbolTable
 70
     2
  0
LAYER
  5
6
330
14
100
AcDbSymbolTableRecord
100
AcDbLayerTableRecord
  2
0
 70
     0
 62
     7
  6
CONTINUOUS
370
    -3
390
7
  0
ENDTAB
  0
TABLE
  2
STYLE
  5
15
330
0
100
AcDbSymbolTable
 70
     1
  0
STYLE
  5
16
330
15
100
AcDbSymbolTableRecord
100
AcDbTextStyleTableRecord
  2
STANDARD
 70
     0
 40
0.0
 41
1.0
 50
0.0
 71
     0
 42
0.27
  3
TXT
  4

  0
ENDTAB
  0
TABLE
  2
VIEW
  5
1B
330
0
100
AcDbSymbolTable
 70
     0
  0
ENDTAB
  0
TABLE
  2
UCS
  5
1C
330
0
100
AcDbSymbolTable
 70
     0
  0
ENDTAB
  0
TABLE
  2
APPID
  5
1F
330
0
100
AcDbSymbolTable
 70
     2
  0
APPID
  5
20
330
1F
100
AcDbSymbolTableRecord
100
AcDbRegAppTableRecord
  2
ACAD
 70
     0
  0
APPID
  5
38
330
1F
100
AcDbSymbolTableRecord
100
AcDbRegAppTableRecord
  2
_DIE112SSJYHX
 70
     0
  0
ENDTAB
  0
TABLE
  2
DIMSTYLE
  5
21
330
0
100
AcDbSymbolTable
 70
     1
100
AcDbDimStyleTable
  0
DIMSTYLE
105
28
330
21
100
AcDbSymbolTableRecord
100
AcDbDimStyleTableRecord
  2
STANDARD
 70
     0
  3

  4

340
16
  0
ENDTAB
  0
TABLE
  2
BLOCK_RECORD
  5
1
330
0
100
AcDbSymbolTable
 70
     2
  0
BLOCK_RECORD
  5
2
330
1
100
AcDbSymbolTableRecord
100
AcDbBlockTableRecord
  2
*MODEL_SPACE
340
C
  0
BLOCK_RECORD
  5
E
330
1
100
AcDbSymbolTableRecord
100
AcDbBlockTableRecord
  2
*PAPER_SPACE
340
13
  0
ENDTAB
  0
ENDSEC
  0
SECTION
  2
BLOCKS
  0
BLOCK
  5
5
330
2
100
AcDbEntity
  8
0
100
AcDbBlockBegin
  2
*MODEL_SPACE
 70
     0
 10
0.0
 20
0.0
 30
0.0
  3
*MODEL_SPACE
  1

  4

  0
ENDBLK
  5
B
330
2
100
AcDbEntity
  8
0
100
AcDbBlockEnd
  0
BLOCK
  5
11
330
E
100
AcDbEntity
 67
     1
  8
0
100
AcDbBlockBegin
  2
*PAPER_SPACE
 70
     0
 10
0.0
 20
0.0
 30
0.0
  3
*PAPER_SPACE
  1

  4

  0
ENDBLK
  5
12
330
E
100
AcDbEntity
 67
     1
  8
0
100
AcDbBlockEnd
  0
ENDSEC
  0
SECTION
  2
ENTITIES
  0
LINE
  5
18C
330
2
100
AcDbEntity
  8
0
100
AcDbLine
 10
0.8125000000000036
 20
13.23866374223519
 30
0.0
 11
0.8125000000000036
 21
0.1500000000000021
 31
0.0
  0
LINE
  5
18D
330
2
100
AcDbEntity
  8
0
100
AcDbLine
 10
-0.8125000000000036
 20
0.1500000000000021
 30
0.0
 11
-0.8125000000000036
 21
13.23866374223519
 31
0.0
  0
LINE
  5
18E
330
2
100
AcDbEntity
  8
0
100
AcDbLine
 10
0.8625000000000078
 20
13.225
 30
0.0
 11
0.8625000000000078
 21
0.1500000000000021
 31
0.0
  0
LINE
  5
18F
330
2
100
AcDbEntity
  8
0
100
AcDbLine
 10
-0.8625000000000007
 20
0.1500000000000021
 30
0.0
 11
-0.8625000000000007
 21
13.225
 31
0.0
  0
LINE
  5
190
330
2
100
AcDbEntity
  8
0
100
AcDbLine
 10
1.987500000000015
 20
13.47500000000001
 30
0.0
 11
1.987500000000015
 21
5.183142315092349
 31
0.0
  0
LINE
  5
191
330
2
100
AcDbEntity
  8
0
100
AcDbLine
 10
-1.987500000000022
 20
13.47500000000001
 30
0.0
 11
-1.987500000000022
 21
5.225786682236739
 31
0.0
  0
LINE
  5
192
330
2
100
AcDbEntity
  8
0
100
AcDbLine
 10
0.8574999999999058
 20
2.105896261652189
 30
0.0
 11
1.426199924399551
 21
2.918083925117939
 31
0.0
  0
ARC
  5
193
330
2
100
AcDbEntity
  8
0
100
AcDbCircle
 10
-0.6100000000000101
 20
3.500235042593337
 30
0.0
 40
1.002500000000003
100
AcDbArc
 50
180.0
 51
214.9999999999976
1001
_DIE112SSJYHX
1002
{
1000
comp_type
1000
DBL24
1000
material
1000
D-2
1000
thickness
1040
1.25
1000
mount
1000
SBP10
1000
mntlay
1000
DIE_SUB_PLATE
1002
}
  0
LINE
  5
194
330
2
100
AcDbEntity
  8
0
100
AcDbLine
 10
-0.9125000000000068
 20
2.184444402023059
 30
0.0
 11
-1.426199924399615
 21
2.918083925117939
 31
0.0
  0
LINE
  5
195
330
2
100
AcDbEntity
  8
0
100
AcDbLine
 10
0.9125000000000068
 20
2.268750000000102
 30
0.0
 11
0.912500000000005
 21
0.1500000000000021
 31
0.0
  0
LINE
  5
196
330
2
100
AcDbEntity
  8
0
100
AcDbLine
 10
-0.912500000000005
 20
0.1500000000000021
 30
0.0
 11
-0.9125000000000068
 21
2.268750000000102
 31
0.0
  0
LINE
  5
197
330
2
100
AcDbEntity
  8
0
100
AcDbLine
 10
0.0
 20
0.2009072925164102
 30
0.0
 11
-0.0541265877366186
 21
0.1009072925171832
 31
0.0
  0
LINE
  5
198
330
2
100
AcDbEntity
  8
0
100
AcDbLine
 10
0.0
 20
0.2009072925164102
 30
0.0
 11
-0.0541265877366186
 21
0.1009072925171832
 31
0.0
  0
LINE
  5
199
330
2
100
AcDbEntity
  8
0
100
AcDbLine
 10
0.7624999999999993
 20
0.1000000000000014
 30
0.0
 11
-0.7625000000000064
 21
0.1000000000000014
 31
0.0
  0
LINE
  5
19A
330
2
100
AcDbEntity
  8
0
100
AcDbLine
 10
-0.7625000000000064
 20
0.0500000000000007
 30
0.0
 11
0.7625000000000064
 21
0.0500000000000007
 31
0.0
  0
LINE
  5
19B
330
2
100
AcDbEntity
  8
0
100
AcDbLine
 10
-0.7625000000000064
 20
0.0
 30
0.0
 11
0.7625000000000064
 21
0.0
 31
0.0
  0
ARC
  5
19C
330
2
100
AcDbEntity
  8
0
100
AcDbCircle
 10
-0.7625000000000064
 20
0.1500000000000021
 30
0.0
 40
0.05
100
AcDbArc
 50
180.0
 51
270.0
  0
ARC
  5
19D
330
2
100
AcDbEntity
  8
0
100
AcDbCircle
 10
-0.7625000000000064
 20
0.1500000000000021
 30
0.0
 40
0.1
100
AcDbArc
 50
180.0
 51
270.0
  0
ARC
  5
19E
330
2
100
AcDbEntity
  8
0
100
AcDbCircle
 10
-0.7625000000000064
 20
0.1500000000000021
 30
0.0
 40
0.15
100
AcDbArc
 50
180.0
 51
270.0
  0
POINT
  5
19F
330
2
100
AcDbEntity
  8
0
  6
ByBlock
100
AcDbPoint
 10
-0.8125000000000036
 20
0.1500000000000021
 30
0.0
  0
LINE
  5
1A0
330
2
100
AcDbEntity
  8
0
100
AcDbLine
 10
-0.0935080210458636
 20
0.200738029159572
 30
0.0
 11
-0.0257468900588762
 21
0.1533393760167421
 31
0.0
  0
LINE
  5
1A1
330
2
100
AcDbEntity
  8
0
100
AcDbLine
 10
-0.0935080210463184
 20
0.1009072925171832
 30
0.0
 11
-0.0935080210458636
 21
0.200738029159572
 31
0.0
  0
LINE
  5
1A2
330
2
100
AcDbEntity
  8
0
100
AcDbLine
 10
0.093508021046091
 20
0.1009072925171832
 30
0.0
 11
0.093508021046091
 21
0.2007380291600267
 31
0.0
  0
LINE
  5
1A3
330
2
100
AcDbEntity
  8
0
100
AcDbLine
 10
0.093508021046091
 20
0.2007380291600267
 30
0.0
 11
0.0257468900595086
 21
0.153339376016481
 31
0.0
  0
LINE
  5
1A4
330
2
100
AcDbEntity
  8
0
100
AcDbLine
 10
0.0935080210460981
 20
0.1009072925171832
 30
0.0
 11
0.093508021046091
 21
0.2007380291600267
 31
0.0
  0
LINE
  5
1A5
330
2
100
AcDbEntity
  8
0
100
AcDbLine
 10
0.093508021046091
 20
0.2007380291600267
 30
0.0
 11
0.0257468900591498
 21
0.1533393760162305
 31
0.0
  0
LINE
  5
1A6
330
2
100
AcDbEntity
  8
0
100
AcDbLine
 10
0.0
 20
0.2009072925164102
 30
0.0
 11
0.0541265877366186
 21
0.1009072925171832
 31
0.0
  0
LINE
  5
1A7
330
2
100
AcDbEntity
  8
0
100
AcDbLine
 10
0.0
 20
0.2009072925164102
 30
0.0
 11
0.0541265877366186
 21
0.1009072925171832
 31
0.0
  0
LINE
  5
1A8
330
2
100
AcDbEntity
  8
0
100
AcDbLine
 10
0.8625000000000078
 20
0.5500000000000043
 30
0.0
 11
0.8625000000000078
 21
0.5500000000000043
 31
0.0
  0
ARC
  5
1A9
330
2
100
AcDbEntity
  8
0
100
AcDbCircle
 10
0.7624999999999993
 20
0.1500000000000021
 30
0.0
 40
0.05
100
AcDbArc
 50
270.0
 51
0.0
  0
ARC
  5
1AA
330
2
100
AcDbEntity
  8
0
100
AcDbCircle
 10
0.7625000000000064
 20
0.1500000000000021
 30
0.0
 40
0.1
100
AcDbArc
 50
270.0
 51
0.0
  0
ARC
  5
1AB
330
2
100
AcDbEntity
  8
0
100
AcDbCircle
 10
0.7625000000000064
 20
0.1500000000000021
 30
0.0
 40
0.15
100
AcDbArc
 50
270.0
 51
0.0
  0
POINT
  5
1AC
330
2
100
AcDbEntity
  8
0
  6
ByBlock
100
AcDbPoint
 10
0.7624999999999922
 20
0.1000000000000014
 30
0.0
  0
POINT
  5
1AD
330
2
100
AcDbEntity
  8
0
  6
ByBlock
100
AcDbPoint
 10
0.8125000000000036
 20
0.1500000000000021
 30
0.0
  0
LINE
  5
1AE
330
2
100
AcDbEntity
  8
0
100
AcDbLine
 10
-0.5838716692541919
 20
1.611267814541938
 30
0.0
 11
-0.7794698377051343
 21
2.571214164087087
 31
0.0
  0
LINE
  5
1AF
330
2
100
AcDbEntity
  8
0
100
AcDbLine
 10
-0.8125000000001972
 20
1.354224229201099
 30
0.0
 11
-0.5838716692541919
 21
1.611267814541938
 31
0.0
  0
ARC
  5
1B0
330
2
100
AcDbEntity
  8
0
100
AcDbCircle
 10
-0.8263421162571838
 20
0.9070099933112239
 30
0.0
 40
0.2315168730281418
100
AcDbArc
 50
273.4276901945888
 51
309.422898733768
  0
LINE
  5
1B1
330
2
100
AcDbEntity
  8
0
100
AcDbLine
 10
-0.7993198051492207
 20
0.9118074873596367
 30
0.0
 11
-0.6793198051493334
 21
0.7281678770934974
 31
0.0
  0
ARC
  5
1B2
330
2
100
AcDbEntity
  8
0
100
AcDbCircle
 10
-0.8263421162571447
 20
1.182009993311201
 30
0.0
 40
0.2315168730279693
100
AcDbArc
 50
273.4276901945818
 51
309.4228987337907
  0
LINE
  5
1B3
330
2
100
AcDbEntity
  8
0
100
AcDbLine
 10
-0.7993198051492225
 20
1.186807487359806
 30
0.0
 11
-0.6793198051493334
 21
1.003167877093667
 31
0.0
  0
ARC
  5
1B4
330
2
100
AcDbEntity
  8
0
100
AcDbCircle
 10
-0.767499999999897
 20
1.218627292517487
 30
0.0
 40
0.045
100
AcDbArc
 50
180.0
 51
225.0000000076272
  0
ARC
  5
1B5
330
2
100
AcDbEntity
  8
0
100
AcDbCircle
 10
-0.7674999999998953
 20
0.9436272925173181
 30
0.0
 40
0.045
100
AcDbArc
 50
180.0
 51
225.0000000076272
  0
ARC
  5
1B6
330
2
100
AcDbEntity
  8
0
100
AcDbCircle
 10
-0.8624999999999989
 20
1.706250000000097
 30
0.0
 40
0.0500000000000078
100
AcDbArc
 50
90.00000000000202
 51
179.9999999999918
  0
ARC
  5
1B7
330
2
100
AcDbEntity
  8
0
100
AcDbCircle
 10
-0.8624999999999989
 20
2.268750000000095
 30
0.0
 40
0.0500000000000078
100
AcDbArc
 50
90.00000000000202
 51
179.9999999999918
  0
LINE
  5
1B8
330
2
100
AcDbEntity
  8
0
100
AcDbLine
 10
-0.8124999999999716
 20
2.624936692781722
 30
0.0
 11
-0.7917005594447062
 21
2.596662264129583
 31
0.0
  0
ARC
  5
1B9
330
2
100
AcDbEntity
  8
0
100
AcDbCircle
 10
-0.8531216819596637
 20
2.551479211897975
 30
0.0
 40
0.07625
100
AcDbArc
 50
15.00000000003474
 51
36.3392133744043
  0
LINE
  5
1BA
330
2
100
AcDbEntity
  8
0
100
AcDbLine
 10
0.5838716692541919
 20
1.611267814541938
 30
0.0
 11
0.7794698377051343
 21
2.571214164087087
 31
0.0
  0
LINE
  5
1BB
330
2
100
AcDbEntity
  8
0
100
AcDbLine
 10
0.8125000000001972
 20
1.354224229201099
 30
0.0
 11
0.5838716692541919
 21
1.611267814541938
 31
0.0
  0
ARC
  5
1BC
330
2
100
AcDbEntity
  8
0
100
AcDbCircle
 10
0.8263421162571447
 20
1.182009993311201
 30
0.0
 40
0.2315168730279693
100
AcDbArc
 50
230.5771012662091
 51
266.5723098054182
  0
LINE
  5
1BD
330
2
100
AcDbEntity
  8
0
100
AcDbLine
 10
0.7993198051492225
 20
1.186807487359806
 30
0.0
 11
0.6793198051493334
 21
1.003167877093667
 31
0.0
  0
LINE
  5
1BE
330
2
100
AcDbEntity
  8
0
100
AcDbLine
 10
0.7993198051492207
 20
0.9118074873596367
 30
0.0
 11
0.6793198051493334
 21
0.7281678770934974
 31
0.0
  0
ARC
  5
1BF
330
2
100
AcDbEntity
  8
0
100
AcDbCircle
 10
0.8263421162571838
 20
0.9070099933112239
 30
0.0
 40
0.2315168730281418
100
AcDbArc
 50
230.577101266232
 51
266.5723098054112
  0
ARC
  5
1C0
330
2
100
AcDbEntity
  8
0
100
AcDbCircle
 10
0.767499999999897
 20
1.218627292517487
 30
0.0
 40
0.045
100
AcDbArc
 50
314.9999999923728
 51
0.0
  0
ARC
  5
1C1
330
2
100
AcDbEntity
  8
0
100
AcDbCircle
 10
0.8624999999999989
 20
2.268750000000095
 30
0.0
 40
0.0500000000000078
100
AcDbArc
 50
0.0000000000081492
 51
89.99999999999798
  0
ARC
  5
1C2
330
2
100
AcDbEntity
  8
0
100
AcDbCircle
 10
0.8574999999996429
 20
2.268750000000102
 30
0.0
 40
0.05
100
AcDbArc
 50
25.84193276185503
 51
90.0
  0
LINE
  5
1C3
330
2
100
AcDbEntity
  8
0
100
AcDbLine
 10
0.8124999999999716
 20
2.624936692781722
 30
0.0
 11
0.7917005594447062
 21
2.596662264129583
 31
0.0
  0
ARC
  5
1C4
330
2
100
AcDbEntity
  8
0
100
AcDbCircle
 10
0.8531216819596637
 20
2.551479211897975
 30
0.0
 40
0.07625
100
AcDbArc
 50
143.6607866255957
 51
164.9999999999652
  0
ARC
  5
1C5
330
2
100
AcDbEntity
  8
0
100
AcDbCircle
 10
-1.433249999999998
 20
7.756463756555155
 30
0.0
 40
0.03125
100
AcDbArc
 50
359.9999999999975
 51
119.9999999999993
  0
ARC
  5
1C6
330
2
100
AcDbEntity
  8
0
100
AcDbCircle
 10
-1.433249999999998
 20
7.56853624393394
 30
0.0
 40
0.03125
100
AcDbArc
 50
240.0000000000007
 51
0.0000000000024751
  0
LINE
  5
1C7
330
2
100
AcDbEntity
  8
0
100
AcDbLine
 10
-1.612500000000214
 20
3.468235042593028
 30
0.0
 11
-1.612500000000161
 21
4.393928752719125
 31
0.0
  0
ARC
  5
1C8
330
2
100
AcDbEntity
  8
0
100
AcDbCircle
 10
-1.485000000000159
 20
5.183142315092345
 30
0.0
 40
0.5025000000000001
100
AcDbArc
 50
180.0
 51
224.999999999981
1001
_DIE112SSJYHX
1002
{
1000
comp_type
1000
DBL24
1000
material
1000
D-2
1000
thickness
1040
1.25
1000
mount
1000
SBP10
1000
mntlay
1000
DIE_SUB_PLATE
1002
}
  0
LINE
  5
1C9
330
2
100
AcDbEntity
  8
0
100
AcDbLine
 10
-1.739965093079995
 20
4.726465093079975
 30
0.0
 11
-1.86373254654001
 21
4.850232546539987
 31
0.0
  0
ARC
  5
1CA
330
2
100
AcDbEntity
  8
0
100
AcDbCircle
 10
-2.110000000000159
 20
4.393928752719125
 30
0.0
 40
0.4975
100
AcDbArc
 50
0.0
 51
44.99999999998114
1001
_DIE112SSJYHX
1002
{
1000
comp_type
1000
DBL24
1000
material
1000
D-2
1000
thickness
1040
1.25
1000
mount
1000
SBP10
1000
mntlay
1000
DIE_SUB_PLATE
1002
}
  0
CIRCLE
  5
1CB
330
2
100
AcDbEntity
  8
0
  6
Continuous
100
AcDbCircle
 10
-1.737500000000022
 20
5.1
 30
0.0
 40
0.0855
  0
CIRCLE
  5
1CC
330
2
100
AcDbEntity
  8
0
  6
Continuous
100
AcDbCircle
 10
-1.737500000000022
 20
6.85
 30
0.0
 40
0.0855
  0
ARC
  5
1CD
330
2
100
AcDbEntity
  8
0
100
AcDbCircle
 10
-1.596000000000014
 20
7.662500000000007
 30
0.0
 40
0.03125
100
AcDbArc
 50
119.9999999999972
 51
240.0
  0
LINE
  5
1CE
330
2
100
AcDbEntity
  8
0
100
AcDbLine
 10
-1.448874999999998
 20
7.783527050423414
 30
0.0
 11
-1.611625000000014
 21
7.689563293868273
 31
0.0
  0
LINE
  5
1CF
330
2
100
AcDbEntity
  8
0
100
AcDbLine
 10
-1.448874999967249
 20
7.541472950064913
 30
0.0
 11
-1.611625000000014
 21
7.635436706131754
 31
0.0
  0
LINE
  5
1D0
330
2
100
AcDbEntity
  8
0
100
AcDbLine
 10
-0.8625000000000007
 20
5.22350635094611
 30
0.0
 11
-0.8125000000000036
 21
5.22350635094611
 31
0.0
  0
LINE
  5
1D1
330
2
100
AcDbEntity
  8
0
100
AcDbLine
 10
-0.8625000000000007
 20
5.007000000000001
 30
0.0
 11
-0.8125000000000036
 21
5.007000000000001
 31
0.0
  0
LINE
  5
1D2
330
2
100
AcDbEntity
  8
0
100
AcDbLine
 10
0.8125000000000036
 20
5.22350635094611
 30
0.0
 11
0.8625000000000078
 21
5.22350635094611
 31
0.0
  0
LINE
  5
1D3
330
2
100
AcDbEntity
  8
0
100
AcDbLine
 10
0.8125000000000036
 20
5.007000000000001
 30
0.0
 11
0.8625000000000078
 21
5.007000000000001
 31
0.0
  0
LINE
  5
1D4
330
2
100
AcDbEntity
  8
0
100
AcDbLine
 10
-1.402000000000012
 20
7.568536243952094
 30
0.0
 11
-1.401999999999998
 21
7.756463756555155
 31
0.0
  0
ARC
  5
1D5
330
2
100
AcDbEntity
  8
0
100
AcDbCircle
 10
0.609999999999939
 20
3.500235042593337
 30
0.0
 40
1.002500000000009
100
AcDbArc
 50
325.0000000000027
 51
0.0
1001
_DIE112SSJYHX
1002
{
1000
comp_type
1000
DBL24
1000
material
1000
D-2
1000
thickness
1040
1.25
1000
mount
1000
SBP10
1000
mntlay
1000
DIE_SUB_PLATE
1002
}
  0
LINE
  5
1D6
330
2
100
AcDbEntity
  8
0
100
AcDbLine
 10
1.612500000000033
 20
3.4682350425929
 30
0.0
 11
1.61250000000015
 21
4.393928752719125
 31
0.0
  0
ARC
  5
1D7
330
2
100
AcDbEntity
  8
0
100
AcDbCircle
 10
1.485000000000145
 20
5.183142315092349
 30
0.0
 40
0.5025000000000081
100
AcDbArc
 50
315.0000000000194
 51
359.9999999999998
1001
_DIE112SSJYHX
1002
{
1000
comp_type
1000
DBL24
1000
material
1000
D-2
1000
thickness
1040
1.25
1000
mount
1000
SBP10
1000
mntlay
1000
DIE_SUB_PLATE
1002
}
  0
ARC
  5
1D8
330
2
100
AcDbEntity
  8
0
100
AcDbCircle
 10
2.110000000000152
 20
4.393928752719125
 30
0.0
 40
0.4975
100
AcDbArc
 50
135.0000000000188
 51
180.0
1001
_DIE112SSJYHX
1002
{
1000
comp_type
1000
DBL24
1000
material
1000
D-2
1000
thickness
1040
1.25
1000
mount
1000
SBP10
1000
mntlay
1000
DIE_SUB_PLATE
1002
}
  0
LINE
  5
1D9
330
2
100
AcDbEntity
  8
0
100
AcDbLine
 10
1.758214376359728
 20
4.745714376359317
 30
0.0
 11
1.840321157546473
 21
4.827821157546268
 31
0.0
  0
CIRCLE
  5
1DA
330
2
100
AcDbEntity
  8
0
  6
Continuous
100
AcDbCircle
 10
1.737500000000015
 20
5.1
 30
0.0
 40
0.0855
  0
CIRCLE
  5
1DB
330
2
100
AcDbEntity
  8
0
  6
Continuous
100
AcDbCircle
 10
1.737500000000015
 20
6.85
 30
0.0
 40
0.0855
  0
ARC
  5
1DC
330
2
100
AcDbEntity
  8
0
100
AcDbCircle
 10
1.43324999999999
 20
7.56853624393394
 30
0.0
 40
0.03125
100
AcDbArc
 50
179.9999999999975
 51
299.9999999999993
  0
ARC
  5
1DD
330
2
100
AcDbEntity
  8
0
100
AcDbCircle
 10
1.596000000000007
 20
7.662500000000007
 30
0.0
 40
0.03125
100
AcDbArc
 50
299.9999999999999
 51
60.00000000000284
  0
ARC
  5
1DE
330
2
100
AcDbEntity
  8
0
100
AcDbCircle
 10
1.43324999999999
 20
7.756463756555155
 30
0.0
 40
0.03125
100
AcDbArc
 50
60.00000000000076
 51
180.0000000000025
  0
LINE
  5
1DF
330
2
100
AcDbEntity
  8
0
100
AcDbLine
 10
1.448874999967242
 20
7.541472950064913
 30
0.0
 11
1.611625000000007
 21
7.635436706131754
 31
0.0
  0
LINE
  5
1E0
330
2
100
AcDbEntity
  8
0
100
AcDbLine
 10
1.402000000000005
 20
7.568536243952094
 30
0.0
 11
1.40199999999999
 21
7.756463756555155
 31
0.0
  0
LINE
  5
1E1
330
2
100
AcDbEntity
  8
0
100
AcDbLine
 10
1.44887499999999
 20
7.783527050423414
 30
0.0
 11
1.611625000000007
 21
7.689563293868273
 31
0.0
  0
LINE
  5
1E2
330
2
100
AcDbEntity
  8
0
100
AcDbLine
 10
1.112500000000001
 20
14.15
 30
0.0
 11
1.487500000000008
 21
14.15
 31
0.0
  0
CIRCLE
  5
1E3
330
2
100
AcDbEntity
  8
0
  6
Continuous
100
AcDbCircle
 10
-1.737500000000022
 20
10.35
 30
0.0
 40
0.0855
  0
CIRCLE
  5
1E4
330
2
100
AcDbEntity
  8
0
  6
Continuous
100
AcDbCircle
 10
-1.737500000000022
 20
8.6
 30
0.0
 40
0.0855
  0
CIRCLE
  5
1E5
330
2
100
AcDbEntity
  8
0
  6
Continuous
100
AcDbCircle
 10
-1.737500000000022
 20
11.85
 30
0.0
 40
0.0855
  0
LINE
  5
1E6
330
2
100
AcDbEntity
  8
0
100
AcDbLine
 10
-1.187250000000173
 20
12.03238834764799
 30
0.0
 11
-1.187250000000166
 21
12.7875
 31
0.0
  0
LINE
  5
1E7
330
2
100
AcDbEntity
  8
0
100
AcDbLine
 10
-1.375250000000168
 20
12.7875
 30
0.0
 11
-1.375250000000168
 21
12.03238834764832
 31
0.0
  0
LINE
  5
1E8
330
2
100
AcDbEntity
  8
0
100
AcDbLine
 10
-1.28124999999984
 20
11.9125
 30
0.0
 11
-1.205555826176013
 21
11.98819417382383
 31
0.0
  0
LINE
  5
1E9
330
2
100
AcDbEntity
  8
0
100
AcDbLine
 10
-1.281250000000167
 20
11.9125
 30
0.0
 11
-1.356944173824328
 21
11.98819417382416
 31
0.0
  0
ARC
  5
1EA
330
2
100
AcDbEntity
  8
0
100
AcDbCircle
 10
-1.312750000000175
 20
12.03238834764832
 30
0.0
 40
0.0625
100
AcDbArc
 50
180.0
 51
224.9999999999999
  0
ARC
  5
1EB
330
2
100
AcDbEntity
  8
0
100
AcDbCircle
 10
-1.249750000000173
 20
12.03238834764799
 30
0.0
 40
0.0625
100
AcDbArc
 50
314.9999999999995
 51
359.9999999999998
  0
LINE
  5
1EC
330
2
100
AcDbEntity
  8
0
100
AcDbLine
 10
1.187250000000173
 20
12.03238834764799
 30
0.0
 11
1.187250000000166
 21
12.7875
 31
0.0
  0
LINE
  5
1ED
330
2
100
AcDbEntity
  8
0
100
AcDbLine
 10
1.375250000000168
 20
12.7875
 30
0.0
 11
1.375250000000168
 21
12.03238834764832
 31
0.0
  0
LINE
  5
1EE
330
2
100
AcDbEntity
  8
0
100
AcDbLine
 10
1.28124999999984
 20
11.9125
 30
0.0
 11
1.205555826176013
 21
11.98819417382383
 31
0.0
  0
LINE
  5
1EF
330
2
100
AcDbEntity
  8
0
100
AcDbLine
 10
1.281250000000167
 20
11.9125
 30
0.0
 11
1.356944173824328
 21
11.98819417382416
 31
0.0
  0
ARC
  5
1F0
330
2
100
AcDbEntity
  8
0
100
AcDbCircle
 10
1.312750000000168
 20
12.03238834764832
 30
0.0
 40
0.0625
100
AcDbArc
 50
315.0000000000001
 51
0.000000000000007
  0
ARC
  5
1F1
330
2
100
AcDbEntity
  8
0
100
AcDbCircle
 10
1.249750000000173
 20
12.03238834764799
 30
0.0
 40
0.0625
100
AcDbArc
 50
180.0000000000002
 51
225.0000000000005
  0
LINE
  5
1F2
330
2
100
AcDbEntity
  8
0
100
AcDbLine
 10
-1.112500000000001
 20
14.15
 30
0.0
 11
-1.487500000000022
 21
14.15
 31
0.0
  0
LINE
  5
1F3
330
2
100
AcDbEntity
  8
0
100
AcDbLine
 10
-1.487500000000008
 20
13.72499999999999
 30
0.0
 11
-1.487500000000022
 21
14.15
 31
0.0
  0
LINE
  5
1F4
330
2
100
AcDbEntity
  8
0
100
AcDbLine
 10
-1.987500000000022
 20
13.47500000000001
 30
0.0
 11
-1.737500000000022
 21
13.72500000000001
 31
0.0
  0
CIRCLE
  5
1F5
330
2
100
AcDbEntity
  8
0
  6
Continuous
100
AcDbCircle
 10
-1.737500000000022
 20
12.97499999999999
 30
0.0
 40
0.0855
  0
LINE
  5
1F6
330
2
100
AcDbEntity
  8
0
100
AcDbLine
 10
-1.487500000000022
 20
13.72500000000001
 30
0.0
 11
-1.737500000000022
 21
13.72500000000001
 31
0.0
  0
LINE
  5
1F7
330
2
100
AcDbEntity
  8
0
100
AcDbLine
 10
-1.112500000000001
 20
13.725
 30
0.0
 11
-1.112500000000001
 21
14.15
 31
0.0
  0
LINE
  5
1F8
330
2
100
AcDbEntity
  8
0
100
AcDbLine
 10
-0.8625000000000007
 20
13.225
 30
0.0
 11
-1.112500000000001
 21
13.63307763843376
 31
0.0
  0
LINE
  5
1F9
330
2
100
AcDbEntity
  8
0
100
AcDbLine
 10
-0.8125000000000036
 20
13.23866374223519
 30
0.0
 11
-1.069864720043658
 21
13.65919722692676
 31
0.0
  0
LINE
  5
1FA
330
2
100
AcDbEntity
  8
0
100
AcDbLine
 10
-0.8625000000000007
 20
13.37303399102908
 30
0.0
 11
-0.8625000000000007
 21
13.725
 31
0.0
  0
ARC
  5
1FB
330
2
100
AcDbEntity
  8
0
100
AcDbCircle
 10
-0.8124999999999965
 20
13.225
 30
0.0
 40
0.15625
100
AcDbArc
 50
137.3276934388401
 51
251.3370751150561
  0
ARC
  5
1FC
330
2
100
AcDbEntity
  8
0
100
AcDbCircle
 10
-0.8124999999999965
 20
13.225
 30
0.0
 40
0.15625
100
AcDbArc
 50
108.6629248849441
 51
118.8501228964894
  0
LINE
  5
1FD
330
2
100
AcDbEntity
  8
0
100
AcDbLine
 10
-0.8625000000000007
 20
13.725
 30
0.0
 11
-1.112500000000001
 21
13.725
 31
0.0
  0
LWPOLYLINE
  5
1FE
330
2
100
AcDbEntity
  8
0
  6
Continuous
100
AcDbPolyline
 90
        4
 70
     1
 43
0.0
 10
-1.365256426651641
 20
13.84999999999998
 10
-1.234743573348403
 20
13.84999999999998
 10
-1.234743573348403
 20
13.59999999999998
 10
-1.365256426651641
 20
13.59999999999998
  0
LINE
  5
1FF
330
2
100
AcDbEntity
  8
0
100
AcDbLine
 10
-1.112500000000001
 20
13.63307763843376
 30
0.0
 11
-1.069864720043658
 21
13.65919722692676
 31
0.0
  0
LINE
  5
200
330
2
100
AcDbEntity
  8
0
100
AcDbLine
 10
1.112500000000008
 20
13.725
 30
0.0
 11
1.112500000000008
 21
14.15
 31
0.0
  0
LINE
  5
201
330
2
100
AcDbEntity
  8
0
100
AcDbLine
 10
0.8125000000000036
 20
13.23866374223519
 30
0.0
 11
1.069864720043658
 21
13.65919722692676
 31
0.0
  0
LINE
  5
202
330
2
100
AcDbEntity
  8
0
100
AcDbLine
 10
0.8625000000000078
 20
13.225
 30
0.0
 11
1.112500000000008
 21
13.63307763843376
 31
0.0
  0
LINE
  5
203
330
2
100
AcDbEntity
  8
0
100
AcDbLine
 10
0.8625000000000078
 20
13.37303399102908
 30
0.0
 11
0.8625000000000078
 21
13.725
 31
0.0
  0
ARC
  5
204
330
2
100
AcDbEntity
  8
0
100
AcDbCircle
 10
0.8125000000000036
 20
13.225
 30
0.0
 40
0.15625
100
AcDbArc
 50
61.14987710351321
 51
71.33707511505588
  0
ARC
  5
205
330
2
100
AcDbEntity
  8
0
100
AcDbCircle
 10
0.8125000000000036
 20
13.225
 30
0.0
 40
0.15625
100
AcDbArc
 50
288.6629248849412
 51
42.67230656116108
  0
LINE
  5
206
330
2
100
AcDbEntity
  8
0
100
AcDbLine
 10
0.8625000000000078
 20
13.725
 30
0.0
 11
1.112500000000008
 21
13.725
 31
0.0
  0
LWPOLYLINE
  5
207
330
2
100
AcDbEntity
  8
0
  6
Continuous
100
AcDbPolyline
 90
        4
 70
     1
 43
0.0
 10
1.234743573348396
 20
13.85000000000001
 10
1.365256426651634
 20
13.85000000000001
 10
1.365256426651634
 20
13.60000000000001
 10
1.234743573348396
 20
13.60000000000001
  0
LINE
  5
208
330
2
100
AcDbEntity
  8
0
100
AcDbLine
 10
1.112500000000008
 20
13.63307763843376
 30
0.0
 11
1.069864720043658
 21
13.65919722692676
 31
0.0
  0
CIRCLE
  5
209
330
2
100
AcDbEntity
  8
0
  6
Continuous
100
AcDbCircle
 10
1.737500000000015
 20
10.35
 30
0.0
 40
0.0855
  0
CIRCLE
  5
20A
330
2
100
AcDbEntity
  8
0
  6
Continuous
100
AcDbCircle
 10
1.737500000000015
 20
8.6
 30
0.0
 40
0.0855
  0
CIRCLE
  5
20B
330
2
100
AcDbEntity
  8
0
  6
Continuous
100
AcDbCircle
 10
1.737500000000015
 20
11.85
 30
0.0
 40
0.0855
  0
LINE
  5
20C
330
2
100
AcDbEntity
  8
0
100
AcDbLine
 10
1.487500000000015
 20
13.72500000000001
 30
0.0
 11
1.487500000000015
 21
14.15
 31
0.0
  0
LINE
  5
20D
330
2
100
AcDbEntity
  8
0
100
AcDbLine
 10
1.987500000000015
 20
13.47500000000001
 30
0.0
 11
1.737500000000015
 21
13.72500000000001
 31
0.0
  0
CIRCLE
  5
20E
330
2
100
AcDbEntity
  8
0
  6
Continuous
100
AcDbCircle
 10
1.737500000000015
 20
12.97499999999999
 30
0.0
 40
0.0855
  0
LINE
  5
20F
330
2
100
AcDbEntity
  8
0
100
AcDbLine
 10
1.487500000000015
 20
13.72500000000001
 30
0.0
 11
1.737500000000015
 21
13.72500000000001
 31
0.0
  0
LINE
  5
210
330
2
100
AcDbEntity
  8
0
  6
Continuous
100
AcDbLine
 10
1.555475413175451
 20
21.73393075500108
 30
0.0
 11
1.367975413175451
 21
21.73393075500108
 31
0.0
  0
LINE
  5
211
330
2
100
AcDbEntity
  8
0
100
AcDbLine
 10
0.9085000000000107
 20
21.0004307550011
 30
0.0
 11
1.987500000000022
 21
21.00043075500108
 31
0.0
  0
LINE
  5
212
330
2
100
AcDbEntity
  8
0
  6
Continuous
100
AcDbLine
 10
-1.555475413175451
 20
21.73393075500108
 30
0.0
 11
-1.367975413175451
 21
21.73393075500108
 31
0.0
  0
LINE
  5
213
330
2
100
AcDbEntity
  8
0
100
AcDbLine
 10
-0.9085000000000107
 20
21.0004307550011
 30
0.0
 11
-1.987500000000022
 21
21.00043075500108
 31
0.0
  0
LINE
  5
214
330
2
100
AcDbEntity
  8
0
  6
Continuous
100
AcDbLine
 10
-1.649225413175461
 20
21.17143075500109
 30
0.0
 11
-1.555475413175451
 21
21.73393075500108
 31
0.0
  0
LINE
  5
215
330
2
100
AcDbEntity
  8
0
100
AcDbLine
 10
-1.649225413175461
 20
21.04643075500109
 30
0.0
 11
-1.987500000000022
 21
21.04643075500108
 31
0.0
  0
LINE
  5
216
330
2
100
AcDbEntity
  8
0
100
AcDbLine
 10
-1.987500000000022
 20
21.04643075500108
 30
0.0
 11
-1.987500000000022
 21
21.00043075500108
 31
0.0
  0
LINE
  5
217
330
2
100
AcDbEntity
  8
0
100
AcDbLine
 10
-1.737500000000015
 20
21.04643075500109
 30
0.0
 11
-1.737500000000015
 21
21.00043075500109
 31
0.0
  0
LINE
  5
218
330
2
100
AcDbEntity
  8
0
  6
Continuous
100
AcDbLine
 10
-1.649225413175461
 20
21.17143075500109
 30
0.0
 11
-1.649225413175461
 21
21.0004307550011
 31
0.0
  0
LINE
  5
219
330
2
100
AcDbEntity
  8
0
100
AcDbLine
 10
0.8165000000000084
 20
18.7964307550011
 30
0.0
 11
0.8165000000000084
 21
20.9544307550011
 31
0.0
  0
LINE
  5
21A
330
2
100
AcDbEntity
  8
0
100
AcDbLine
 10
-0.8630064550718153
 20
20.17543075500107
 30
0.0
 11
-1.113006455071822
 21
20.42543075500108
 31
0.0
  0
LINE
  5
21B
330
2
100
AcDbEntity
  8
0
100
AcDbLine
 10
-0.8165000000000084
 20
20.17543075500107
 30
0.0
 11
-1.066500000000016
 21
20.42543075500108
 31
0.0
  0
LINE
  5
21C
330
2
100
AcDbEntity
  8
0
100
AcDbLine
 10
-0.8165000000000084
 20
18.7964307550011
 30
0.0
 11
-0.8165000000000084
 21
20.9544307550011
 31
0.0
  0
LINE
  5
21D
330
2
100
AcDbEntity
  8
0
100
AcDbLine
 10
0.8164999999999978
 20
20.17543075500106
 30
0.0
 11
1.066500000000008
 21
20.42543075500106
 31
0.0
  0
LINE
  5
21E
330
2
100
AcDbEntity
  8
0
100
AcDbLine
 10
0.8630064550718046
 20
20.17543075500106
 30
0.0
 11
1.113006455071815
 21
20.42543075500106
 31
0.0
  0
ARC
  5
21F
330
2
100
AcDbEntity
  8
0
100
AcDbCircle
 10
-0.0016830758308508
 20
19.90163378011291
 30
0.0
 40
0.03125
100
AcDbArc
 50
30.00000000000066
 51
150.0000000000024
  0
ARC
  5
220
330
2
100
AcDbEntity
  8
0
100
AcDbCircle
 10
-0.0016830758119788
 20
19.93150918431299
 30
0.0
 40
0.0390625
100
AcDbArc
 50
30.00000000000066
 51
150.0000000000024
  0
LINE
  5
221
330
2
100
AcDbEntity
  8
0
100
AcDbLine
 10
-0.0956468321702033
 20
19.70763378012863
 30
0.0
 11
0.0922806803575114
 21
19.70763377990114
 31
0.0
  0
LINE
  5
222
330
2
100
AcDbEntity
  8
0
100
AcDbLine
 10
-0.1191377712361685
 20
19.68900918433264
 30
0.0
 11
0.1157716194234766
 21
19.68900918404827
 31
0.0
  0
LINE
  5
223
330
2
100
AcDbEntity
  8
0
100
AcDbLine
 10
-0.722781018764465
 20
18.79643075500109
 30
0.0
 11
0.722781018764465
 21
18.79643075500109
 31
0.0
  0
LINE
  5
224
330
2
100
AcDbEntity
  8
0
100
AcDbLine
 10
-0.8625000000000078
 20
18.7964307550011
 30
0.0
 11
-0.8625000000000114
 21
20.17543075500107
 31
0.0
  0
ARC
  5
225
330
2
100
AcDbEntity
  8
0
100
AcDbCircle
 10
-0.785281018764465
 20
18.79643075500109
 30
0.0
 40
0.0625
100
AcDbArc
 50
0.0000000000032569
 51
90.0
  0
LINE
  5
226
330
2
100
AcDbEntity
  8
0
100
AcDbLine
 10
-0.8165000000000084
 20
18.85893075500109
 30
0.0
 11
-0.785281018764465
 21
18.85893075500109
 31
0.0
  0
LINE
  5
227
330
2
100
AcDbEntity
  8
0
100
AcDbLine
 10
-0.8165000000000084
 20
18.7964307550011
 30
0.0
 11
-0.8625000000000078
 21
18.7964307550011
 31
0.0
  0
ARC
  5
228
330
2
100
AcDbEntity
  8
0
100
AcDbCircle
 10
-0.8165000000000084
 20
19.79643075500109
 30
0.0
 40
0.1874999999999982
100
AcDbArc
 50
270.0
 51
90.0
  0
LINE
  5
229
330
2
100
AcDbEntity
  8
0
100
AcDbLine
 10
-0.8165000000000084
 20
19.8779307550011
 30
0.0
 11
-0.8165000000000084
 21
19.6229307550011
 31
0.0
  0
ARC
  5
22A
330
2
100
AcDbEntity
  8
0
100
AcDbCircle
 10
-0.9241882375535262
 20
19.59643075500106
 30
0.0
 40
0.1875
100
AcDbArc
 50
306.8698976458377
 51
8.981623935599469
  0
LINE
  5
22B
330
2
100
AcDbEntity
  8
0
100
AcDbLine
 10
-0.8163903678130318
 20
19.52393075500109
 30
0.0
 11
-0.8625000000000078
 21
19.5239307550011
 31
0.0
  0
LINE
  5
22C
330
2
100
AcDbEntity
  8
0
  6
Continuous
100
AcDbLine
 10
-0.9167739731101321
 20
19.3406395010521
 30
0.0
 11
-0.9172581758671612
 21
19.25282032225522
 31
0.0
  0
ARC
  5
22D
330
2
100
AcDbEntity
  8
0
100
AcDbCircle
 10
-0.8672589358536573
 20
19.25254464477571
 30
0.0
 40
0.0500000000000078
100
AcDbArc
 50
179.6840952777882
 51
274.2726610135184
  0
LINE
  5
22E
330
2
100
AcDbEntity
  8
0
100
AcDbLine
 10
-0.8672580522697224
 20
19.25270489916235
 30
0.0
 11
-0.8672580522697224
 21
19.25270489916235
 31
0.0
  0
ARC
  5
22F
330
2
100
AcDbEntity
  8
0
100
AcDbCircle
 10
-0.8667747330966265
 20
19.34036382357257
 30
0.0
 40
0.0500000000000078
100
AcDbArc
 50
85.09552954204186
 51
179.6840952777719
  0
LINE
  5
230
330
2
100
AcDbEntity
  8
0
  6
Continuous
100
AcDbLine
 10
-0.8630064550718153
 20
20.17543075500107
 30
0.0
 11
-0.8165000000000084
 21
20.17543075500107
 31
0.0
  0
POINT
  5
231
330
2
100
AcDbEntity
  8
0
  6
ByBlock
100
AcDbPoint
 10
-0.8165000000000084
 20
19.8779307550011
 30
0.0
  0
LINE
  5
232
330
2
100
AcDbEntity
  8
0
100
AcDbLine
 10
-0.8165000000000084
 20
19.7504307550011
 30
0.0
 11
-0.8625000000000078
 21
19.75043075500109
 31
0.0
  0
ARC
  5
233
330
2
100
AcDbEntity
  8
0
100
AcDbCircle
 10
-0.9241882375535262
 20
19.99643075500104
 30
0.0
 40
0.1875
100
AcDbArc
 50
351.018376064427
 51
53.13010235415406
  0
LINE
  5
234
330
2
100
AcDbEntity
  8
0
100
AcDbLine
 10
-0.1227101260006336
 20
19.75450878012863
 30
0.0
 11
-0.0287463696991175
 21
19.91725878011291
 31
0.0
  0
ARC
  5
235
330
2
100
AcDbEntity
  8
0
100
AcDbCircle
 10
-0.1191377712002364
 20
19.728071684313
 30
0.0
 40
0.0390625
100
AcDbArc
 50
149.9999999999975
 51
269.9999999999992
  0
LINE
  5
236
330
2
100
AcDbEntity
  8
0
100
AcDbLine
 10
-0.1529668885242046
 20
19.74760293433264
 30
0.0
 11
-0.0355121931473086
 21
19.95104043431299
 31
0.0
  0
ARC
  5
237
330
2
100
AcDbEntity
  8
0
100
AcDbCircle
 10
-0.0956468321414583
 20
19.73888378011292
 30
0.0
 40
0.03125
100
AcDbArc
 50
149.9999999999975
 51
269.9999999999992
  0
LINE
  5
238
330
2
100
AcDbEntity
  8
0
100
AcDbLine
 10
0.8625000000000078
 20
18.7964307550011
 30
0.0
 11
0.8625000000000096
 21
20.17543075500106
 31
0.0
  0
LINE
  5
239
330
2
100
AcDbEntity
  8
0
100
AcDbLine
 10
0.8165000000000084
 20
18.7964307550011
 30
0.0
 11
0.8625000000000078
 21
18.7964307550011
 31
0.0
  0
LINE
  5
23A
330
2
100
AcDbEntity
  8
0
100
AcDbLine
 10
0.8165000000000084
 20
18.85893075500109
 30
0.0
 11
0.785281018764465
 21
18.85893075500109
 31
0.0
  0
ARC
  5
23B
330
2
100
AcDbEntity
  8
0
100
AcDbCircle
 10
0.785281018764465
 20
18.79643075500109
 30
0.0
 40
0.0625
100
AcDbArc
 50
90.0
 51
179.9999999999967
  0
ARC
  5
23C
330
2
100
AcDbEntity
  8
0
100
AcDbCircle
 10
0.8165000000000013
 20
19.79643075500109
 30
0.0
 40
0.1874999999999982
100
AcDbArc
 50
90.0
 51
270.0
  0
LINE
  5
23D
330
2
100
AcDbEntity
  8
0
100
AcDbLine
 10
0.0253802180374088
 20
19.91725878011291
 30
0.0
 11
0.1193439742257709
 21
19.75450877990113
 31
0.0
  0
LINE
  5
23E
330
2
100
AcDbEntity
  8
0
100
AcDbLine
 10
0.0321460415233474
 20
19.95104043431299
 30
0.0
 11
0.1496007367587993
 21
19.74760293404827
 31
0.0
  0
ARC
  5
23F
330
2
100
AcDbEntity
  8
0
100
AcDbCircle
 10
0.0922806803575078
 20
19.73888377990113
 30
0.0
 40
0.03125
100
AcDbArc
 50
270.0
 51
30.00000000000286
  0
ARC
  5
240
330
2
100
AcDbEntity
  8
0
100
AcDbCircle
 10
0.115771619423473
 20
19.72807168404826
 30
0.0
 40
0.0390625
100
AcDbArc
 50
270.0
 51
30.00000000000286
  0
LINE
  5
241
330
2
100
AcDbEntity
  8
0
100
AcDbLine
 10
0.8163903678130318
 20
19.52393075500109
 30
0.0
 11
0.8625000000000078
 21
19.5239307550011
 31
0.0
  0
ARC
  5
242
330
2
100
AcDbEntity
  8
0
100
AcDbCircle
 10
0.9241882375535191
 20
19.59643075500106
 30
0.0
 40
0.1875
100
AcDbArc
 50
171.0183760644005
 51
233.1301023541622
  0
LINE
  5
243
330
2
100
AcDbEntity
  8
0
  6
Continuous
100
AcDbLine
 10
0.9167739731101321
 20
19.3406395010521
 30
0.0
 11
0.9172581758671612
 21
19.25282032225522
 31
0.0
  0
LINE
  5
244
330
2
100
AcDbEntity
  8
0
100
AcDbLine
 10
0.8672580522697224
 20
19.25270489916235
 30
0.0
 11
0.8672580522697224
 21
19.25270489916235
 31
0.0
  0
ARC
  5
245
330
2
100
AcDbEntity
  8
0
100
AcDbCircle
 10
0.8672589358536573
 20
19.25254464477571
 30
0.0
 40
0.0500000000000078
100
AcDbArc
 50
265.7273389864816
 51
0.3159047222117501
  0
ARC
  5
246
330
2
100
AcDbEntity
  8
0
100
AcDbCircle
 10
0.8667747330966265
 20
19.34036382357257
 30
0.0
 40
0.0500000000000078
100
AcDbArc
 50
0.3159047222280343
 51
94.90447045795816
  0
LINE
  5
247
330
2
100
AcDbEntity
  8
0
  6
Continuous
100
AcDbLine
 10
0.8630064550718046
 20
20.17543075500106
 30
0.0
 11
0.8164999999999978
 21
20.17543075500106
 31
0.0
  0
LINE
  5
248
330
2
100
AcDbEntity
  8
0
100
AcDbLine
 10
0.8165000000000084
 20
19.7504307550011
 30
0.0
 11
0.8625000000000078
 21
19.75043075500109
 31
0.0
  0
ARC
  5
249
330
2
100
AcDbEntity
  8
0
100
AcDbCircle
 10
0.9241882375535191
 20
19.99643075500104
 30
0.0
 40
0.1875
100
AcDbArc
 50
126.8698976458459
 51
188.981623935573
  0
LINE
  5
24A
330
2
100
AcDbEntity
  8
0
100
AcDbLine
 10
-0.722781018764465
 20
20.79643075500109
 30
0.0
 11
0.722781018764465
 21
20.79643075500109
 31
0.0
  0
LINE
  5
24B
330
2
100
AcDbEntity
  8
0
  6
Continuous
100
AcDbLine
 10
-1.367975413175451
 20
21.73393075500108
 30
0.0
 11
-1.27422541317544
 21
21.17143075500109
 31
0.0
  0
ARC
  5
24C
330
2
100
AcDbEntity
  8
0
100
AcDbCircle
 10
-0.785281018764465
 20
20.79643075500109
 30
0.0
 40
0.0625
100
AcDbArc
 50
270.0
 51
0.0
  0
LINE
  5
24D
330
2
100
AcDbEntity
  8
0
100
AcDbLine
 10
-1.113006455071822
 20
20.42543075500108
 30
0.0
 11
-1.113006455071822
 21
20.93532625520795
 31
0.0
  0
LINE
  5
24E
330
2
100
AcDbEntity
  8
0
100
AcDbLine
 10
-1.063006455071825
 20
20.42193721007289
 30
0.0
 11
-1.063006455071825
 21
20.93532625520795
 31
0.0
  0
LINE
  5
24F
330
2
100
AcDbEntity
  8
0
100
AcDbLine
 10
-1.187250000000171
 20
20.62887286573331
 30
0.0
 11
-1.187250000000168
 21
21.00043075500109
 31
0.0
  0
LINE
  5
250
330
2
100
AcDbEntity
  8
0
100
AcDbLine
 10
-1.375250000000168
 20
21.00043075500109
 30
0.0
 11
-1.375250000000168
 21
20.62887286573331
 31
0.0
  0
LINE
  5
251
330
2
100
AcDbEntity
  8
0
  6
Continuous
100
AcDbLine
 10
-1.113006455071822
 20
20.42543075500108
 30
0.0
 11
-1.066500000000016
 21
20.42543075500108
 31
0.0
  0
ELLIPSE
  5
252
330
2
100
AcDbEntity
  8
0
  6
Continuous
100
AcDbEllipse
 10
-1.281250000000171
 20
20.62887286573348
 30
0.0
 11
-0.09399999999999853
 21
1.705302565824240E-13
 31
0.0
210
0.0
220
0.0
230
1.0
 40
0.194197817966139
 41
0.0
 42
3.141592653589793
  0
LINE
  5
253
330
2
100
AcDbEntity
  8
0
100
AcDbLine
 10
-0.8165000000000084
 20
20.73393075500109
 30
0.0
 11
-0.785281018764465
 21
20.73393075500109
 31
0.0
  0
LINE
  5
254
330
2
100
AcDbEntity
  8
0
100
AcDbLine
 10
-1.113006455071822
 20
20.93532625520795
 30
0.0
 11
-0.8165000000000084
 21
20.93532625520795
 31
0.0
  0
LINE
  5
255
330
2
100
AcDbEntity
  8
0
100
AcDbLine
 10
-0.9085000000000107
 20
21.0464307550011
 30
0.0
 11
-1.27422541317544
 21
21.0464307550011
 31
0.0
  0
LINE
  5
256
330
2
100
AcDbEntity
  8
0
  6
Continuous
100
AcDbLine
 10
-1.27422541317544
 20
21.17143075500109
 30
0.0
 11
-1.27422541317544
 21
21.00043075500109
 31
0.0
  0
ARC
  5
257
330
2
100
AcDbEntity
  8
0
100
AcDbCircle
 10
-0.9085000000000107
 20
20.9544307550011
 30
0.0
 40
0.046
100
AcDbArc
 50
0.0000000000001018
 51
90.0000000000002
  0
LINE
  5
258
330
2
100
AcDbEntity
  8
0
100
AcDbLine
 10
-0.8625000000000114
 20
20.93532625520794
 30
0.0
 11
-0.8625000000000114
 21
20.9544307550011
 31
0.0
  0
ARC
  5
259
330
2
100
AcDbEntity
  8
0
100
AcDbCircle
 10
-0.9085000000000107
 20
20.9544307550011
 30
0.0
 40
0.092
100
AcDbArc
 50
0.0000000000001018
 51
90.0000000000002
  0
LINE
  5
25A
330
2
100
AcDbEntity
  8
0
  6
Continuous
100
AcDbLine
 10
1.367975413175451
 20
21.73393075500108
 30
0.0
 11
1.27422541317544
 21
21.17143075500109
 31
0.0
  0
LINE
  5
25B
330
2
100
AcDbEntity
  8
0
100
AcDbLine
 10
1.187250000000171
 20
20.62887286573331
 30
0.0
 11
1.187250000000168
 21
21.00043075500109
 31
0.0
  0
LINE
  5
25C
330
2
100
AcDbEntity
  8
0
100
AcDbLine
 10
1.375250000000168
 20
21.00043075500109
 30
0.0
 11
1.375250000000168
 21
20.62887286573331
 31
0.0
  0
LINE
  5
25D
330
2
100
AcDbEntity
  8
0
100
AcDbLine
 10
1.063006455071818
 20
20.42193721007287
 30
0.0
 11
1.063006455071827
 21
20.93532625520793
 31
0.0
  0
LINE
  5
25E
330
2
100
AcDbEntity
  8
0
100
AcDbLine
 10
1.113006455071815
 20
20.42543075500106
 30
0.0
 11
1.113006455071824
 21
20.93532625520793
 31
0.0
  0
LINE
  5
25F
330
2
100
AcDbEntity
  8
0
100
AcDbLine
 10
0.8165000000000084
 20
20.73393075500109
 30
0.0
 11
0.785281018764465
 21
20.73393075500109
 31
0.0
  0
ARC
  5
260
330
2
100
AcDbEntity
  8
0
100
AcDbCircle
 10
0.785281018764465
 20
20.79643075500109
 30
0.0
 40
0.0625
100
AcDbArc
 50
180.0
 51
270.0
  0
LINE
  5
261
330
2
100
AcDbEntity
  8
0
  6
Continuous
100
AcDbLine
 10
1.113006455071815
 20
20.42543075500106
 30
0.0
 11
1.066500000000008
 21
20.42543075500106
 31
0.0
  0
ELLIPSE
  5
262
330
2
100
AcDbEntity
  8
0
  6
Continuous
100
AcDbEllipse
 10
1.281250000000171
 20
20.62887286573347
 30
0.0
 11
-0.09399999999999853
 21
1.705302565824240E-13
 31
0.0
210
0.0
220
0.0
230
1.0
 40
0.194197817966139
 41
0.0
 42
3.141592653589793
  0
LINE
  5
263
330
2
100
AcDbEntity
  8
0
100
AcDbLine
 10
0.9085000000000107
 20
21.0464307550011
 30
0.0
 11
1.27422541317544
 21
21.0464307550011
 31
0.0
  0
LINE
  5
264
330
2
100
AcDbEntity
  8
0
100
AcDbLine
 10
1.113006455071824
 20
20.93532625520793
 30
0.0
 11
0.8165000000000102
 21
20.93532625520793
 31
0.0
  0
ARC
  5
265
330
2
100
AcDbEntity
  8
0
100
AcDbCircle
 10
0.9085000000000107
 20
20.9544307550011
 30
0.0
 40
0.046
100
AcDbArc
 50
89.9999999999998
 51
179.9999999999999
  0
ARC
  5
266
330
2
100
AcDbEntity
  8
0
100
AcDbCircle
 10
0.9085000000000107
 20
20.9544307550011
 30
0.0
 40
0.092
100
AcDbArc
 50
89.9999999999998
 51
179.9999999999999
  0
LINE
  5
267
330
2
100
AcDbEntity
  8
0
100
AcDbLine
 10
0.8625000000000114
 20
20.93532625520793
 30
0.0
 11
0.8625000000000114
 21
20.9544307550011
 31
0.0
  0
LINE
  5
268
330
2
100
AcDbEntity
  8
0
  6
Continuous
100
AcDbLine
 10
1.27422541317544
 20
21.17143075500109
 30
0.0
 11
1.27422541317544
 21
21.00043075500109
 31
0.0
  0
LINE
  5
269
330
2
100
AcDbEntity
  8
0
  6
Continuous
100
AcDbLine
 10
1.649225413175461
 20
21.17143075500109
 30
0.0
 11
1.555475413175451
 21
21.73393075500108
 31
0.0
  0
LINE
  5
26A
330
2
100
AcDbEntity
  8
0
100
AcDbLine
 10
1.649225413175461
 20
21.04643075500109
 30
0.0
 11
1.987500000000022
 21
21.04643075500108
 31
0.0
  0
LINE
  5
26B
330
2
100
AcDbEntity
  8
0
  6
Continuous
100
AcDbLine
 10
1.649225413175461
 20
21.17143075500109
 30
0.0
 11
1.649225413175461
 21
21.0004307550011
 31
0.0
  0
LINE
  5
26C
330
2
100
AcDbEntity
  8
0
100
AcDbLine
 10
1.737500000000015
 20
21.04643075500109
 30
0.0
 11
1.737500000000015
 21
21.00043075500109
 31
0.0
  0
LINE
  5
26D
330
2
100
AcDbEntity
  8
0
100
AcDbLine
 10
1.987500000000022
 20
21.04643075500108
 30
0.0
 11
1.987500000000022
 21
21.00043075500108
 31
0.0
  0
LINE
  5
26E
330
2
100
AcDbEntity
  8
0
100
AcDbLine
 10
8.04527478817359
 20
4.746446609406666
 30
0.0
 11
8.127381569360257
 21
4.828553390593333
 31
0.0
  0
LINE
  5
26F
330
2
100
AcDbEntity
  8
0
100
AcDbLine
 10
8.248828178766804
 20
1.019999999999914
 30
0.0
 11
8.098828178766826
 21
1.194999999999869
 31
0.0
  0
ARC
  5
270
330
2
100
AcDbEntity
  8
0
100
AcDbCircle
 10
8.098828178766883
 20
1.132499999999983
 30
0.0
 40
0.1875
100
AcDbArc
 50
216.8698976458378
 51
323.130102354154
  0
LINE
  5
271
330
2
100
AcDbEntity
  8
0
100
AcDbLine
 10
8.09882817876694
 20
0.9972605845752476
 30
0.0
 11
8.248828178766917
 21
1.020000000000028
 31
0.0
  0
LINE
  5
273
330
2
100
AcDbEntity
  8
0
100
AcDbLine
 10
8.281156863610452
 20
4.622279177624199
 30
0.0
 11
8.118406863610435
 21
4.528315421069058
 31
0.0
  0
LINE
  5
274
330
2
100
AcDbEntity
  8
0
100
AcDbLine
 10
8.281156863643201
 20
4.38022507726569
 30
0.0
 11
8.118406863610435
 21
4.474188833332528
 31
0.0
  0
ARC
  5
275
330
2
100
AcDbEntity
  8
0
100
AcDbCircle
 10
6.896328178766996
 20
3.464235042592966
 30
0.0
 40
1.002500000000012
100
AcDbArc
 50
325.0000000000025
 51
359.9999999999998
1001
_DIE112SSJYHX
1002
{
1000
comp_type
1000
DBL24
1000
material
1000
D-2
1000
thickness
1040
1.25
1000
mount
1000
SBP10
1000
mntlay
1000
DIE_SUB_PLATE
1002
}
  0
LINE
  5
276
330
2
100
AcDbEntity
  8
0
100
AcDbLine
 10
6.898828178766781
 20
0.1804999999999595
 30
0.0
 11
6.898828178767008
 21
1.563138852532394
 31
0.0
  0
LINE
  5
277
330
2
100
AcDbEntity
  8
0
  6
HIDDEN2
100
AcDbLine
 10
7.492578178766916
 20
0.0500000000000007
 30
0.0
 11
7.492578178766895
 21
1.612499999999979
 31
0.0
  0
LINE
  5
278
330
2
100
AcDbEntity
  8
0
  6
HIDDEN2
100
AcDbLine
 10
7.305078178766923
 20
0.0500000000000007
 30
0.0
 11
7.305078178766895
 21
1.612499999999979
 31
0.0
  0
LWPOLYLINE
  5
27C
330
2
100
AcDbEntity
  8
0
100
AcDbPolyline
 90
       43
 70
     0
 43
0.0
 10
8.086328178766923
 20
1.354328618174613
 10
8.085075981816363
 20
1.720478412976537
 10
8.082209554116208
 20
1.808155638876588
 10
8.077939984316163
 20
1.888230283776514
 10
8.072560329316321
 20
1.961392941076431
 10
8.066291133816367
 20
2.028257840476547
 10
8.059298166216241
 20
2.089385567376487
 10
8.051708255816312
 20
2.145260034176593
 10
8.04361681811638
 20
2.196311956276579
 10
8.035097284116365
 20
2.242905598176597
 10
8.026196405116298
 20
2.285392250376438
 10
8.016944215416334
 20
2.324066008976436
 10
8.007354789516331
 20
2.359173799276553
 10
7.997424026116324
 20
2.390925059676468
 10
7.987130231616266
 20
2.419481908776609
 10
7.976423879916229
 20
2.444970441876469
 10
7.965212504316288
 20
2.467474375976556
 10
7.953386859916282
 20
2.48693230737654
 10
7.940809010816384
 20
2.503126267376549
 10
7.927333941916277
 20
2.515605805476573
 10
7.913182220116187
 20
2.523510903376566
 10
7.899059290716242
 20
2.526224003176642
 10
7.8848617594163
 20
2.523786956776624
 10
7.870619633316256
 20
2.516096936376519
 10
7.857073547416167
 20
2.503783372976434
 10
7.84441188081637
 20
2.48768104467654
 10
7.832515670916383
 20
2.468278693576442
 10
7.821242730016184
 20
2.4458022093766
 10
7.810482917016362
 20
2.42032175147647
 10
7.800143373716356
 20
2.391761808576623
 10
7.790171727316238
 20
2.359995059576525
 10
7.780545839316165
 20
2.324862359176498
 10
7.771260843616165
 20
2.286155018076491
 10
7.76233034931629
 20
2.24362679187657
 10
7.753784290316208
 20
2.196985305676483
 10
7.745668845916317
 20
2.145877662876549
 10
7.738057505116377
 20
2.089940624576505
 10
7.731045581216268
 20
2.028742866876476
 10
7.724759944216249
 20
1.961799814376539
 10
7.719366586016168
 20
1.888550791076616
 10
7.715086335016213
 20
1.808380101876583
 10
7.712212818616354
 20
1.720596414776583
 10
7.711328178766923
 20
1.354328618174613
  0
ARC
  5
27D
330
2
100
AcDbEntity
  8
0
100
AcDbCircle
 10
7.396328178767011
 20
1.563138852532394
 30
0.0
 40
0.4975
100
AcDbArc
 50
144.9999999999964
 51
180.0
1001
_DIE112SSJYHX
1002
{
1000
comp_type
1000
DBL24
1000
material
1000
D-2
1000
thickness
1040
1.25
1000
mount
1000
SBP10
1000
mntlay
1000
DIE_SUB_PLATE
1002
}
  0
ARC
  5
27E
330
2
100
AcDbEntity
  8
0
  6
HIDDEN2
100
AcDbCircle
 10
7.398828178766895
 20
1.612499999999979
 30
0.0
 40
0.09375
100
AcDbArc
 50
0.0
 51
180.0
  0
LINE
  5
280
330
2
100
AcDbEntity
  8
0
100
AcDbLine
 10
8.09882817876694
 20
0.9972605845752476
 30
0.0
 11
8.098828178766826
 21
1.194999999999869
 31
0.0
  0
LINE
  5
281
330
2
100
AcDbEntity
  8
0
100
AcDbLine
 10
8.098828178766826
 20
1.194999999999869
 30
0.0
 11
7.948828178766849
 21
1.019999999999914
 31
0.0
  0
LINE
  5
282
330
2
100
AcDbEntity
  8
0
100
AcDbLine
 10
7.848828178766826
 20
0.7449999999999371
 30
0.0
 11
7.698828178766849
 21
0.9200000000000053
 31
0.0
  0
ARC
  5
283
330
2
100
AcDbEntity
  8
0
100
AcDbCircle
 10
7.698828178766906
 20
0.8575000000000053
 30
0.0
 40
0.1875
100
AcDbArc
 50
216.8698976458378
 51
323.130102354154
  0
LINE
  5
284
330
2
100
AcDbEntity
  8
0
100
AcDbLine
 10
7.698828178766963
 20
0.7222605845752703
 30
0.0
 11
7.84882817876694
 21
0.7450000000000507
 31
0.0
  0
LINE
  5
285
330
2
100
AcDbEntity
  8
0
100
AcDbLine
 10
7.698828178766849
 20
0.9200000000000053
 30
0.0
 11
7.548828178766872
 21
0.7449999999999371
 31
0.0
  0
LINE
  5
286
330
2
100
AcDbEntity
  8
0
100
AcDbLine
 10
7.698828178766963
 20
0.7222605845752703
 30
0.0
 11
7.698828178766849
 21
0.9199999999998916
 31
0.0
  0
LINE
  5
287
330
2
100
AcDbEntity
  8
0
100
AcDbLine
 10
7.698828178766963
 20
0.7222605845752703
 30
0.0
 11
7.548828178766929
 21
0.7449999999999371
 31
0.0
  0
LINE
  5
288
330
2
100
AcDbEntity
  8
0
100
AcDbLine
 10
8.09882817876694
 20
0.9972605845752476
 30
0.0
 11
7.948828178766906
 21
1.019999999999914
 31
0.0
  0
LINE
  5
289
330
2
100
AcDbEntity
  8
0
100
AcDbLine
 10
8.026328178766921
 20
1.29432861817461
 30
0.0
 11
7.771328178766925
 21
1.29432861817461
 31
0.0
  0
ARC
  5
28A
330
2
100
AcDbEntity
  8
0
100
AcDbCircle
 10
7.898828178766923
 20
1.419328618174617
 30
0.0
 40
0.1874999999999982
100
AcDbArc
 50
0.0
 51
180.0
  0
ARC
  5
28B
330
2
100
AcDbEntity
  8
0
100
AcDbCircle
 10
7.898828178766923
 20
1.419328618174617
 30
0.0
 40
0.1874999999999982
100
AcDbArc
 50
0.0
 51
180.0
  0
ARC
  5
28C
330
2
100
AcDbEntity
  8
0
100
AcDbCircle
 10
7.898828178766923
 20
1.419328618174617
 30
0.0
 40
0.1874999999999982
100
AcDbArc
 50
0.0
 51
180.0
  0
ARC
  5
28D
330
2
100
AcDbEntity
  8
0
100
AcDbCircle
 10
7.771328178766925
 20
1.354328618174613
 30
0.0
 40
0.06
100
AcDbArc
 50
180.0000000000001
 51
269.9999999999996
  0
POINT
  5
28E
330
2
100
AcDbEntity
  8
0
  6
ByBlock
100
AcDbPoint
 10
7.898828178766923
 20
1.606828618174614
 30
0.0
  0
POINT
  5
28F
330
2
100
AcDbEntity
  8
0
  6
ByBlock
100
AcDbPoint
 10
7.898828178766923
 20
1.606828618174614
 30
0.0
  0
POINT
  5
290
330
2
100
AcDbEntity
  8
0
  6
ByBlock
100
AcDbPoint
 10
7.898828178766923
 20
1.606828618174614
 30
0.0
  0
POINT
  5
291
330
2
100
AcDbEntity
  8
0
  6
ByBlock
100
AcDbPoint
 10
7.898828178766923
 20
1.606828618174614
 30
0.0
  0
ARC
  5
292
330
2
100
AcDbEntity
  8
0
100
AcDbCircle
 10
8.026328178766921
 20
1.354328618174613
 30
0.0
 40
0.06
100
AcDbArc
 50
270.0000000000002
 51
359.9999999999999
  0
POINT
  5
293
330
2
100
AcDbEntity
  8
0
  6
ByBlock
100
AcDbPoint
 10
8.026328178766921
 20
1.29432861817461
 30
0.0
  0
POINT
  5
294
330
2
100
AcDbEntity
  8
0
  6
ByBlock
100
AcDbPoint
 10
7.898828178766923
 20
1.606828618174614
 30
0.0
  0
POINT
  5
295
330
2
100
AcDbEntity
  8
0
  6
ByBlock
100
AcDbPoint
 10
7.898828178766923
 20
1.606828618174614
 30
0.0
  0
LINE
  5
296
330
2
100
AcDbEntity
  8
0
100
AcDbLine
 10
6.988800036733256
 20
1.848493129617065
 30
0.0
 11
7.717528103166746
 21
2.889224665151074
 31
0.0
  0
LINE
  5
297
330
2
100
AcDbEntity
  8
0
100
AcDbLine
 10
7.898828178767008
 20
3.464235042592966
 30
0.0
 11
7.899560411814225
 21
4.394660985765972
 31
0.0
  0
ARC
  5
298
330
2
100
AcDbEntity
  8
0
100
AcDbCircle
 10
8.134031863610435
 20
4.501252127200791
 30
0.0
 40
0.03125
100
AcDbArc
 50
119.9999999999972
 51
240.0
  0
ARC
  5
299
330
2
100
AcDbEntity
  8
0
100
AcDbCircle
 10
8.397060411814227
 20
4.394660985765972
 30
0.0
 40
0.4975000000000007
100
AcDbArc
 50
135.0000000000189
 51
180.0
1001
_DIE112SSJYHX
1002
{
1000
comp_type
1000
DBL24
1000
material
1000
D-2
1000
thickness
1040
1.25
1000
mount
1000
SBP10
1000
mntlay
1000
DIE_SUB_PLATE
1002
}
  0
LINE
  5
29A
330
2
100
AcDbEntity
  8
0
100
AcDbLine
 10
9.14882817876692
 20
14.05
 30
0.0
 11
9.148828178766923
 21
2.08203700168551
 31
0.0
  0
LINE
  5
29B
330
2
100
AcDbEntity
  8
0
100
AcDbLine
 10
9.098828178766926
 20
14.05
 30
0.0
 11
9.098828178766926
 21
2.010629601348413
 31
0.0
  0
LINE
  5
29C
330
2
100
AcDbEntity
  8
0
100
AcDbLine
 10
8.274560411814001
 20
5.183874548139533
 30
0.0
 11
8.273828178766916
 21
13.40919722692676
 31
0.0
  0
LINE
  5
29D
330
2
100
AcDbEntity
  8
0
100
AcDbLine
 10
8.898828178767008
 20
1.563138852532394
 30
0.0
 11
8.898828178767008
 21
0.1804999999999595
 31
0.0
  0
LINE
  5
29E
330
2
100
AcDbEntity
  8
0
  6
HIDDEN2
100
AcDbLine
 10
8.492578178766895
 20
2.174999999999981
 30
0.0
 11
8.492578178766923
 21
0.0500000000000007
 31
0.0
  0
LINE
  5
29F
330
2
100
AcDbEntity
  8
0
  6
HIDDEN2
100
AcDbLine
 10
8.305078178766895
 20
2.174999999999981
 30
0.0
 11
8.305078178766923
 21
0.0500000000000007
 31
0.0
  0
ARC
  5
2A7
330
2
100
AcDbEntity
  8
0
100
AcDbCircle
 10
9.396328178767011
 20
1.563138852532394
 30
0.0
 40
0.4975
100
AcDbArc
 50
144.9999999999964
 51
180.0
1001
_DIE112SSJYHX
1002
{
1000
comp_type
1000
DBL24
1000
material
1000
D-2
1000
thickness
1040
1.25
1000
mount
1000
SBP10
1000
mntlay
1000
DIE_SUB_PLATE
1002
}
  0
ARC
  5
2A8
330
2
100
AcDbEntity
  8
0
  6
HIDDEN2
100
AcDbCircle
 10
8.398828178766895
 20
2.174999999999981
 30
0.0
 40
0.09375
100
AcDbArc
 50
0.0
 51
180.0
  0
LINE
  5
2A9
330
2
100
AcDbEntity
  8
0
100
AcDbLine
 10
8.988800036732972
 20
1.848493129617271
 30
0.0
 11
9.148828178766781
 21
2.077037001685474
 31
0.0
  0
ARC
  5
2AA
330
2
100
AcDbEntity
  8
0
100
AcDbCircle
 10
7.772060411814
 20
5.183874548139533
 30
0.0
 40
0.5025
100
AcDbArc
 50
314.9999999999999
 51
0.0
  0
LINE
  5
2AB
330
2
100
AcDbEntity
  8
0
100
AcDbLine
 10
8.328028178766918
 20
4.407768255661514
 30
0.0
 11
8.328028178766932
 21
4.595695768264575
 31
0.0
  0
ARC
  5
2AC
330
2
100
AcDbEntity
  8
0
100
AcDbCircle
 10
8.296781863610452
 20
4.595215883755932
 30
0.0
 40
0.03125
100
AcDbArc
 50
359.9999999999974
 51
119.9999999999993
  0
ARC
  5
2AD
330
2
100
AcDbEntity
  8
0
100
AcDbCircle
 10
8.296781863610452
 20
4.407288371134724
 30
0.0
 40
0.03125
100
AcDbArc
 50
240.0000000000007
 51
0.0000000000024427
  0
LINE
  5
2AE
330
2
100
AcDbEntity
  8
0
100
AcDbLine
 10
9.098828178766926
 20
5.22350635094611
 30
0.0
 11
9.148828178766923
 21
5.22350635094611
 31
0.0
  0
LINE
  5
2AF
330
2
100
AcDbEntity
  8
0
100
AcDbLine
 10
9.098828178766926
 20
5.007000000000001
 30
0.0
 11
9.148828178766923
 21
5.007000000000001
 31
0.0
  0
LINE
  5
2B0
330
2
100
AcDbEntity
  8
0
  6
Continuous
100
AcDbLine
 10
9.089355090701492
 20
12.45857308806558
 30
0.0
 11
8.800981894954834
 21
12.17019989231893
 31
0.0
  0
ARC
  5
2B1
330
2
100
AcDbEntity
  8
0
  6
Continuous
100
AcDbCircle
 10
8.868864145948752
 20
12.10231764132501
 30
0.0
 40
0.05
100
AcDbArc
 50
135.0000000000019
 51
255.0000000000004
  0
ARC
  5
2B2
330
2
100
AcDbEntity
  8
0
  6
Continuous
100
AcDbCircle
 10
8.868864145948752
 20
12.10231764132501
 30
0.0
 40
0.096
100
AcDbArc
 50
135.0000000000019
 51
254.9999999999993
  0
LINE
  5
2B3
330
2
100
AcDbEntity
  8
0
  6
Continuous
100
AcDbLine
 10
9.098828178766922
 20
12.40299235226184
 30
0.0
 11
8.833508806889416
 21
12.13767298038434
 31
0.0
  0
LINE
  5
2B4
330
2
100
AcDbEntity
  8
0
  6
Continuous
100
AcDbLine
 10
8.855923193693617
 20
12.05402135001056
 30
0.0
 11
9.09740465026589
 21
11.98931658873493
 31
0.0
  0
LINE
  5
2B5
330
2
100
AcDbEntity
  8
0
  6
Continuous
100
AcDbLine
 10
8.844017517618898
 20
12.00958876200127
 30
0.0
 11
9.085498974191172
 21
11.94488400072563
 31
0.0
  0
LINE
  5
2B6
330
2
100
AcDbEntity
  8
0
  6
Continuous
100
AcDbLine
 10
9.09740465026589
 20
11.98931658873496
 30
0.0
 11
9.085498974191186
 21
11.94488400072566
 31
0.0
  0
ARC
  5
2B7
330
2
100
AcDbEntity
  8
0
  6
Continuous
100
AcDbCircle
 10
9.05682817876691
 20
12.49110000000017
 30
0.0
 40
0.046
100
AcDbArc
 50
315.0000000000002
 51
335.9293853774835
  0
ARC
  5
2B8
330
2
100
AcDbEntity
  8
0
  6
Continuous
100
AcDbCircle
 10
9.034092618270684
 20
12.49750162342256
 30
0.0
 40
0.1148432675996877
100
AcDbArc
 50
315.1652224024733
 51
351.5634350384797
  0
LINE
  5
2B9
330
2
100
AcDbEntity
  8
0
100
AcDbLine
 10
9.19882817876692
 20
14.1
 30
0.0
 11
9.773828178766923
 21
14.1
 31
0.0
  0
LINE
  5
2BA
330
2
100
AcDbEntity
  8
0
100
AcDbLine
 10
9.198828178766927
 20
14.15
 30
0.0
 11
9.773828178766923
 21
14.15
 31
0.0
  0
ARC
  5
2BB
330
2
100
AcDbEntity
  8
0
100
AcDbCircle
 10
9.198828178766927
 20
14.05
 30
0.0
 40
0.1
100
AcDbArc
 50
90.0
 51
180.0
  0
LINE
  5
2BC
330
2
100
AcDbEntity
  8
0
100
AcDbLine
 10
8.273828178766916
 20
13.22499999999999
 30
0.0
 11
8.9674736789738
 21
13.225
 31
0.0
  0
LINE
  5
2BD
330
2
100
AcDbEntity
  8
0
100
AcDbLine
 10
8.523828178766923
 20
13.65919722692676
 30
0.0
 11
9.033723678973789
 21
13.65919722692676
 31
0.0
  0
LINE
  5
2BE
330
2
100
AcDbEntity
  8
0
100
AcDbLine
 10
8.473828178766926
 20
13.60919722692677
 30
0.0
 11
9.033723678973789
 21
13.60919722692677
 31
0.0
  0
LINE
  5
2BF
330
2
100
AcDbEntity
  8
0
100
AcDbLine
 10
8.273828178766916
 20
13.40919722692676
 30
0.0
 11
8.523828178766923
 21
13.65919722692676
 31
0.0
  0
LINE
  5
2C0
330
2
100
AcDbEntity
  8
0
100
AcDbLine
 10
9.033723678973789
 20
13.65919722692676
 30
0.0
 11
9.033723678973789
 21
13.35272651447526
 31
0.0
  0
ARC
  5
2C1
330
2
100
AcDbEntity
  8
0
100
AcDbCircle
 10
9.1237236789738
 20
13.225
 30
0.0
 40
0.15625
100
AcDbArc
 50
125.1696929238603
 51
260.831921102219
  0
ARC
  5
2C2
330
2
100
AcDbEntity
  8
0
100
AcDbCircle
 10
9.19882817876692
 20
14.05
 30
0.0
 40
0.05
100
AcDbArc
 50
90.0
 51
180.0
  0
LINE
  5
2C3
330
2
100
AcDbEntity
  8
0
100
AcDbLine
 10
9.773828178766923
 20
14.15
 30
0.0
 11
9.773828178766923
 21
14.1
 31
0.0
  0
LINE
  5
2FB
330
2
100
AcDbEntity
  8
0
100
AcDbLine
 10
-9.14882817876692
 20
14.05
 30
0.0
 11
-9.148828178766923
 21
2.08203700168551
 31
0.0
  0
LINE
  5
2FC
330
2
100
AcDbEntity
  8
0
100
AcDbLine
 10
-9.098828178766926
 20
14.05
 30
0.0
 11
-9.098828178766926
 21
2.010629601348413
 31
0.0
  0
LINE
  5
2FD
330
2
100
AcDbEntity
  8
0
100
AcDbLine
 10
-8.274560411814001
 20
5.183874548139533
 30
0.0
 11
-8.273828178766916
 21
13.40919722692676
 31
0.0
  0
ARC
  5
2FE
330
2
100
AcDbEntity
  8
0
100
AcDbCircle
 10
-7.396328178767011
 20
1.563138852532394
 30
0.0
 40
0.4975
100
AcDbArc
 50
0.000000000000007
 51
35.00000000000366
1001
_DIE112SSJYHX
1002
{
1000
comp_type
1000
DBL24
1000
material
1000
D-2
1000
thickness
1040
1.25
1000
mount
1000
SBP10
1000
mntlay
1000
DIE_SUB_PLATE
1002
}
  0
LINE
  5
302
330
2
100
AcDbEntity
  8
0
100
AcDbLine
 10
-6.898828178766781
 20
0.1804999999999595
 30
0.0
 11
-6.898828178767008
 21
1.563138852532394
 31
0.0
  0
ARC
  5
304
330
2
100
AcDbEntity
  8
0
100
AcDbCircle
 10
-8.098828178766883
 20
1.132499999999983
 30
0.0
 40
0.1875
100
AcDbArc
 50
216.869897645846
 51
323.1301023541623
  0
LINE
  5
305
330
2
100
AcDbEntity
  8
0
  6
HIDDEN2
100
AcDbLine
 10
-7.492578178766916
 20
0.0500000000000007
 30
0.0
 11
-7.492578178766895
 21
1.612499999999979
 31
0.0
  0
LINE
  5
306
330
2
100
AcDbEntity
  8
0
  6
HIDDEN2
100
AcDbLine
 10
-7.305078178766923
 20
0.0500000000000007
 30
0.0
 11
-7.305078178766895
 21
1.612499999999979
 31
0.0
  0
LINE
  5
307
330
2
100
AcDbEntity
  8
0
100
AcDbLine
 10
-8.898828178767008
 20
1.563138852532394
 30
0.0
 11
-8.898828178767008
 21
0.1804999999999595
 31
0.0
  0
LINE
  5
308
330
2
100
AcDbEntity
  8
0
  6
HIDDEN2
100
AcDbLine
 10
-8.492578178766895
 20
2.174999999999981
 30
0.0
 11
-8.492578178766923
 21
0.0500000000000007
 31
0.0
  0
LINE
  5
309
330
2
100
AcDbEntity
  8
0
  6
HIDDEN2
100
AcDbLine
 10
-8.305078178766895
 20
2.174999999999981
 30
0.0
 11
-8.305078178766923
 21
0.0500000000000007
 31
0.0
  0
LINE
  5
30B
330
2
100
AcDbEntity
  8
0
100
AcDbLine
 10
-7.848828178766826
 20
0.7449999999999371
 30
0.0
 11
-7.698828178766849
 21
0.9200000000000053
 31
0.0
  0
ARC
  5
30C
330
2
100
AcDbEntity
  8
0
100
AcDbCircle
 10
-7.698828178766906
 20
0.8575000000000053
 30
0.0
 40
0.1875
100
AcDbArc
 50
216.869897645846
 51
323.1301023541623
  0
LINE
  5
30D
330
2
100
AcDbEntity
  8
0
100
AcDbLine
 10
-7.698828178766963
 20
0.7222605845752703
 30
0.0
 11
-7.84882817876694
 21
0.7450000000000507
 31
0.0
  0
LINE
  5
30E
330
2
100
AcDbEntity
  8
0
100
AcDbLine
 10
-7.698828178766849
 20
0.9200000000000053
 30
0.0
 11
-7.548828178766872
 21
0.7449999999999371
 31
0.0
  0
LINE
  5
30F
330
2
100
AcDbEntity
  8
0
100
AcDbLine
 10
-7.698828178766963
 20
0.7222605845752703
 30
0.0
 11
-7.698828178766849
 21
0.9199999999998916
 31
0.0
  0
LINE
  5
310
330
2
100
AcDbEntity
  8
0
100
AcDbLine
 10
-7.698828178766963
 20
0.7222605845752703
 30
0.0
 11
-7.548828178766929
 21
0.7449999999999371
 31
0.0
  0
ARC
  5
318
330
2
100
AcDbEntity
  8
0
100
AcDbCircle
 10
-9.396328178767011
 20
1.563138852532394
 30
0.0
 40
0.4975
100
AcDbArc
 50
0.000000000000007
 51
35.00000000000366
1001
_DIE112SSJYHX
1002
{
1000
comp_type
1000
DBL24
1000
material
1000
D-2
1000
thickness
1040
1.25
1000
mount
1000
SBP10
1000
mntlay
1000
DIE_SUB_PLATE
1002
}
  0
ARC
  5
319
330
2
100
AcDbEntity
  8
0
100
AcDbCircle
 10
-6.896328178766996
 20
3.464235042592966
 30
0.0
 40
1.002500000000012
100
AcDbArc
 50
180.0000000000002
 51
214.9999999999975
1001
_DIE112SSJYHX
1002
{
1000
comp_type
1000
DBL24
1000
material
1000
D-2
1000
thickness
1040
1.25
1000
mount
1000
SBP10
1000
mntlay
1000
DIE_SUB_PLATE
1002
}
  0
LINE
  5
31A
330
2
100
AcDbEntity
  8
0
100
AcDbLine
 10
-8.026328178766921
 20
1.29432861817461
 30
0.0
 11
-7.771328178766925
 21
1.29432861817461
 31
0.0
  0
LINE
  5
31B
330
2
100
AcDbEntity
  8
0
100
AcDbLine
 10
-8.098828178766826
 20
1.194999999999869
 30
0.0
 11
-7.948828178766849
 21
1.019999999999914
 31
0.0
  0
LINE
  5
31C
330
2
100
AcDbEntity
  8
0
100
AcDbLine
 10
-8.09882817876694
 20
0.9972605845752476
 30
0.0
 11
-7.948828178766906
 21
1.019999999999914
 31
0.0
  0
ARC
  5
31D
330
2
100
AcDbEntity
  8
0
100
AcDbCircle
 10
-7.898828178766923
 20
1.419328618174617
 30
0.0
 40
0.1874999999999982
100
AcDbArc
 50
0.000000000000007
 51
180.0
  0
ARC
  5
31E
330
2
100
AcDbEntity
  8
0
100
AcDbCircle
 10
-7.898828178766923
 20
1.419328618174617
 30
0.0
 40
0.1874999999999982
100
AcDbArc
 50
0.000000000000007
 51
180.0
  0
ARC
  5
31F
330
2
100
AcDbEntity
  8
0
100
AcDbCircle
 10
-7.898828178766923
 20
1.419328618174617
 30
0.0
 40
0.1874999999999982
100
AcDbArc
 50
0.000000000000007
 51
180.0
  0
LWPOLYLINE
  5
320
330
2
100
AcDbEntity
  8
0
100
AcDbPolyline
 90
       43
 70
     0
 43
0.0
 10
-8.086328178766923
 20
1.354328618174613
 10
-8.085075981816363
 20
1.720478412976537
 10
-8.082209554116208
 20
1.808155638876588
 10
-8.077939984316163
 20
1.888230283776514
 10
-8.072560329316321
 20
1.961392941076431
 10
-8.066291133816367
 20
2.028257840476547
 10
-8.059298166216241
 20
2.089385567376487
 10
-8.051708255816312
 20
2.145260034176593
 10
-8.04361681811638
 20
2.196311956276579
 10
-8.035097284116365
 20
2.242905598176597
 10
-8.026196405116298
 20
2.285392250376438
 10
-8.016944215416334
 20
2.324066008976436
 10
-8.007354789516331
 20
2.359173799276553
 10
-7.997424026116324
 20
2.390925059676468
 10
-7.987130231616266
 20
2.419481908776609
 10
-7.976423879916229
 20
2.444970441876469
 10
-7.965212504316288
 20
2.467474375976556
 10
-7.953386859916282
 20
2.48693230737654
 10
-7.940809010816384
 20
2.503126267376549
 10
-7.927333941916277
 20
2.515605805476573
 10
-7.913182220116187
 20
2.523510903376566
 10
-7.899059290716242
 20
2.526224003176642
 10
-7.8848617594163
 20
2.523786956776624
 10
-7.870619633316256
 20
2.516096936376519
 10
-7.857073547416167
 20
2.503783372976434
 10
-7.84441188081637
 20
2.48768104467654
 10
-7.832515670916383
 20
2.468278693576442
 10
-7.821242730016184
 20
2.4458022093766
 10
-7.810482917016362
 20
2.42032175147647
 10
-7.800143373716356
 20
2.391761808576623
 10
-7.790171727316238
 20
2.359995059576525
 10
-7.780545839316165
 20
2.324862359176498
 10
-7.771260843616165
 20
2.286155018076491
 10
-7.76233034931629
 20
2.24362679187657
 10
-7.753784290316208
 20
2.196985305676483
 10
-7.745668845916317
 20
2.145877662876549
 10
-7.738057505116377
 20
2.089940624576505
 10
-7.731045581216268
 20
2.028742866876476
 10
-7.724759944216249
 20
1.961799814376539
 10
-7.719366586016168
 20
1.888550791076616
 10
-7.715086335016213
 20
1.808380101876583
 10
-7.712212818616354
 20
1.720596414776583
 10
-7.711328178766923
 20
1.354328618174613
  0
LINE
  5
321
330
2
100
AcDbEntity
  8
0
100
AcDbLine
 10
-6.988800036733256
 20
1.848493129617065
 30
0.0
 11
-7.717528103166746
 21
2.889224665151074
 31
0.0
  0
ARC
  5
322
330
2
100
AcDbEntity
  8
0
  6
HIDDEN2
100
AcDbCircle
 10
-7.398828178766895
 20
1.612499999999979
 30
0.0
 40
0.09375
100
AcDbArc
 50
0.000000000000007
 51
180.0
  0
ARC
  5
323
330
2
100
AcDbEntity
  8
0
100
AcDbCircle
 10
-7.771328178766925
 20
1.354328618174613
 30
0.0
 40
0.06
100
AcDbArc
 50
270.0000000000004
 51
359.9999999999999
  0
POINT
  5
324
330
2
100
AcDbEntity
  8
0
  6
ByBlock
100
AcDbPoint
 10
-7.898828178766923
 20
1.606828618174614
 30
0.0
  0
POINT
  5
325
330
2
100
AcDbEntity
  8
0
  6
ByBlock
100
AcDbPoint
 10
-7.898828178766923
 20
1.606828618174614
 30
0.0
  0
POINT
  5
326
330
2
100
AcDbEntity
  8
0
  6
ByBlock
100
AcDbPoint
 10
-7.898828178766923
 20
1.606828618174614
 30
0.0
  0
POINT
  5
327
330
2
100
AcDbEntity
  8
0
  6
ByBlock
100
AcDbPoint
 10
-7.898828178766923
 20
1.606828618174614
 30
0.0
  0
POINT
  5
328
330
2
100
AcDbEntity
  8
0
  6
ByBlock
100
AcDbPoint
 10
-7.898828178766923
 20
1.606828618174614
 30
0.0
  0
POINT
  5
329
330
2
100
AcDbEntity
  8
0
  6
ByBlock
100
AcDbPoint
 10
-7.898828178766923
 20
1.606828618174614
 30
0.0
  0
ARC
  5
32A
330
2
100
AcDbEntity
  8
0
  6
HIDDEN2
100
AcDbCircle
 10
-8.398828178766895
 20
2.174999999999981
 30
0.0
 40
0.09375
100
AcDbArc
 50
0.000000000000007
 51
180.0
  0
LINE
  5
32B
330
2
100
AcDbEntity
  8
0
100
AcDbLine
 10
-8.248828178766804
 20
1.019999999999914
 30
0.0
 11
-8.098828178766826
 21
1.194999999999869
 31
0.0
  0
LINE
  5
32C
330
2
100
AcDbEntity
  8
0
100
AcDbLine
 10
-8.09882817876694
 20
0.9972605845752476
 30
0.0
 11
-8.248828178766917
 21
1.020000000000028
 31
0.0
  0
LINE
  5
32D
330
2
100
AcDbEntity
  8
0
100
AcDbLine
 10
-8.09882817876694
 20
0.9972605845752476
 30
0.0
 11
-8.098828178766826
 21
1.194999999999869
 31
0.0
  0
POINT
  5
32E
330
2
100
AcDbEntity
  8
0
  6
ByBlock
100
AcDbPoint
 10
-8.026328178766921
 20
1.29432861817461
 30
0.0
  0
ARC
  5
32F
330
2
100
AcDbEntity
  8
0
100
AcDbCircle
 10
-8.026328178766921
 20
1.354328618174613
 30
0.0
 40
0.06
100
AcDbArc
 50
180.0000000000001
 51
269.9999999999998
  0
ARC
  5
330
330
2
100
AcDbEntity
  8
0
100
AcDbCircle
 10
-8.397060411814227
 20
4.394660985765972
 30
0.0
 40
0.4975000000000007
100
AcDbArc
 50
0.000000000000007
 51
44.99999999998113
1001
_DIE112SSJYHX
1002
{
1000
comp_type
1000
DBL24
1000
material
1000
D-2
1000
thickness
1040
1.25
1000
mount
1000
SBP10
1000
mntlay
1000
DIE_SUB_PLATE
1002
}
  0
LINE
  5
331
330
2
100
AcDbEntity
  8
0
100
AcDbLine
 10
-7.898828178767008
 20
3.464235042592966
 30
0.0
 11
-7.899560411814225
 21
4.394660985765972
 31
0.0
  0
LINE
  5
332
330
2
100
AcDbEntity
  8
0
100
AcDbLine
 10
-8.281156863610452
 20
4.622279177624199
 30
0.0
 11
-8.118406863610435
 21
4.528315421069058
 31
0.0
  0
LINE
  5
333
330
2
100
AcDbEntity
  8
0
100
AcDbLine
 10
-8.281156863643201
 20
4.38022507726569
 30
0.0
 11
-8.118406863610435
 21
4.474188833332528
 31
0.0
  0
ARC
  5
334
330
2
100
AcDbEntity
  8
0
100
AcDbCircle
 10
-8.134031863610435
 20
4.501252127200791
 30
0.0
 40
0.03125
100
AcDbArc
 50
299.9999999999999
 51
60.00000000000284
  0
LINE
  5
335
330
2
100
AcDbEntity
  8
0
100
AcDbLine
 10
-8.328028178766918
 20
4.407768255661514
 30
0.0
 11
-8.328028178766932
 21
4.595695768264575
 31
0.0
  0
ARC
  5
336
330
2
100
AcDbEntity
  8
0
100
AcDbCircle
 10
-8.296781863610452
 20
4.595215883755932
 30
0.0
 40
0.03125
100
AcDbArc
 50
60.0000000000007
 51
180.0000000000026
  0
ARC
  5
337
330
2
100
AcDbEntity
  8
0
100
AcDbCircle
 10
-8.296781863610452
 20
4.407288371134724
 30
0.0
 40
0.03125
100
AcDbArc
 50
179.9999999999976
 51
299.9999999999993
  0
ARC
  5
338
330
2
100
AcDbEntity
  8
0
100
AcDbCircle
 10
-7.772060411814
 20
5.183874548139533
 30
0.0
 40
0.5025
100
AcDbArc
 50
180.0
 51
225.0000000000001
  0
LINE
  5
339
330
2
100
AcDbEntity
  8
0
100
AcDbLine
 10
-8.04527478817359
 20
4.746446609406666
 30
0.0
 11
-8.127381569360257
 21
4.828553390593333
 31
0.0
  0
LINE
  5
33A
330
2
100
AcDbEntity
  8
0
100
AcDbLine
 10
-8.988800036732972
 20
1.848493129617271
 30
0.0
 11
-9.148828178766781
 21
2.077037001685474
 31
0.0
  0
LINE
  5
33B
330
2
100
AcDbEntity
  8
0
100
AcDbLine
 10
-9.098828178766926
 20
5.22350635094611
 30
0.0
 11
-9.148828178766923
 21
5.22350635094611
 31
0.0
  0
LINE
  5
33C
330
2
100
AcDbEntity
  8
0
100
AcDbLine
 10
-9.098828178766926
 20
5.007000000000001
 30
0.0
 11
-9.148828178766923
 21
5.007000000000001
 31
0.0
  0
LINE
  5
33D
330
2
100
AcDbEntity
  8
0
  6
Continuous
100
AcDbLine
 10
-9.089355090701492
 20
12.45857308806558
 30
0.0
 11
-8.800981894954834
 21
12.17019989231893
 31
0.0
  0
LINE
  5
33E
330
2
100
AcDbEntity
  8
0
  6
Continuous
100
AcDbLine
 10
-9.098828178766922
 20
12.40299235226184
 30
0.0
 11
-8.833508806889416
 21
12.13767298038434
 31
0.0
  0
LINE
  5
33F
330
2
100
AcDbEntity
  8
0
  6
Continuous
100
AcDbLine
 10
-8.855923193693617
 20
12.05402135001056
 30
0.0
 11
-9.09740465026589
 21
11.98931658873493
 31
0.0
  0
LINE
  5
340
330
2
100
AcDbEntity
  8
0
  6
Continuous
100
AcDbLine
 10
-8.844017517618898
 20
12.00958876200127
 30
0.0
 11
-9.085498974191172
 21
11.94488400072563
 31
0.0
  0
ARC
  5
341
330
2
100
AcDbEntity
  8
0
100
AcDbCircle
 10
-9.1237236789738
 20
13.225
 30
0.0
 40
0.15625
100
AcDbArc
 50
279.168078897781
 51
54.8303070761397
  0
LINE
  5
342
330
2
100
AcDbEntity
  8
0
100
AcDbLine
 10
-8.523828178766923
 20
13.65919722692676
 30
0.0
 11
-9.033723678973789
 21
13.65919722692676
 31
0.0
  0
LINE
  5
343
330
2
100
AcDbEntity
  8
0
100
AcDbLine
 10
-8.473828178766926
 20
13.60919722692677
 30
0.0
 11
-9.033723678973789
 21
13.60919722692677
 31
0.0
  0
ARC
  5
344
330
2
100
AcDbEntity
  8
0
  6
Continuous
100
AcDbCircle
 10
-8.868864145948752
 20
12.10231764132501
 30
0.0
 40
0.05
100
AcDbArc
 50
284.9999999999996
 51
44.99999999999807
  0
ARC
  5
345
330
2
100
AcDbEntity
  8
0
  6
Continuous
100
AcDbCircle
 10
-8.868864145948752
 20
12.10231764132501
 30
0.0
 40
0.096
100
AcDbArc
 50
285.0000000000007
 51
44.99999999999807
  0
LINE
  5
346
330
2
100
AcDbEntity
  8
0
100
AcDbLine
 10
-8.273828178766916
 20
13.22499999999999
 30
0.0
 11
-8.9674736789738
 21
13.225
 31
0.0
  0
LINE
  5
347
330
2
100
AcDbEntity
  8
0
100
AcDbLine
 10
-8.273828178766916
 20
13.40919722692676
 30
0.0
 11
-8.523828178766923
 21
13.65919722692676
 31
0.0
  0
LINE
  5
348
330
2
100
AcDbEntity
  8
0
  6
Continuous
100
AcDbLine
 10
-9.09740465026589
 20
11.98931658873496
 30
0.0
 11
-9.085498974191186
 21
11.94488400072566
 31
0.0
  0
ARC
  5
349
330
2
100
AcDbEntity
  8
0
  6
Continuous
100
AcDbCircle
 10
-9.05682817876691
 20
12.49110000000017
 30
0.0
 40
0.046
100
AcDbArc
 50
204.0706146225166
 51
224.9999999999999
  0
ARC
  5
34A
330
2
100
AcDbEntity
  8
0
  6
Continuous
100
AcDbCircle
 10
-9.034092618270684
 20
12.49750162342256
 30
0.0
 40
0.1148432675996877
100
AcDbArc
 50
188.4365649615204
 51
224.8347775975267
  0
LINE
  5
34B
330
2
100
AcDbEntity
  8
0
100
AcDbLine
 10
-9.19882817876692
 20
14.1
 30
0.0
 11
-9.773828178766923
 21
14.1
 31
0.0
  0
LINE
  5
34C
330
2
100
AcDbEntity
  8
0
100
AcDbLine
 10
-9.198828178766927
 20
14.15
 30
0.0
 11
-9.773828178766923
 21
14.15
 31
0.0
  0
LINE
  5
34D
330
2
100
AcDbEntity
  8
0
100
AcDbLine
 10
-9.033723678973789
 20
13.65919722692676
 30
0.0
 11
-9.033723678973789
 21
13.35272651447526
 31
0.0
  0
ARC
  5
34E
330
2
100
AcDbEntity
  8
0
100
AcDbCircle
 10
-9.198828178766927
 20
14.05
 30
0.0
 40
0.1
100
AcDbArc
 50
0.000000000000007
 51
90.0
  0
ARC
  5
34F
330
2
100
AcDbEntity
  8
0
100
AcDbCircle
 10
-9.19882817876692
 20
14.05
 30
0.0
 40
0.05
100
AcDbArc
 50
0.000000000000007
 51
90.0
  0
LINE
  5
350
330
2
100
AcDbEntity
  8
0
100
AcDbLine
 10
-9.773828178766923
 20
14.15
 30
0.0
 11
-9.773828178766923
 21
14.1
 31
0.0
  0
LINE
  5
370
330
2
100
AcDbEntity
  8
0
100
AcDbLine
 10
-6.898828178766916
 20
0.0500000000000004
 30
0.0
 11
-7.306707228357237
 21
0.0500000000000004
 31
0.0
  0
LINE
  5
371
330
2
100
AcDbEntity
  8
0
100
AcDbLine
 10
-7.492578178766916
 20
0.0500000000000004
 30
0.0
 11
-8.305892703562055
 21
0.0500000000000004
 31
0.0
  0
LINE
  5
372
330
2
100
AcDbEntity
  8
0
100
AcDbLine
 10
-8.491763653971734
 20
0.0500000000000004
 30
0.0
 11
-8.898828178766916
 21
0.0500000000000004
 31
0.0
  0
LINE
  5
373
330
2
100
AcDbEntity
  8
0
100
AcDbLine
 10
-6.898828178766916
 20
0.1000000000000046
 30
0.0
 11
-6.898828178766916
 21
0.0500000000000004
 31
0.0
  0
LINE
  5
374
330
2
100
AcDbEntity
  8
0
  6
Continuous
100
AcDbLine
 10
-6.898828178766916
 20
0.1000000000000046
 30
0.0
 11
-6.984181854727456
 21
0.1000000000000064
 31
0.0
  0
ARC
  5
375
330
2
100
AcDbEntity
  8
0
100
AcDbCircle
 10
-6.898828178766781
 20
0.0949999999999595
 30
0.0
 40
0.0855
100
AcDbArc
 50
90.0
 51
211.7568638592875
  0
LINE
  5
376
330
2
100
AcDbEntity
  8
0
  6
Continuous
100
AcDbLine
 10
-8.813474502806333
 20
0.0999999999999975
 30
0.0
 11
-8.898828178766923
 21
0.0999999999999993
 31
0.0
  0
ARC
  5
377
330
2
100
AcDbEntity
  8
0
100
AcDbCircle
 10
-8.898828178767008
 20
0.0949999999999595
 30
0.0
 40
0.0855
100
AcDbArc
 50
328.2431361407129
 51
90.0
  0
POINT
  5
378
330
2
100
AcDbEntity
  8
0
  6
ByBlock
100
AcDbPoint
 10
-8.898828178766923
 20
0.0999999999999993
 30
0.0
 50
180.0
  0
POINT
  5
379
330
2
100
AcDbEntity
  8
0
  6
ByBlock
100
AcDbPoint
 10
-8.898828178766923
 20
0.0999999999999993
 30
0.0
 50
180.0
  0
POINT
  5
37A
330
2
100
AcDbEntity
  8
0
  6
ByBlock
100
AcDbPoint
 10
-8.898828178766923
 20
0.0999999999999993
 30
0.0
 50
180.0
  0
POINT
  5
37B
330
2
100
AcDbEntity
  8
0
  6
ByBlock
100
AcDbPoint
 10
-8.898828178766923
 20
0.0999999999999993
 30
0.0
 50
180.0
  0
LINE
  5
37C
330
2
100
AcDbEntity
  8
0
100
AcDbLine
 10
-8.898828178766923
 20
0.0999999999999993
 30
0.0
 11
-8.898828178766916
 21
0.0500000000000004
 31
0.0
  0
LINE
  5
37D
330
2
100
AcDbEntity
  8
0
  6
HIDDEN
100
AcDbLine
 10
-8.813474502806333
 20
0.0999999999999975
 30
0.0
 11
-6.984181854727456
 21
0.1000000000000064
 31
0.0
  0
ARC
  5
37E
330
2
100
AcDbEntity
  8
0
100
AcDbCircle
 10
-8.398828178766895
 20
0.0623312589969803
 30
0.0
 40
0.09375
100
AcDbArc
 50
180.0
 51
0.0
  0
ARC
  5
37F
330
2
100
AcDbEntity
  8
0
100
AcDbCircle
 10
-7.399642703562076
 20
0.0623312589969803
 30
0.0
 40
0.09375
100
AcDbArc
 50
180.0
 51
0.0
  0
LINE
  5
395
330
2
100
AcDbEntity
  8
0
100
AcDbLine
 10
6.898828178766916
 20
0.0500000000000004
 30
0.0
 11
7.306707228357237
 21
0.0500000000000004
 31
0.0
  0
LINE
  5
396
330
2
100
AcDbEntity
  8
0
100
AcDbLine
 10
7.492578178766916
 20
0.0500000000000004
 30
0.0
 11
8.305892703562055
 21
0.0500000000000004
 31
0.0
  0
LINE
  5
397
330
2
100
AcDbEntity
  8
0
100
AcDbLine
 10
8.491763653971734
 20
0.0500000000000004
 30
0.0
 11
8.898828178766916
 21
0.0500000000000004
 31
0.0
  0
LINE
  5
398
330
2
100
AcDbEntity
  8
0
100
AcDbLine
 10
6.898828178766916
 20
0.1000000000000046
 30
0.0
 11
6.898828178766916
 21
0.0500000000000004
 31
0.0
  0
LINE
  5
399
330
2
100
AcDbEntity
  8
0
  6
Continuous
100
AcDbLine
 10
6.898828178766916
 20
0.1000000000000046
 30
0.0
 11
6.984181854727456
 21
0.1000000000000064
 31
0.0
  0
ARC
  5
39A
330
2
100
AcDbEntity
  8
0
100
AcDbCircle
 10
6.898828178766781
 20
0.0949999999999595
 30
0.0
 40
0.0855
100
AcDbArc
 50
328.2431361407125
 51
90.0
  0
LINE
  5
39B
330
2
100
AcDbEntity
  8
0
  6
Continuous
100
AcDbLine
 10
8.813474502806333
 20
0.0999999999999975
 30
0.0
 11
8.898828178766923
 21
0.0999999999999993
 31
0.0
  0
ARC
  5
39C
330
2
100
AcDbEntity
  8
0
100
AcDbCircle
 10
8.898828178767008
 20
0.0949999999999595
 30
0.0
 40
0.0855
100
AcDbArc
 50
90.0
 51
211.7568638592871
  0
POINT
  5
39D
330
2
100
AcDbEntity
  8
0
  6
ByBlock
100
AcDbPoint
 10
8.898828178766923
 20
0.0999999999999993
 30
0.0
 50
180.0
  0
POINT
  5
39E
330
2
100
AcDbEntity
  8
0
  6
ByBlock
100
AcDbPoint
 10
8.898828178766923
 20
0.0999999999999993
 30
0.0
 50
180.0
  0
POINT
  5
39F
330
2
100
AcDbEntity
  8
0
  6
ByBlock
100
AcDbPoint
 10
8.898828178766923
 20
0.0999999999999993
 30
0.0
 50
180.0
  0
POINT
  5
3A0
330
2
100
AcDbEntity
  8
0
  6
ByBlock
100
AcDbPoint
 10
8.898828178766923
 20
0.0999999999999993
 30
0.0
 50
180.0
  0
LINE
  5
3A1
330
2
100
AcDbEntity
  8
0
100
AcDbLine
 10
8.898828178766923
 20
0.0999999999999993
 30
0.0
 11
8.898828178766916
 21
0.0500000000000004
 31
0.0
  0
LINE
  5
3A2
330
2
100
AcDbEntity
  8
0
  6
HIDDEN
100
AcDbLine
 10
8.813474502806333
 20
0.0999999999999975
 30
0.0
 11
6.984181854727456
 21
0.1000000000000064
 31
0.0
  0
ARC
  5
3A3
330
2
100
AcDbEntity
  8
0
100
AcDbCircle
 10
8.398828178766895
 20
0.0623312589969803
 30
0.0
 40
0.09375
100
AcDbArc
 50
180.0
 51
0.000000000000007
  0
ARC
  5
3A4
330
2
100
AcDbEntity
  8
0
100
AcDbCircle
 10
7.399642703562076
 20
0.0623312589969803
 30
0.0
 40
0.09375
100
AcDbArc
 50
180.0
 51
0.000000000000007
  0
LINE
  5
3A5
330
2
100
AcDbEntity
  8
0
  6
HIDDEN
100
AcDbLine
 10
-1.649225413175461
 20
21.04643075500109
 30
0.0
 11
-1.27422541317544
 21
21.0464307550011
 31
0.0
  0
LINE
  5
3A6
330
2
100
AcDbEntity
  8
0
  6
HIDDEN
100
AcDbLine
 10
1.27422541317544
 20
21.0464307550011
 30
0.0
 11
1.649225413175461
 21
21.04643075500109
 31
0.0
  0
LINE
  5
3A7
330
2
100
AcDbEntity
  8
0
  6
HIDDEN
100
AcDbLine
 10
1.112500000000001
 20
14.1
 30
0.0
 11
1.487500000000008
 21
14.10000000000001
 31
0.0
  0
LINE
  5
3A8
330
2
100
AcDbEntity
  8
0
  6
HIDDEN
100
AcDbLine
 10
-1.112500000000001
 20
14.1
 30
0.0
 11
-1.487500000000022
 21
14.1
 31
0.0
  0
ENDSEC
  0
SECTION
  2
OBJECTS
  0
DICTIONARY
  5
9
330
0
100
AcDbDictionary
281
     1
  3
ACAD_COLOR
350
354
  3
ACAD_GROUP
350
23
  3
ACAD_LAYOUT
350
D
  3
ACAD_MATERIAL
350
353
  3
ACAD_MLINESTYLE
350
24
  3
ACAD_PLOTSETTINGS
350
25
  3
ACAD_PLOTSTYLENAME
350
8
  3
ACAD_TABLESTYLE
350
355
  3
ACDBHEADERROUNDTRIPXREC
350
3B2
  3
AcDbVariableDictionary
350
180
  0
DICTIONARY
  5
354
102
{ACAD_REACTORS
330
9
102
}
330
9
100
AcDbDictionary
281
     1
  0
DICTIONARY
  5
23
102
{ACAD_REACTORS
330
9
102
}
330
9
100
AcDbDictionary
281
     1
  0
DICTIONARY
  5
D
102
{ACAD_REACTORS
330
9
102
}
330
9
100
AcDbDictionary
281
     1
  3
Layout1
350
13
  3
Model
350
C
  0
DICTIONARY
  5
353
102
{ACAD_REACTORS
330
9
102
}
330
9
100
AcDbDictionary
281
     1
  0
DICTIONARY
  5
24
102
{ACAD_REACTORS
330
9
102
}
330
9
100
AcDbDictionary
281
     1
  3
STANDARD
350
27
  0
DICTIONARY
  5
25
102
{ACAD_REACTORS
330
9
102
}
330
9
100
AcDbDictionary
281
     1
  0
ACDBDICTIONARYWDFLT
  5
8
102
{ACAD_REACTORS
330
9
102
}
330
9
100
AcDbDictionary
281
     1
  3
Normal
350
7
100
AcDbDictionaryWithDefault
340
7
  0
DICTIONARY
  5
355
102
{ACAD_REACTORS
330
9
102
}
330
9
100
AcDbDictionary
281
     1
  3
Standard
350
356
  0
DICTIONARY
  5
3B2
102
{ACAD_REACTORS
330
9
102
}
330
9
100
AcDbDictionary
281
     1
  3
COLORDICT
350
3B3
  3
MATERIALDICT
350
3B4
  0
DICTIONARY
  5
180
102
{ACAD_REACTORS
330
9
102
}
330
9
100
AcDbDictionary
281
     1
  3
CTABLESTYLE
350
3AF
  3
HIDETEXT
350
3B1
  0
LAYOUT
  5
13
102
{ACAD_REACTORS
330
D
102
}
102
{ACAD_XDICTIONARY
360
3B5
102
}
330
D
100
AcDbPlotSettings
  1

  2
HP LaserJet 2100 Series PS
  4

  6

 40
0.0
 41
0.0
 42
0.0
 43
0.0
 44
0.0
 45
0.0
 46
0.0
 47
0.0
 48
0.0
 49
0.0
140
0.0
141
0.0
142
1.0
143
1.0
 70
   688
 72
     0
 73
     0
 74
     5
  7

 75
    16
147
1.0
148
0.0
149
0.0
100
AcDbLayout
  1
Layout1
 70
     0
 71
     1
 10
0.0
 20
0.0
 11
12.0
 21
9.0
 12
0.0
 22
0.0
 32
0.0
 14
1.000000000000000E+20
 24
1.000000000000000E+20
 34
1.000000000000000E+20
 15
-1.000000000000000E+20
 25
-1.000000000000000E+20
 35
-1.000000000000000E+20
146
0.0
 13
0.0
 23
0.0
 33
0.0
 16
1.0
 26
0.0
 36
0.0
 17
0.0
 27
1.0
 37
0.0
 76
     0
330
E
  0
LAYOUT
  5
C
102
{ACAD_REACTORS
330
D
102
}
102
{ACAD_XDICTIONARY
360
3B7
102
}
330
D
100
AcDbPlotSettings
  1

  2
HP LaserJet 2100 Series PS
  4
Letter
  6

 40
5.365749835968018
 41
5.386905193328857
 42
5.386917114257813
 43
5.365753173828125
 44
215.8999938964844
 45
279.3999938964844
 46
0.0
 47
0.0
 48
0.0
 49
0.0
140
0.0
141
0.0
142
1.0
143
1.0
 70
 11952
 72
     0
 73
     1
 74
     0
  7

 75
     0
147
1.0
148
-109.2000906416364
149
4.773316820069854
100
AcDbLayout
  1
Model
 70
     1
 71
     0
 10
0.0
 20
0.0
 11
12.0
 21
9.0
 12
0.0
 22
0.0
 32
0.0
 14
0.0
 24
0.0
 34
0.0
 15
0.0
 25
0.0
 35
0.0
146
0.0
 13
0.0
 23
0.0
 33
0.0
 16
1.0
 26
0.0
 36
0.0
 17
0.0
 27
1.0
 37
0.0
 76
     0
330
2
  0
MLINESTYLE
  5
27
102
{ACAD_REACTORS
330
24
102
}
330
24
100
AcDbMlineStyle
  2
STANDARD
 70
     0
  3

 62
   256
 51
90.0
 52
90.0
 71
     2
 49
0.5
 62
   256
  6
BYLAYER
 49
-0.5
 62
   256
  6
BYLAYER
  0
ACDBPLACEHOLDER
  5
7
102
{ACAD_REACTORS
330
8
102
}
330
8
  0
ACAD_PROXY_OBJECT
  5
356
102
{ACAD_REACTORS
330
355
102
}
330
355
100
AcDbProxyObject
 90
      499
 91
      561
 95
   983063
 70
     0
 93
     1841
310
4214DD185B99185C9928B81E85EB51B8AE3F2E07A17AD46E2B8FC02B5E8DC0F42B1CFD028000000C1008070000C3001FDFF8000000C1003FBFF000000182007F7FE00000030400FEFFC00000060801FDFF8000000C1003FBFF00000018200000000000000681FA0B0000001820100E000186003FBFF000000182007F7FE000
310
00030400FEFFC00000060801FDFF8000000C1003FBFF000000182007F7FE000000304000AD7A3703D0AC73F4160000003040201C00030C007F7FE00000030400FEFFC00000060801FDFF8000000C1003FBFF000000182007F7FE00000030400FEFFC000000608000
340
16
340
16
340
16
 94
        0
  0
XRECORD
  5
3B3
102
{ACAD_REACTORS
330
3B2
102
}
330
3B2
100
AcDbXrecord
340
354
  0
XRECORD
  5
3B4
102
{ACAD_REACTORS
330
3B2
102
}
330
3B2
100
AcDbXrecord
340
353
  0
DICTIONARYVAR
  5
3AF
102
{ACAD_REACTORS
330
180
102
}
330
180
100
DictionaryVariables
280
     0
  1
STANDARD
  0
DICTIONARYVAR
  5
3B1
102
{ACAD_REACTORS
330
180
102
}
330
180
100
DictionaryVariables
280
     0
  1
1
  0
DICTIONARY
  5
3B5
330
13
100
AcDbDictionary
280
     1
281
     1
  3
ACAD_XREC_ROUNDTRIP
360
3B6
  0
DICTIONARY
  5
3B7
330
C
100
AcDbDictionary
280
     1
281
     1
  3
ACAD_XREC_ROUNDTRIP
360
3B8
  0
XRECORD
  5
3B6
102
{ACAD_REACTORS
330
3B5
102
}
330
3B5
100
AcDbXrecord
102
SHADEPLOT
 70
     0
102
SHADEPLOTRESLEVEL
 70
     2
102
SHADEPLOTCUSTOMDPI
 70
   300
  0
XRECORD
  5
3B8
102
{ACAD_REACTORS
330
3B7
102
}
330
3B7
100
AcDbXrecord
102
SHADEPLOT
 70
     0
102
SHADEPLOTRESLEVEL
 70
     2
102
SHADEPLOTCUSTOMDPI
 70
   300
  0
ENDSEC
  0
EOF
