  0
SECTION
  2
HEADER
  9
$ACADVER
  1
AC1015
  9
$ACADMAINTVER
 70
     6
  9
$DWGCODEPAGE
  3
ANSI_1252
  9
$INSBASE
 10
0.0
 20
0.0
 30
0.0
  9
$EXTMIN
 10
-9.037783730482065
 20
-0.0314187410030197
 30
0.0
  9
$EXTMAX
 10
9.037783730482065
 20
22.6154323052308
 30
0.0
  9
$LIMMIN
 10
0.0
 20
0.0
  9
$LIMMAX
 10
24.0
 20
31.5
  9
$ORTHOMODE
 70
     1
  9
$REGENMODE
 70
     1
  9
$FILLMODE
 70
     1
  9
$QTEXTMODE
 70
     0
  9
$MIRRTEXT
 70
     0
  9
$LTSCALE
 40
0.6
  9
$ATTMODE
 70
     1
  9
$TEXTSIZE
 40
0.27
  9
$TRACEWID
 40
0.05
  9
$TEXTSTYLE
  7
STANDARD
  9
$CLAYER
  8
0
  9
$CELTYPE
  6
HIDDEN
  9
$CECOLOR
 62
   256
  9
$CELTSCALE
 40
1.0
  9
$DISPSILH
 70
     0
  9
$DIMSCALE
 40
3.0
  9
$DIMASZ
 40
0.125
  9
$DIMEXO
 40
0.062
  9
$DIMDLI
 40
0.375
  9
$DIMRND
 40
0.0
  9
$DIMDLE
 40
0.0
  9
$DIMEXE
 40
0.08
  9
$DIMTP
 40
0.0
  9
$DIMTM
 40
0.0
  9
$DIMTXT
 40
0.09
  9
$DIMCEN
 40
-0.03125
  9
$DIMTSZ
 40
0.0
  9
$DIMTOL
 70
     0
  9
$DIMLIM
 70
     0
  9
$DIMTIH
 70
     1
  9
$DIMTOH
 70
     1
  9
$DIMSE1
 70
     0
  9
$DIMSE2
 70
     0
  9
$DIMTAD
 70
     0
  9
$DIMZIN
 70
     0
  9
$DIMBLK
  1

  9
$DIMASO
 70
     1
  9
$DIMSHO
 70
     0
  9
$DIMPOST
  1

  9
$DIMAPOST
  1

  9
$DIMALT
 70
     0
  9
$DIMALTD
 70
     2
  9
$DIMALTF
 40
25.4
  9
$DIMLFAC
 40
1.0
  9
$DIMTOFL
 70
     0
  9
$DIMTVP
 40
0.0
  9
$DIMTIX
 70
     0
  9
$DIMSOXD
 70
     0
  9
$DIMSAH
 70
     0
  9
$DIMBLK1
  1

  9
$DIMBLK2
  1

  9
$DIMSTYLE
  2
STANDARD
  9
$DIMCLRD
 70
     0
  9
$DIMCLRE
 70
     0
  9
$DIMCLRT
 70
     0
  9
$DIMTFAC
 40
1.0
  9
$DIMGAP
 40
0.09
  9
$DIMJUST
 70
     0
  9
$DIMSD1
 70
     0
  9
$DIMSD2
 70
     0
  9
$DIMTOLJ
 70
     1
  9
$DIMTZIN
 70
     0
  9
$DIMALTZ
 70
     0
  9
$DIMALTTZ
 70
     0
  9
$DIMUPT
 70
     0
  9
$DIMDEC
 70
     5
  9
$DIMTDEC
 70
     4
  9
$DIMALTU
 70
     2
  9
$DIMALTTD
 70
     2
  9
$DIMTXSTY
  7
STANDARD
  9
$DIMAUNIT
 70
     0
  9
$DIMADEC
 70
     0
  9
$DIMALTRND
 40
0.0
  9
$DIMAZIN
 70
     0
  9
$DIMDSEP
 70
    46
  9
$DIMATFIT
 70
     3
  9
$DIMFRAC
 70
     2
  9
$DIMLDRBLK
  1

  9
$DIMLUNIT
 70
     5
  9
$DIMLWD
 70
    -2
  9
$DIMLWE
 70
    -2
  9
$DIMTMOVE
 70
     2
  9
$LUNITS
 70
     2
  9
$LUPREC
 70
     4
  9
$SKETCHINC
 40
0.1
  9
$FILLETRAD
 40
0.0
  9
$AUNITS
 70
     0
  9
$AUPREC
 70
     0
  9
$MENU
  1
ACAD
  9
$ELEVATION
 40
0.0
  9
$PELEVATION
 40
0.0
  9
$THICKNESS
 40
0.0
  9
$LIMCHECK
 70
     0
  9
$CHAMFERA
 40
0.0
  9
$CHAMFERB
 40
0.0
  9
$CHAMFERC
 40
0.0
  9
$CHAMFERD
 40
0.0
  9
$SKPOLY
 70
     0
  9
$TDCREATE
 40
2449436.746120833
  9
$TDUCREATE
 40
2449437.079454167
  9
$TDUPDATE
 40
2454166.943210706
  9
$TDUUPDATE
 40
2454167.276544039
  9
$TDINDWG
 40
0.786961412
  9
$TDUSRTIMER
 40
0.786961412
  9
$USRTIMER
 70
     1
  9
$ANGBASE
 50
0.0
  9
$ANGDIR
 70
     0
  9
$PDMODE
 70
     0
  9
$PDSIZE
 40
0.0
  9
$PLINEWID
 40
0.0
  9
$SPLFRAME
 70
     0
  9
$SPLINETYPE
 70
     6
  9
$SPLINESEGS
 70
     8
  9
$HANDSEED
  5
392
  9
$SURFTAB1
 70
     6
  9
$SURFTAB2
 70
     6
  9
$SURFTYPE
 70
     6
  9
$SURFU
 70
     6
  9
$SURFV
 70
     6
  9
$UCSBASE
  2

  9
$UCSNAME
  2

  9
$UCSORG
 10
0.0
 20
0.0
 30
0.0
  9
$UCSXDIR
 10
1.0
 20
0.0
 30
0.0
  9
$UCSYDIR
 10
0.0
 20
1.0
 30
0.0
  9
$UCSORTHOREF
  2

  9
$UCSORTHOVIEW
 70
     0
  9
$UCSORGTOP
 10
0.0
 20
0.0
 30
0.0
  9
$UCSORGBOTTOM
 10
0.0
 20
0.0
 30
0.0
  9
$UCSORGLEFT
 10
0.0
 20
0.0
 30
0.0
  9
$UCSORGRIGHT
 10
0.0
 20
0.0
 30
0.0
  9
$UCSORGFRONT
 10
0.0
 20
0.0
 30
0.0
  9
$UCSORGBACK
 10
0.0
 20
0.0
 30
0.0
  9
$PUCSBASE
  2

  9
$PUCSNAME
  2

  9
$PUCSORG
 10
0.0
 20
0.0
 30
0.0
  9
$PUCSXDIR
 10
1.0
 20
0.0
 30
0.0
  9
$PUCSYDIR
 10
0.0
 20
1.0
 30
0.0
  9
$PUCSORTHOREF
  2

  9
$PUCSORTHOVIEW
 70
     0
  9
$PUCSORGTOP
 10
0.0
 20
0.0
 30
0.0
  9
$PUCSORGBOTTOM
 10
0.0
 20
0.0
 30
0.0
  9
$PUCSORGLEFT
 10
0.0
 20
0.0
 30
0.0
  9
$PUCSORGRIGHT
 10
0.0
 20
0.0
 30
0.0
  9
$PUCSORGFRONT
 10
0.0
 20
0.0
 30
0.0
  9
$PUCSORGBACK
 10
0.0
 20
0.0
 30
0.0
  9
$USERI1
 70
     0
  9
$USERI2
 70
     0
  9
$USERI3
 70
     0
  9
$USERI4
 70
     0
  9
$USERI5
 70
     0
  9
$USERR1
 40
0.0
  9
$USERR2
 40
0.0
  9
$USERR3
 40
0.0
  9
$USERR4
 40
0.0
  9
$USERR5
 40
0.0
  9
$WORLDVIEW
 70
     1
  9
$SHADEDGE
 70
     3
  9
$SHADEDIF
 70
    70
  9
$TILEMODE
 70
     1
  9
$MAXACTVP
 70
    16
  9
$PINSBASE
 10
0.0
 20
0.0
 30
0.0
  9
$PLIMCHECK
 70
     0
  9
$PEXTMIN
 10
1.000000000000000E+20
 20
1.000000000000000E+20
 30
1.000000000000000E+20
  9
$PEXTMAX
 10
-1.000000000000000E+20
 20
-1.000000000000000E+20
 30
-1.000000000000000E+20
  9
$PLIMMIN
 10
0.0
 20
0.0
  9
$PLIMMAX
 10
12.0
 20
9.0
  9
$UNITMODE
 70
     0
  9
$VISRETAIN
 70
     0
  9
$PLINEGEN
 70
     0
  9
$PSLTSCALE
 70
     0
  9
$TREEDEPTH
 70
  3020
  9
$CMLSTYLE
  2
STANDARD
  9
$CMLJUST
 70
     0
  9
$CMLSCALE
 40
1.0
  9
$PROXYGRAPHICS
 70
     1
  9
$MEASUREMENT
 70
     0
  9
$CELWEIGHT
370
    -1
  9
$ENDCAPS
280
     0
  9
$JOINSTYLE
280
     0
  9
$LWDISPLAY
290
     0
  9
$INSUNITS
 70
     0
  9
$HYPERLINKBASE
  1

  9
$STYLESHEET
  1

  9
$XEDIT
290
     1
  9
$CEPSNTYPE
380
     0
  9
$PSTYLEMODE
290
     1
  9
$FINGERPRINTGUID
  2
{7E1BADDA-439C-11D5-BE3F-00508B5FCD51}
  9
$VERSIONGUID
  2
{C6731E9E-67F9-4B63-8F04-21781F5CD9DE}
  9
$EXTNAMES
290
     1
  9
$PSVPSCALE
 40
0.0
  9
$OLESTARTUP
290
     0
  0
ENDSEC
  0
SECTION
  2
CLASSES
  0
CLASS
  1
DICTIONARYVAR
  2
AcDbDictionaryVar
  3
AutoCAD 2000
 90
        0
280
     0
281
     0
  0
CLASS
  1
LWPOLYLINE
  2
AcDbPolyline
  3
AutoCAD 2000
 90
        0
280
     0
281
     1
  0
CLASS
  1
ACDBDICTIONARYWDFLT
  2
AcDbDictionaryWithDefault
  3
AutoCAD 2000
 90
        0
280
     0
281
     0
  0
CLASS
  1
ACDBPLACEHOLDER
  2
AcDbPlaceHolder
  3
ObjectDBX Classes
 90
        0
280
     0
281
     0
  0
CLASS
  1
LAYOUT
  2
AcDbLayout
  3
ObjectDBX Classes
 90
        0
280
     0
281
     0
  0
CLASS
  1
LONG_TRANSACTION
  2
AcDbLongTransaction
  3
ObjectDBX Classes
 90
   -65536
280
     1
281
     0
  0
CLASS
  1
LWPOLYLINE
  2
AcDbPolyline
  3
AutoCAD 2000
 90
        0
280
     0
281
     1
  0
CLASS
  1
HATCH
  2
AcDbHatch
  3
AutoCAD 2000
 90
        0
280
     0
281
     1
  0
CLASS
  1
XRECORD
  2
AcDbXrecord
  3
AutoCAD 2000
 90
        0
280
     0
281
     0
  0
CLASS
  1
LONG_TRANSACTION
  2
AcDbLongTransaction
  3
ObjectDBX Classes
 90
   -65536
280
     1
281
     0
  0
CLASS
  1
LWPOLYLINE
  2
AcDbPolyline
  3
AutoCAD 2000
 90
        0
280
     0
281
     1
  0
CLASS
  1
HATCH
  2
AcDbHatch
  3
AutoCAD 2000
 90
        0
280
     0
281
     1
  0
CLASS
  1
XRECORD
  2
AcDbXrecord
  3
AutoCAD 2000
 90
        0
280
     0
281
     0
  0
CLASS
  1
LONG_TRANSACTION
  2
AcDbLongTransaction
  3
ObjectDBX Classes
 90
   -65536
280
     1
281
     0
  0
CLASS
  1
LWPOLYLINE
  2
AcDbPolyline
  3
AutoCAD 2000
 90
        0
280
     0
281
     1
  0
CLASS
  1
HATCH
  2
AcDbHatch
  3
AutoCAD 2000
 90
        0
280
     0
281
     1
  0
CLASS
  1
XRECORD
  2
AcDbXrecord
  3
AutoCAD 2000
 90
        0
280
     0
281
     0
  0
CLASS
  1
LONG_TRANSACTION
  2
AcDbLongTransaction
  3
ObjectDBX Classes
 90
   -65536
280
     1
281
     0
  0
CLASS
  1
LWPOLYLINE
  2
AcDbPolyline
  3
AutoCAD 2000
 90
        0
280
     0
281
     1
  0
CLASS
  1
HATCH
  2
AcDbHatch
  3
AutoCAD 2000
 90
        0
280
     0
281
     1
  0
CLASS
  1
XRECORD
  2
AcDbXrecord
  3
AutoCAD 2000
 90
        0
280
     0
281
     0
  0
CLASS
  1
LONG_TRANSACTION
  2
AcDbLongTransaction
  3
ObjectDBX Classes
 90
   -65536
280
     1
281
     0
  0
CLASS
  1
LWPOLYLINE
  2
AcDbPolyline
  3
AutoCAD 2000
 90
        0
280
     0
281
     1
  0
CLASS
  1
HATCH
  2
AcDbHatch
  3
AutoCAD 2000
 90
        0
280
     0
281
     1
  0
CLASS
  1
XRECORD
  2
AcDbXrecord
  3
AutoCAD 2000
 90
        0
280
     0
281
     0
  0
CLASS
  1
LONG_TRANSACTION
  2
AcDbLongTransaction
  3
ObjectDBX Classes
 90
   -65536
280
     1
281
     0
  0
CLASS
  1
LWPOLYLINE
  2
AcDbPolyline
  3
AutoCAD 2000
 90
        0
280
     0
281
     1
  0
CLASS
  1
HATCH
  2
AcDbHatch
  3
AutoCAD 2000
 90
        0
280
     0
281
     1
  0
CLASS
  1
XRECORD
  2
AcDbXrecord
  3
AutoCAD 2000
 90
        0
280
     0
281
     0
  0
CLASS
  1
LONG_TRANSACTION
  2
AcDbLongTransaction
  3
ObjectDBX Classes
 90
   -65536
280
     1
281
     0
  0
CLASS
  1
LWPOLYLINE
  2
AcDbPolyline
  3
AutoCAD 2000
 90
        0
280
     0
281
     1
  0
CLASS
  1
HATCH
  2
AcDbHatch
  3
AutoCAD 2000
 90
        0
280
     0
281
     1
  0
CLASS
  1
XRECORD
  2
AcDbXrecord
  3
AutoCAD 2000
 90
        0
280
     0
281
     0
  0
CLASS
  1
LONG_TRANSACTION
  2
AcDbLongTransaction
  3
ObjectDBX Classes
 90
   -65536
280
     1
281
     0
  0
CLASS
  1
LWPOLYLINE
  2
AcDbPolyline
  3
AutoCAD 2000
 90
        0
280
     0
281
     1
  0
CLASS
  1
HATCH
  2
AcDbHatch
  3
AutoCAD 2000
 90
        0
280
     0
281
     1
  0
CLASS
  1
XRECORD
  2
AcDbXrecord
  3
AutoCAD 2000
 90
        0
280
     0
281
     0
  0
CLASS
  1
LONG_TRANSACTION
  2
AcDbLongTransaction
  3
ObjectDBX Classes
 90
   -65536
280
     1
281
     0
  0
CLASS
  1
LWPOLYLINE
  2
AcDbPolyline
  3
AutoCAD 2000
 90
        0
280
     0
281
     1
  0
CLASS
  1
HATCH
  2
AcDbHatch
  3
AutoCAD 2000
 90
        0
280
     0
281
     1
  0
CLASS
  1
XRECORD
  2
AcDbXrecord
  3
AutoCAD 2000
 90
        0
280
     0
281
     0
  0
CLASS
  1
LONG_TRANSACTION
  2
AcDbLongTransaction
  3
ObjectDBX Classes
 90
   -65536
280
     1
281
     0
  0
CLASS
  1
LWPOLYLINE
  2
AcDbPolyline
  3
AutoCAD 2000
 90
        0
280
     0
281
     1
  0
CLASS
  1
HATCH
  2
AcDbHatch
  3
AutoCAD 2000
 90
        0
280
     0
281
     1
  0
CLASS
  1
XRECORD
  2
AcDbXrecord
  3
AutoCAD 2000
 90
        0
280
     0
281
     0
  0
CLASS
  1
LONG_TRANSACTION
  2
AcDbLongTransaction
  3
ObjectDBX Classes
 90
   -65536
280
     1
281
     0
  0
CLASS
  1
LWPOLYLINE
  2
AcDbPolyline
  3
AutoCAD 2000
 90
        0
280
     0
281
     1
  0
CLASS
  1
HATCH
  2
AcDbHatch
  3
AutoCAD 2000
 90
        0
280
     0
281
     1
  0
CLASS
  1
XRECORD
  2
AcDbXrecord
  3
AutoCAD 2000
 90
        0
280
     0
281
     0
  0
CLASS
  1
LONG_TRANSACTION
  2
AcDbLongTransaction
  3
ObjectDBX Classes
 90
   -65536
280
     1
281
     0
  0
CLASS
  1
LWPOLYLINE
  2
AcDbPolyline
  3
AutoCAD 2000
 90
        0
280
     0
281
     1
  0
CLASS
  1
HATCH
  2
AcDbHatch
  3
AutoCAD 2000
 90
        0
280
     0
281
     1
  0
CLASS
  1
XRECORD
  2
AcDbXrecord
  3
AutoCAD 2000
 90
        0
280
     0
281
     0
  0
CLASS
  1
LONG_TRANSACTION
  2
AcDbLongTransaction
  3
ObjectDBX Classes
 90
   -65536
280
     1
281
     0
  0
CLASS
  1
LWPOLYLINE
  2
AcDbPolyline
  3
AutoCAD 2000
 90
        0
280
     0
281
     1
  0
CLASS
  1
HATCH
  2
AcDbHatch
  3
AutoCAD 2000
 90
        0
280
     0
281
     1
  0
CLASS
  1
XRECORD
  2
AcDbXrecord
  3
AutoCAD 2000
 90
        0
280
     0
281
     0
  0
CLASS
  1
LONG_TRANSACTION
  2
AcDbLongTransaction
  3
ObjectDBX Classes
 90
   -65536
280
     1
281
     0
  0
CLASS
  1
LWPOLYLINE
  2
AcDbPolyline
  3
AutoCAD 2000
 90
        0
280
     0
281
     1
  0
CLASS
  1
HATCH
  2
AcDbHatch
  3
AutoCAD 2000
 90
        0
280
     0
281
     1
  0
CLASS
  1
XRECORD
  2
AcDbXrecord
  3
AutoCAD 2000
 90
        0
280
     0
281
     0
  0
CLASS
  1
LONG_TRANSACTION
  2
AcDbLongTransaction
  3
ObjectDBX Classes
 90
   -65536
280
     1
281
     0
  0
CLASS
  1
LWPOLYLINE
  2
AcDbPolyline
  3
AutoCAD 2000
 90
        0
280
     0
281
     1
  0
CLASS
  1
HATCH
  2
AcDbHatch
  3
AutoCAD 2000
 90
        0
280
     0
281
     1
  0
CLASS
  1
XRECORD
  2
AcDbXrecord
  3
AutoCAD 2000
 90
        0
280
     0
281
     0
  0
CLASS
  1
TABLESTYLE
  2
AcDbTableStyle
  3
ObjectDBX Classes
 90
     2047
280
     1
281
     0
  0
CLASS
  1
SORTENTSTABLE
  2
AcDbSortentsTable
  3
AutoCAD 2000
 90
        0
280
     0
281
     0
  0
ENDSEC
  0
SECTION
  2
TABLES
  0
TABLE
  2
VPORT
  5
1D
330
0
100
AcDbSymbolTable
 70
     3
  0
VPORT
  5
384
330
1D
100
AcDbSymbolTableRecord
100
AcDbViewportTableRecord
  2
*Active
 70
     0
 10
0.0
 20
0.0
 11
1.0
 21
1.0
 12
7.547500107934113
 22
12.67465498517683
 13
0.0
 23
0.0
 14
0.063
 24
0.063
 15
0.25
 25
0.25
 16
0.0
 26
0.0
 36
1.0
 17
0.0
 27
0.0
 37
0.0
 40
31.92504934890423
 41
1.814583333333333
 42
50.0
 43
0.0
 44
0.0
 50
0.0
 51
0.0
 71
     0
 72
   100
 73
     1
 74
     0
 75
     0
 76
     0
 77
     0
 78
     1
281
     0
 65
     1
110
0.0
120
0.0
130
0.0
111
1.0
121
0.0
131
0.0
112
0.0
122
1.0
132
0.0
 79
     0
146
0.0
  0
ENDTAB
  0
TABLE
  2
LTYPE
  5
18
330
0
100
AcDbSymbolTable
 70
     3
  0
LTYPE
  5
19
330
18
100
AcDbSymbolTableRecord
100
AcDbLinetypeTableRecord
  2
BYBLOCK
 70
     0
  3

 72
    65
 73
     0
 40
0.0
  0
LTYPE
  5
1A
330
18
100
AcDbSymbolTableRecord
100
AcDbLinetypeTableRecord
  2
BYLAYER
 70
     0
  3

 72
    65
 73
     0
 40
0.0
  0
LTYPE
  5
A
330
18
100
AcDbSymbolTableRecord
100
AcDbLinetypeTableRecord
  2
CONTINUOUS
 70
     0
  3
Solid line
 72
    65
 73
     0
 40
0.0
  0
LTYPE
  5
3A
330
18
100
AcDbSymbolTableRecord
100
AcDbLinetypeTableRecord
  2
HIDDEN2
 70
     0
  3
Hidden (.5x) _ _ _ _ _ _ _ _ _ _ _ _ _ _ _ _ _
 72
    65
 73
     2
 40
0.1875
 49
0.125
 74
     0
 49
-0.0625
 74
     0
  0
LTYPE
  5
32F
330
18
100
AcDbSymbolTableRecord
100
AcDbLinetypeTableRecord
  2
HIDDEN
 70
     0
  3
Hidden __ __ __ __ __ __ __ __ __ __ __ __ __ _
 72
    65
 73
     2
 40
0.375
 49
0.25
 74
     0
 49
-0.125
 74
     0
  0
ENDTAB
  0
TABLE
  2
LAYER
  5
14
330
0
100
AcDbSymbolTable
 70
     1
  0
LAYER
  5
6
330
14
100
AcDbSymbolTableRecord
100
AcDbLayerTableRecord
  2
0
 70
     0
 62
     7
  6
CONTINUOUS
370
    -3
390
7
  0
ENDTAB
  0
TABLE
  2
STYLE
  5
15
330
0
100
AcDbSymbolTable
 70
     1
  0
STYLE
  5
16
330
15
100
AcDbSymbolTableRecord
100
AcDbTextStyleTableRecord
  2
STANDARD
 70
     0
 40
0.0
 41
1.0
 50
0.0
 71
     0
 42
0.27
  3
TXT
  4

  0
ENDTAB
  0
TABLE
  2
VIEW
  5
1B
330
0
100
AcDbSymbolTable
 70
     0
  0
ENDTAB
  0
TABLE
  2
UCS
  5
1C
330
0
100
AcDbSymbolTable
 70
     0
  0
ENDTAB
  0
TABLE
  2
APPID
  5
1F
330
0
100
AcDbSymbolTable
 70
     2
  0
APPID
  5
20
330
1F
100
AcDbSymbolTableRecord
100
AcDbRegAppTableRecord
  2
ACAD
 70
     0
  0
APPID
  5
38
330
1F
100
AcDbSymbolTableRecord
100
AcDbRegAppTableRecord
  2
_DIE112SSJYHX
 70
     0
  0
ENDTAB
  0
TABLE
  2
DIMSTYLE
  5
21
330
0
100
AcDbSymbolTable
 70
     1
100
AcDbDimStyleTable
  0
DIMSTYLE
105
28
330
21
100
AcDbSymbolTableRecord
100
AcDbDimStyleTableRecord
  2
STANDARD
 70
     0
  3

  4

340
16
  0
ENDTAB
  0
TABLE
  2
BLOCK_RECORD
  5
1
330
0
100
AcDbSymbolTable
 70
     0
  0
BLOCK_RECORD
  5
2
330
1
100
AcDbSymbolTableRecord
100
AcDbBlockTableRecord
  2
*MODEL_SPACE
340
C
  0
BLOCK_RECORD
  5
E
330
1
100
AcDbSymbolTableRecord
100
AcDbBlockTableRecord
  2
*PAPER_SPACE
340
13
  0
ENDTAB
  0
ENDSEC
  0
SECTION
  2
BLOCKS
  0
BLOCK
  5
5
330
2
100
AcDbEntity
  8
0
100
AcDbBlockBegin
  2
*MODEL_SPACE
 70
     0
 10
0.0
 20
0.0
 30
0.0
  3
*MODEL_SPACE
  1

  4

  0
ENDBLK
  5
B
330
2
100
AcDbEntity
  8
0
100
AcDbBlockEnd
  0
BLOCK
  5
11
330
E
100
AcDbEntity
 67
     1
  8
0
100
AcDbBlockBegin
  2
*PAPER_SPACE
 70
     0
 10
0.0
 20
0.0
 30
0.0
  3
*PAPER_SPACE
  1

  4

  0
ENDBLK
  5
12
330
E
100
AcDbEntity
 67
     1
  8
0
100
AcDbBlockEnd
  0
ENDSEC
  0
SECTION
  2
ENTITIES
  0
LINE
  5
271
330
2
100
AcDbEntity
  8
0
100
AcDbLine
 10
0.1044768001801764
 20
4.38022507726569
 30
0.0
 11
-0.0582731998525894
 21
4.474188833332528
 31
0.0
  0
LINE
  5
272
330
2
100
AcDbEntity
  8
0
100
AcDbLine
 10
0.1044768001474274
 20
4.622279177624199
 30
0.0
 11
-0.0582731998525894
 21
4.528315421069058
 31
0.0
  0
LINE
  5
274
330
2
100
AcDbEntity
  8
0
100
AcDbLine
 10
-0.0778518846960843
 20
0.9972605845752476
 30
0.0
 11
0.072148115303893
 21
1.020000000000028
 31
0.0
  0
ARC
  5
275
330
2
100
AcDbEntity
  8
0
100
AcDbCircle
 10
-0.0778518846961411
 20
1.132499999999983
 30
0.0
 40
0.1875
100
AcDbArc
 50
216.8698976458378
 51
323.130102354154
  0
LINE
  5
276
330
2
100
AcDbEntity
  8
0
100
AcDbLine
 10
0.0721481153037793
 20
1.019999999999914
 30
0.0
 11
-0.077851884696198
 21
1.194999999999869
 31
0.0
  0
LINE
  5
277
330
2
100
AcDbEntity
  8
0
100
AcDbLine
 10
-0.1314052752894348
 20
4.746446609406666
 30
0.0
 11
-0.0492984941027679
 21
4.828553390593333
 31
0.0
  0
ARC
  5
278
330
2
100
AcDbEntity
  8
0
100
AcDbCircle
 10
-1.280351884696028
 20
3.464235042592966
 30
0.0
 40
1.002500000000012
100
AcDbArc
 50
325.0000000000025
 51
359.9999999999998
1001
_DIE112SSJYHX
1002
{
1000
comp_type
1000
DBL24
1000
material
1000
D-2
1000
thickness
1040
1.25
1000
mount
1000
SBP10
1000
mntlay
1000
DIE_SUB_PLATE
1002
}
  0
LINE
  5
279
330
2
100
AcDbEntity
  8
0
  6
HIDDEN2
100
AcDbLine
 10
-0.8716018846961013
 20
0.0500000000000007
 30
0.0
 11
-0.8716018846961298
 21
1.612499999999979
 31
0.0
  0
LINE
  5
27A
330
2
100
AcDbEntity
  8
0
  6
HIDDEN2
100
AcDbLine
 10
-0.6841018846961084
 20
0.0500000000000007
 30
0.0
 11
-0.6841018846961298
 21
1.612499999999979
 31
0.0
  0
LINE
  5
27B
330
2
100
AcDbEntity
  8
0
100
AcDbLine
 10
-1.277851884696243
 20
0.1804999999999595
 30
0.0
 11
-1.277851884696016
 21
1.563138852532394
 31
0.0
  0
ARC
  5
27F
330
2
100
AcDbEntity
  8
0
100
AcDbCircle
 10
-0.7803518846960138
 20
1.563138852532394
 30
0.0
 40
0.4975
100
AcDbArc
 50
144.9999999999964
 51
180.0
1001
_DIE112SSJYHX
1002
{
1000
comp_type
1000
DBL24
1000
material
1000
D-2
1000
thickness
1040
1.25
1000
mount
1000
SBP10
1000
mntlay
1000
DIE_SUB_PLATE
1002
}
  0
LWPOLYLINE
  5
280
330
2
100
AcDbEntity
  8
0
100
AcDbPolyline
 90
       43
 70
     0
 43
0.0
 10
-0.0903518846961013
 20
1.354328618174613
 10
-0.0916040816466612
 20
1.720478412976537
 10
-0.0944705093468166
 20
1.808155638876588
 10
-0.0987400791468609
 20
1.888230283776514
 10
-0.1041197341467033
 20
1.961392941076431
 10
-0.1103889296466569
 20
2.028257840476547
 10
-0.1173818972467835
 20
2.089385567376487
 10
-0.1249718076467126
 20
2.145260034176593
 10
-0.1330632453466443
 20
2.196311956276579
 10
-0.1415827793466598
 20
2.242905598176597
 10
-0.150483658346726
 20
2.285392250376438
 10
-0.1597358480466902
 20
2.324066008976436
 10
-0.1693252739466935
 20
2.359173799276553
 10
-0.1792560373467005
 20
2.390925059676468
 10
-0.1895498318467581
 20
2.419481908776609
 10
-0.2002561835467951
 20
2.444970441876469
 10
-0.2114675591467368
 20
2.467474375976556
 10
-0.2232932035467421
 20
2.48693230737654
 10
-0.2358710526466403
 20
2.503126267376549
 10
-0.249346121546747
 20
2.515605805476573
 10
-0.2634978433468369
 20
2.523510903376566
 10
-0.2776207727467828
 20
2.526224003176642
 10
-0.2918183040467248
 20
2.523786956776624
 10
-0.3060604301467684
 20
2.516096936376519
 10
-0.3196065160468571
 20
2.503783372976434
 10
-0.3322681826466543
 20
2.48768104467654
 10
-0.3441643925466416
 20
2.468278693576442
 10
-0.3554373334468401
 20
2.4458022093766
 10
-0.3661971464466625
 20
2.42032175147647
 10
-0.3765366897466684
 20
2.391761808576623
 10
-0.386508336146786
 20
2.359995059576525
 10
-0.3961342241468593
 20
2.324862359176498
 10
-0.4054192198468591
 20
2.286155018076491
 10
-0.4143497141467343
 20
2.24362679187657
 10
-0.4228957731468164
 20
2.196985305676483
 10
-0.4310112175467076
 20
2.145877662876549
 10
-0.4386225583466477
 20
2.089940624576505
 10
-0.4456344822467564
 20
2.028742866876476
 10
-0.4519201192467754
 20
1.961799814376539
 10
-0.4573134774468564
 20
1.888550791076616
 10
-0.461593728446811
 20
1.808380101876583
 10
-0.46446724484667
 20
1.720596414776583
 10
-0.4653518846961013
 20
1.354328618174613
  0
ARC
  5
281
330
2
100
AcDbEntity
  8
0
  6
HIDDEN2
100
AcDbCircle
 10
-0.7778518846961298
 20
1.612499999999979
 30
0.0
 40
0.09375
100
AcDbArc
 50
0.0
 51
180.0
  0
POINT
  5
282
330
2
100
AcDbEntity
  8
0
  6
ByBlock
100
AcDbPoint
 10
-1.277851884696101
 20
1.724999999999996
 30
0.0
  0
LINE
  5
283
330
2
100
AcDbEntity
  8
0
100
AcDbLine
 10
-0.4778518846960616
 20
0.7222605845752703
 30
0.0
 11
-0.3278518846960843
 21
0.7450000000000507
 31
0.0
  0
ARC
  5
284
330
2
100
AcDbEntity
  8
0
100
AcDbCircle
 10
-0.4778518846961184
 20
0.8575000000000053
 30
0.0
 40
0.1875
100
AcDbArc
 50
216.8698976458378
 51
323.130102354154
  0
LINE
  5
285
330
2
100
AcDbEntity
  8
0
100
AcDbLine
 10
-0.327851884696198
 20
0.7449999999999371
 30
0.0
 11
-0.4778518846961752
 21
0.9200000000000053
 31
0.0
  0
LINE
  5
286
330
2
100
AcDbEntity
  8
0
100
AcDbLine
 10
-0.4778518846960616
 20
0.7222605845752703
 30
0.0
 11
-0.6278518846960957
 21
0.7449999999999371
 31
0.0
  0
LINE
  5
287
330
2
100
AcDbEntity
  8
0
100
AcDbLine
 10
-0.4778518846960616
 20
0.7222605845752703
 30
0.0
 11
-0.4778518846961752
 21
0.9199999999998916
 31
0.0
  0
LINE
  5
288
330
2
100
AcDbEntity
  8
0
100
AcDbLine
 10
-0.4778518846961752
 20
0.9200000000000053
 30
0.0
 11
-0.6278518846961525
 21
0.7449999999999371
 31
0.0
  0
LINE
  5
289
330
2
100
AcDbEntity
  8
0
100
AcDbLine
 10
-0.0778518846960843
 20
0.9972605845752476
 30
0.0
 11
-0.2278518846961184
 21
1.019999999999914
 31
0.0
  0
LINE
  5
28A
330
2
100
AcDbEntity
  8
0
100
AcDbLine
 10
-0.077851884696198
 20
1.194999999999869
 30
0.0
 11
-0.2278518846961752
 21
1.019999999999914
 31
0.0
  0
LINE
  5
28B
330
2
100
AcDbEntity
  8
0
100
AcDbLine
 10
-0.0778518846960843
 20
0.9972605845752476
 30
0.0
 11
-0.077851884696198
 21
1.194999999999869
 31
0.0
  0
ARC
  5
28C
330
2
100
AcDbEntity
  8
0
100
AcDbCircle
 10
-0.2778518846961013
 20
1.419328618174617
 30
0.0
 40
0.1874999999999982
100
AcDbArc
 50
0.0
 51
180.0
  0
ARC
  5
28D
330
2
100
AcDbEntity
  8
0
100
AcDbCircle
 10
-0.2778518846961013
 20
1.419328618174617
 30
0.0
 40
0.1874999999999982
100
AcDbArc
 50
0.0
 51
180.0
  0
ARC
  5
28E
330
2
100
AcDbEntity
  8
0
100
AcDbCircle
 10
-0.2778518846961013
 20
1.419328618174617
 30
0.0
 40
0.1874999999999982
100
AcDbArc
 50
0.0
 51
180.0
  0
LINE
  5
28F
330
2
100
AcDbEntity
  8
0
100
AcDbLine
 10
-0.1503518846961036
 20
1.29432861817461
 30
0.0
 11
-0.4053518846960991
 21
1.29432861817461
 31
0.0
  0
ARC
  5
290
330
2
100
AcDbEntity
  8
0
100
AcDbCircle
 10
-0.2778518846961013
 20
1.419328618174617
 30
0.0
 40
0.1874999999999982
100
AcDbArc
 50
0.0
 51
180.0
  0
ARC
  5
291
330
2
100
AcDbEntity
  8
0
100
AcDbCircle
 10
-0.4053518846960991
 20
1.354328618174613
 30
0.0
 40
0.06
100
AcDbArc
 50
180.0000000000001
 51
269.9999999999996
  0
POINT
  5
292
330
2
100
AcDbEntity
  8
0
  6
ByBlock
100
AcDbPoint
 10
-0.2778518846961013
 20
1.606828618174614
 30
0.0
  0
POINT
  5
293
330
2
100
AcDbEntity
  8
0
  6
ByBlock
100
AcDbPoint
 10
-0.2778518846961013
 20
1.606828618174614
 30
0.0
  0
POINT
  5
294
330
2
100
AcDbEntity
  8
0
  6
ByBlock
100
AcDbPoint
 10
-0.1503518846961036
 20
1.29432861817461
 30
0.0
  0
ARC
  5
295
330
2
100
AcDbEntity
  8
0
100
AcDbCircle
 10
-0.1503518846961036
 20
1.354328618174613
 30
0.0
 40
0.06
100
AcDbArc
 50
270.0000000000002
 51
359.9999999999999
  0
POINT
  5
296
330
2
100
AcDbEntity
  8
0
  6
ByBlock
100
AcDbPoint
 10
-0.2778518846961013
 20
1.606828618174614
 30
0.0
  0
POINT
  5
297
330
2
100
AcDbEntity
  8
0
  6
ByBlock
100
AcDbPoint
 10
-0.2778518846961013
 20
1.606828618174614
 30
0.0
  0
POINT
  5
298
330
2
100
AcDbEntity
  8
0
  6
ByBlock
100
AcDbPoint
 10
-0.2778518846961013
 20
1.606828618174614
 30
0.0
  0
POINT
  5
299
330
2
100
AcDbEntity
  8
0
  6
ByBlock
100
AcDbPoint
 10
-0.2778518846961013
 20
1.606828618174614
 30
0.0
  0
POINT
  5
29A
330
2
100
AcDbEntity
  8
0
  6
ByBlock
100
AcDbPoint
 10
-0.2778518846961013
 20
1.606828618174614
 30
0.0
  0
POINT
  5
29B
330
2
100
AcDbEntity
  8
0
  6
ByBlock
100
AcDbPoint
 10
-0.2778518846961013
 20
1.606828618174614
 30
0.0
  0
LINE
  5
29C
330
2
100
AcDbEntity
  8
0
100
AcDbLine
 10
-1.187880026729768
 20
1.848493129617065
 30
0.0
 11
-0.4591519602962784
 21
2.889224665151074
 31
0.0
  0
LINE
  5
29D
330
2
100
AcDbEntity
  8
0
100
AcDbLine
 10
-0.2778518846960161
 20
3.464235042592966
 30
0.0
 11
-0.2771196516487997
 21
4.394660985765972
 31
0.0
  0
ARC
  5
29E
330
2
100
AcDbEntity
  8
0
100
AcDbCircle
 10
0.2203803483512026
 20
4.394660985765972
 30
0.0
 40
0.4975000000000007
100
AcDbArc
 50
135.0000000000189
 51
180.0
1001
_DIE112SSJYHX
1002
{
1000
comp_type
1000
DBL24
1000
material
1000
D-2
1000
thickness
1040
1.25
1000
mount
1000
SBP10
1000
mntlay
1000
DIE_SUB_PLATE
1002
}
  0
ARC
  5
29F
330
2
100
AcDbEntity
  8
0
100
AcDbCircle
 10
-0.0426481998525894
 20
4.501252127200791
 30
0.0
 40
0.03125
100
AcDbArc
 50
119.9999999999972
 51
240.0
  0
LINE
  5
2A0
330
2
100
AcDbEntity
  8
0
100
AcDbLine
 10
0.9721481153038951
 20
16.05
 30
0.0
 11
0.9721481153038987
 21
2.08203700168551
 31
0.0
  0
LINE
  5
2A1
330
2
100
AcDbEntity
  8
0
100
AcDbLine
 10
0.9221481153039015
 20
16.05
 30
0.0
 11
0.9221481153039015
 21
2.010629601348413
 31
0.0
  0
LINE
  5
2A2
330
2
100
AcDbEntity
  8
0
100
AcDbLine
 10
0.0971481153038987
 20
4.974999999999998
 30
0.0
 11
0.0971481153038916
 21
15.40919722692676
 31
0.0
  0
LINE
  5
2A3
330
2
100
AcDbEntity
  8
0
  6
HIDDEN2
100
AcDbLine
 10
0.1283981153038702
 20
2.174999999999981
 30
0.0
 11
0.1283981153038987
 21
0.0500000000000007
 31
0.0
  0
LINE
  5
2A4
330
2
100
AcDbEntity
  8
0
  6
HIDDEN2
100
AcDbLine
 10
0.3158981153038702
 20
2.174999999999981
 30
0.0
 11
0.3158981153038987
 21
0.0500000000000007
 31
0.0
  0
LINE
  5
2A5
330
2
100
AcDbEntity
  8
0
100
AcDbLine
 10
0.7221481153039839
 20
1.563138852532394
 30
0.0
 11
0.7221481153039839
 21
0.1804999999999595
 31
0.0
  0
ARC
  5
2AD
330
2
100
AcDbEntity
  8
0
100
AcDbCircle
 10
1.219648115303986
 20
1.563138852532394
 30
0.0
 40
0.4975
100
AcDbArc
 50
144.9999999999964
 51
180.0
1001
_DIE112SSJYHX
1002
{
1000
comp_type
1000
DBL24
1000
material
1000
D-2
1000
thickness
1040
1.25
1000
mount
1000
SBP10
1000
mntlay
1000
DIE_SUB_PLATE
1002
}
  0
ARC
  5
2AE
330
2
100
AcDbEntity
  8
0
  6
HIDDEN2
100
AcDbCircle
 10
0.2221481153038702
 20
2.174999999999981
 30
0.0
 40
0.09375
100
AcDbArc
 50
0.0
 51
180.0
  0
LINE
  5
2AF
330
2
100
AcDbEntity
  8
0
100
AcDbLine
 10
0.8121199732699473
 20
1.848493129617271
 30
0.0
 11
0.9721481153037566
 21
2.077037001685474
 31
0.0
  0
ARC
  5
2B0
330
2
100
AcDbEntity
  8
0
100
AcDbCircle
 10
-0.4046196516490248
 20
5.183874548139533
 30
0.0
 40
0.5025
100
AcDbArc
 50
314.9999999999999
 51
0.0
  0
ARC
  5
2B1
330
2
100
AcDbEntity
  8
0
100
AcDbCircle
 10
0.1201018001474274
 20
4.407288371134724
 30
0.0
 40
0.03125
100
AcDbArc
 50
240.0000000000007
 51
0.0000000000024427
  0
ARC
  5
2B2
330
2
100
AcDbEntity
  8
0
100
AcDbCircle
 10
0.1201018001474274
 20
4.595215883755932
 30
0.0
 40
0.03125
100
AcDbArc
 50
359.9999999999974
 51
119.9999999999993
  0
LINE
  5
2B3
330
2
100
AcDbEntity
  8
0
100
AcDbLine
 10
0.1513481153038931
 20
4.407768255661514
 30
0.0
 11
0.1513481153039074
 21
4.595695768264575
 31
0.0
  0
LINE
  5
2B4
330
2
100
AcDbEntity
  8
0
100
AcDbLine
 10
0.9221481153039015
 20
5.22350635094611
 30
0.0
 11
0.9721481153038987
 21
5.22350635094611
 31
0.0
  0
LINE
  5
2B5
330
2
100
AcDbEntity
  8
0
100
AcDbLine
 10
0.9221481153039015
 20
5.007000000000001
 30
0.0
 11
0.9721481153038987
 21
5.007000000000001
 31
0.0
  0
LINE
  5
2B6
330
2
100
AcDbEntity
  8
0
100
AcDbLine
 10
0.857043615510765
 20
15.65919722692676
 30
0.0
 11
0.857043615510765
 21
15.35272651447526
 31
0.0
  0
LINE
  5
2B7
330
2
100
AcDbEntity
  8
0
  6
Continuous
100
AcDbLine
 10
0.922148115303898
 20
14.40299235226184
 30
0.0
 11
0.6568287434263915
 21
14.13767298038435
 31
0.0
  0
ARC
  5
2B8
330
2
100
AcDbEntity
  8
0
  6
Continuous
100
AcDbCircle
 10
0.6921840824857277
 20
14.10231764132502
 30
0.0
 40
0.096
100
AcDbArc
 50
135.0000000000019
 51
254.9999999999993
  0
ARC
  5
2B9
330
2
100
AcDbEntity
  8
0
  6
Continuous
100
AcDbCircle
 10
0.6921840824857277
 20
14.10231764132502
 30
0.0
 40
0.05
100
AcDbArc
 50
135.0000000000019
 51
255.0000000000004
  0
LINE
  5
2BA
330
2
100
AcDbEntity
  8
0
  6
Continuous
100
AcDbLine
 10
0.6792431302305921
 20
14.05402135001057
 30
0.0
 11
0.9207245868028657
 21
13.98931658873493
 31
0.0
  0
LINE
  5
2BB
330
2
100
AcDbEntity
  8
0
  6
Continuous
100
AcDbLine
 10
0.6673374541558736
 20
14.00958876200127
 30
0.0
 11
0.9088189107281472
 21
13.94488400072563
 31
0.0
  0
LINE
  5
2BC
330
2
100
AcDbEntity
  8
0
  6
Continuous
100
AcDbLine
 10
0.9207245868028657
 20
13.98931658873496
 30
0.0
 11
0.9088189107281615
 21
13.94488400072567
 31
0.0
  0
LINE
  5
2BD
330
2
100
AcDbEntity
  8
0
100
AcDbLine
 10
0.0971481153038916
 20
15.22499999999999
 30
0.0
 11
0.7907936155107755
 21
15.225
 31
0.0
  0
LINE
  5
2BE
330
2
100
AcDbEntity
  8
0
  6
Continuous
100
AcDbLine
 10
0.9126750272384676
 20
14.45857308806558
 30
0.0
 11
0.6243018314918096
 21
14.17019989231893
 31
0.0
  0
ARC
  5
2BF
330
2
100
AcDbEntity
  8
0
  6
Continuous
100
AcDbCircle
 10
0.8801481153038857
 20
14.49110000000017
 30
0.0
 40
0.046
100
AcDbArc
 50
315.0000000000002
 51
335.9293853774835
  0
ARC
  5
2C0
330
2
100
AcDbEntity
  8
0
  6
Continuous
100
AcDbCircle
 10
0.8574125548076594
 20
14.49750162342256
 30
0.0
 40
0.1148432675996877
100
AcDbArc
 50
315.1652224024733
 51
351.5634350384797
  0
ARC
  5
2C1
330
2
100
AcDbEntity
  8
0
100
AcDbCircle
 10
0.9470436155107755
 20
15.225
 30
0.0
 40
0.15625
100
AcDbArc
 50
125.1696929238603
 51
260.831921102219
  0
LINE
  5
2C2
330
2
100
AcDbEntity
  8
0
100
AcDbLine
 10
1.022148115303896
 20
16.1
 30
0.0
 11
1.597148115303899
 21
16.1
 31
0.0
  0
LINE
  5
2C3
330
2
100
AcDbEntity
  8
0
100
AcDbLine
 10
1.022148115303903
 20
16.15
 30
0.0
 11
1.597148115303899
 21
16.15
 31
0.0
  0
LINE
  5
2C4
330
2
100
AcDbEntity
  8
0
100
AcDbLine
 10
0.3471481153038987
 20
15.65919722692676
 30
0.0
 11
0.857043615510765
 21
15.65919722692676
 31
0.0
  0
LINE
  5
2C5
330
2
100
AcDbEntity
  8
0
100
AcDbLine
 10
0.2971481153039015
 20
15.60919722692677
 30
0.0
 11
0.857043615510765
 21
15.60919722692677
 31
0.0
  0
LINE
  5
2C6
330
2
100
AcDbEntity
  8
0
100
AcDbLine
 10
0.0971481153038916
 20
15.40919722692676
 30
0.0
 11
0.3471481153038987
 21
15.65919722692676
 31
0.0
  0
ARC
  5
2C7
330
2
100
AcDbEntity
  8
0
100
AcDbCircle
 10
1.022148115303896
 20
16.05
 30
0.0
 40
0.05
100
AcDbArc
 50
90.0
 51
180.0
  0
ARC
  5
2C8
330
2
100
AcDbEntity
  8
0
100
AcDbCircle
 10
1.022148115303903
 20
16.05
 30
0.0
 40
0.1
100
AcDbArc
 50
90.0
 51
180.0
  0
LINE
  5
2C9
330
2
100
AcDbEntity
  8
0
100
AcDbLine
 10
1.597148115303899
 20
16.15
 30
0.0
 11
1.597148115303899
 21
16.1
 31
0.0
  0
LINE
  5
356
330
2
100
AcDbEntity
  8
0
100
AcDbLine
 10
-1.277851884696112
 20
0.0500000000000007
 30
0.0
 11
-0.8699728351057914
 21
0.0500000000000007
 31
0.0
  0
LINE
  5
357
330
2
100
AcDbEntity
  8
0
100
AcDbLine
 10
-0.684101884696112
 20
0.0500000000000007
 30
0.0
 11
0.129212640099027
 21
0.0500000000000007
 31
0.0
  0
LINE
  5
358
330
2
100
AcDbEntity
  8
0
100
AcDbLine
 10
0.3150835905087064
 20
0.0500000000000007
 30
0.0
 11
0.722148115303888
 21
0.0500000000000007
 31
0.0
  0
LINE
  5
359
330
2
100
AcDbEntity
  8
0
100
AcDbLine
 10
-1.277851884696112
 20
0.100000000000005
 30
0.0
 11
-1.277851884696112
 21
0.0500000000000007
 31
0.0
  0
LINE
  5
35A
330
2
100
AcDbEntity
  8
0
  6
Continuous
100
AcDbLine
 10
-1.277851884696112
 20
0.100000000000005
 30
0.0
 11
-1.192498208735572
 21
0.1000000000000068
 31
0.0
  0
ARC
  5
35B
330
2
100
AcDbEntity
  8
0
100
AcDbCircle
 10
-1.277851884696247
 20
0.0949999999999598
 30
0.0
 40
0.0855
100
AcDbArc
 50
328.2431361407125
 51
90.0
  0
LINE
  5
35C
330
2
100
AcDbEntity
  8
0
  6
Continuous
100
AcDbLine
 10
0.6367944393433049
 20
0.0999999999999979
 30
0.0
 11
0.7221481153038951
 21
0.0999999999999996
 31
0.0
  0
ARC
  5
35D
330
2
100
AcDbEntity
  8
0
100
AcDbCircle
 10
0.7221481153039804
 20
0.0949999999999598
 30
0.0
 40
0.0855
100
AcDbArc
 50
90.0
 51
211.7568638592871
  0
POINT
  5
35E
330
2
100
AcDbEntity
  8
0
  6
ByBlock
100
AcDbPoint
 10
0.7221481153038951
 20
0.0999999999999996
 30
0.0
 50
180.0
  0
POINT
  5
35F
330
2
100
AcDbEntity
  8
0
  6
ByBlock
100
AcDbPoint
 10
0.7221481153038951
 20
0.0999999999999996
 30
0.0
 50
180.0
  0
POINT
  5
360
330
2
100
AcDbEntity
  8
0
  6
ByBlock
100
AcDbPoint
 10
0.7221481153038951
 20
0.0999999999999996
 30
0.0
 50
180.0
  0
POINT
  5
361
330
2
100
AcDbEntity
  8
0
  6
ByBlock
100
AcDbPoint
 10
0.7221481153038951
 20
0.0999999999999996
 30
0.0
 50
180.0
  0
LINE
  5
362
330
2
100
AcDbEntity
  8
0
100
AcDbLine
 10
0.7221481153038951
 20
0.0999999999999996
 30
0.0
 11
0.722148115303888
 21
0.0500000000000007
 31
0.0
  0
LINE
  5
363
330
2
100
AcDbEntity
  8
0
  6
HIDDEN
100
AcDbLine
 10
0.6367944393433049
 20
0.0999999999999979
 30
0.0
 11
-1.192498208735572
 21
0.1000000000000068
 31
0.0
  0
ARC
  5
364
330
2
100
AcDbEntity
  8
0
100
AcDbCircle
 10
0.2221481153038667
 20
0.0623312589969807
 30
0.0
 40
0.09375
100
AcDbArc
 50
180.0
 51
0.000000000000007
  0
ARC
  5
365
330
2
100
AcDbEntity
  8
0
100
AcDbCircle
 10
-0.7770373599009517
 20
0.0623312589969807
 30
0.0
 40
0.09375
100
AcDbArc
 50
180.0
 51
0.000000000000007
  0
ENDSEC
  0
SECTION
  2
OBJECTS
  0
DICTIONARY
  5
9
330
0
100
AcDbDictionary
281
     1
  3
ACAD_COLOR
350
32A
  3
ACAD_GROUP
350
23
  3
ACAD_LAYOUT
350
D
  3
ACAD_MATERIAL
350
329
  3
ACAD_MLINESTYLE
350
24
  3
ACAD_PLOTSETTINGS
350
25
  3
ACAD_PLOTSTYLENAME
350
8
  3
ACAD_TABLESTYLE
350
32B
  3
ACDBHEADERROUNDTRIPXREC
350
38B
  3
AcDbVariableDictionary
350
183
  0
DICTIONARY
  5
32A
102
{ACAD_REACTORS
330
9
102
}
330
9
100
AcDbDictionary
281
     1
  0
DICTIONARY
  5
23
102
{ACAD_REACTORS
330
9
102
}
330
9
100
AcDbDictionary
281
     1
  0
DICTIONARY
  5
D
102
{ACAD_REACTORS
330
9
102
}
330
9
100
AcDbDictionary
281
     1
  3
Layout1
350
13
  3
Model
350
C
  0
DICTIONARY
  5
329
102
{ACAD_REACTORS
330
9
102
}
330
9
100
AcDbDictionary
281
     1
  0
DICTIONARY
  5
24
102
{ACAD_REACTORS
330
9
102
}
330
9
100
AcDbDictionary
281
     1
  3
STANDARD
350
27
  0
DICTIONARY
  5
25
102
{ACAD_REACTORS
330
9
102
}
330
9
100
AcDbDictionary
281
     1
  0
ACDBDICTIONARYWDFLT
  5
8
102
{ACAD_REACTORS
330
9
102
}
330
9
100
AcDbDictionary
281
     1
  3
Normal
350
7
100
AcDbDictionaryWithDefault
340
7
  0
DICTIONARY
  5
32B
102
{ACAD_REACTORS
330
9
102
}
330
9
100
AcDbDictionary
281
     1
  3
Standard
350
32C
  0
DICTIONARY
  5
38B
102
{ACAD_REACTORS
330
9
102
}
330
9
100
AcDbDictionary
281
     1
  3
COLORDICT
350
38C
  3
MATERIALDICT
350
38D
  0
DICTIONARY
  5
183
102
{ACAD_REACTORS
330
9
102
}
330
9
100
AcDbDictionary
281
     1
  3
CTABLESTYLE
350
373
  3
HIDETEXT
350
38A
  0
LAYOUT
  5
13
102
{ACAD_REACTORS
330
D
102
}
102
{ACAD_XDICTIONARY
360
38E
102
}
330
D
100
AcDbPlotSettings
  1

  2
HP LaserJet 2100 Series PS
  4

  6

 40
0.0
 41
0.0
 42
0.0
 43
0.0
 44
0.0
 45
0.0
 46
0.0
 47
0.0
 48
0.0
 49
0.0
140
0.0
141
0.0
142
1.0
143
1.0
 70
   688
 72
     0
 73
     0
 74
     5
  7

 75
    16
147
1.0
148
0.0
149
0.0
100
AcDbLayout
  1
Layout1
 70
     0
 71
     1
 10
0.0
 20
0.0
 11
12.0
 21
9.0
 12
0.0
 22
0.0
 32
0.0
 14
1.000000000000000E+20
 24
1.000000000000000E+20
 34
1.000000000000000E+20
 15
-1.000000000000000E+20
 25
-1.000000000000000E+20
 35
-1.000000000000000E+20
146
0.0
 13
0.0
 23
0.0
 33
0.0
 16
1.0
 26
0.0
 36
0.0
 17
0.0
 27
1.0
 37
0.0
 76
     0
330
E
  0
LAYOUT
  5
C
102
{ACAD_REACTORS
330
D
102
}
102
{ACAD_XDICTIONARY
360
390
102
}
330
D
100
AcDbPlotSettings
  1

  2
HP LaserJet 2100 Series PS
  4
Letter
  6

 40
5.365749835968018
 41
5.386905193328857
 42
5.386917114257813
 43
5.365753173828125
 44
215.8999938964844
 45
279.3999938964844
 46
0.0
 47
0.0
 48
0.0
 49
0.0
140
0.0
141
0.0
142
1.0
143
1.0
 70
 11952
 72
     0
 73
     1
 74
     0
  7

 75
     0
147
1.0
148
-109.2156811259093
149
4.748957229332656
100
AcDbLayout
  1
Model
 70
     1
 71
     0
 10
0.0
 20
0.0
 11
12.0
 21
9.0
 12
0.0
 22
0.0
 32
0.0
 14
0.0
 24
0.0
 34
0.0
 15
0.0
 25
0.0
 35
0.0
146
0.0
 13
0.0
 23
0.0
 33
0.0
 16
1.0
 26
0.0
 36
0.0
 17
0.0
 27
1.0
 37
0.0
 76
     0
330
2
  0
MLINESTYLE
  5
27
102
{ACAD_REACTORS
330
24
102
}
330
24
100
AcDbMlineStyle
  2
STANDARD
 70
     0
  3

 62
   256
 51
90.0
 52
90.0
 71
     2
 49
0.5
 62
   256
  6
BYLAYER
 49
-0.5
 62
   256
  6
BYLAYER
  0
ACDBPLACEHOLDER
  5
7
102
{ACAD_REACTORS
330
8
102
}
330
8
  0
ACAD_PROXY_OBJECT
  5
32C
102
{ACAD_REACTORS
330
32B
102
}
330
32B
100
AcDbProxyObject
 90
      499
 91
      565
 95
   983063
 70
     0
 93
     1841
310
4214DD185B99185C9928B81E85EB51B8AE3F2E07A17AD46E2B8FC02B5E8DC0F42B1CFD028000000C1008070000C3001FDFF8000000C1003FBFF000000182007F7FE00000030400FEFFC00000060801FDFF8000000C1003FBFF00000018200000000000000681FA0B0000001820100E000186003FBFF000000182007F7FE000
310
00030400FEFFC00000060801FDFF8000000C1003FBFF000000182007F7FE000000304000AD7A3703D0AC73F4160000003040201C00030C007F7FE00000030400FEFFC00000060801FDFF8000000C1003FBFF000000182007F7FE00000030400FEFFC000000608000
340
16
340
16
340
16
 94
        0
  0
XRECORD
  5
38C
102
{ACAD_REACTORS
330
38B
102
}
330
38B
100
AcDbXrecord
340
32A
  0
XRECORD
  5
38D
102
{ACAD_REACTORS
330
38B
102
}
330
38B
100
AcDbXrecord
340
329
  0
DICTIONARYVAR
  5
373
102
{ACAD_REACTORS
330
183
102
}
330
183
100
DictionaryVariables
280
     0
  1
STANDARD
  0
DICTIONARYVAR
  5
38A
102
{ACAD_REACTORS
330
183
102
}
330
183
100
DictionaryVariables
280
     0
  1
1
  0
DICTIONARY
  5
38E
330
13
100
AcDbDictionary
280
     1
281
     1
  3
ACAD_XREC_ROUNDTRIP
360
38F
  0
DICTIONARY
  5
390
330
C
100
AcDbDictionary
280
     1
281
     1
  3
ACAD_XREC_ROUNDTRIP
360
391
  0
XRECORD
  5
38F
102
{ACAD_REACTORS
330
38E
102
}
330
38E
100
AcDbXrecord
102
SHADEPLOT
 70
     0
102
SHADEPLOTRESLEVEL
 70
     2
102
SHADEPLOTCUSTOMDPI
 70
   300
  0
XRECORD
  5
391
102
{ACAD_REACTORS
330
390
102
}
330
390
100
AcDbXrecord
102
SHADEPLOT
 70
     0
102
SHADEPLOTRESLEVEL
 70
     2
102
SHADEPLOTCUSTOMDPI
 70
   300
  0
ENDSEC
  0
EOF
