  0
SECTION
  2
HEADER
  9
$ACADVER
  1
AC1015
  9
$ACADMAINTVER
 70
     6
  9
$DWGCODEPAGE
  3
ANSI_1252
  9
$INSBASE
 10
0.0
 20
0.0
 30
0.0
  9
$EXTMIN
 10
-8.944707498022382
 20
-0.0437515807531526
 30
-0.0000000000112498
  9
$EXTMAX
 10
8.947074374259344
 20
15.5866853706499
 30
0.0000000000002956
  9
$LIMMIN
 10
0.0
 20
0.0
  9
$LIMMAX
 10
24.0
 20
31.5
  9
$ORTHOMODE
 70
     1
  9
$REGENMODE
 70
     1
  9
$FILLMODE
 70
     1
  9
$QTEXTMODE
 70
     0
  9
$MIRRTEXT
 70
     0
  9
$LTSCALE
 40
0.6
  9
$ATTMODE
 70
     1
  9
$TEXTSIZE
 40
0.27
  9
$TRACEWID
 40
0.05
  9
$TEXTSTYLE
  7
STANDARD
  9
$CLAYER
  8
0
  9
$CELTYPE
  6
HIDDEN
  9
$CECOLOR
 62
   256
  9
$CELTSCALE
 40
1.0
  9
$DISPSILH
 70
     0
  9
$DIMSCALE
 40
3.0
  9
$DIMASZ
 40
0.125
  9
$DIMEXO
 40
0.062
  9
$DIMDLI
 40
0.375
  9
$DIMRND
 40
0.0
  9
$DIMDLE
 40
0.0
  9
$DIMEXE
 40
0.08
  9
$DIMTP
 40
0.0313
  9
$DIMTM
 40
0.0
  9
$DIMTXT
 40
0.09
  9
$DIMCEN
 40
-0.03125
  9
$DIMTSZ
 40
0.0
  9
$DIMTOL
 70
     0
  9
$DIMLIM
 70
     0
  9
$DIMTIH
 70
     1
  9
$DIMTOH
 70
     1
  9
$DIMSE1
 70
     0
  9
$DIMSE2
 70
     0
  9
$DIMTAD
 70
     0
  9
$DIMZIN
 70
     0
  9
$DIMBLK
  1

  9
$DIMASO
 70
     1
  9
$DIMSHO
 70
     0
  9
$DIMPOST
  1

  9
$DIMAPOST
  1

  9
$DIMALT
 70
     0
  9
$DIMALTD
 70
     2
  9
$DIMALTF
 40
25.4
  9
$DIMLFAC
 40
1.0
  9
$DIMTOFL
 70
     0
  9
$DIMTVP
 40
0.0
  9
$DIMTIX
 70
     0
  9
$DIMSOXD
 70
     0
  9
$DIMSAH
 70
     0
  9
$DIMBLK1
  1

  9
$DIMBLK2
  1

  9
$DIMSTYLE
  2
STANDARD
  9
$DIMCLRD
 70
     0
  9
$DIMCLRE
 70
     0
  9
$DIMCLRT
 70
     0
  9
$DIMTFAC
 40
1.0
  9
$DIMGAP
 40
0.09
  9
$DIMJUST
 70
     0
  9
$DIMSD1
 70
     0
  9
$DIMSD2
 70
     0
  9
$DIMTOLJ
 70
     1
  9
$DIMTZIN
 70
     0
  9
$DIMALTZ
 70
     0
  9
$DIMALTTZ
 70
     0
  9
$DIMUPT
 70
     1
  9
$DIMDEC
 70
     5
  9
$DIMTDEC
 70
     4
  9
$DIMALTU
 70
     2
  9
$DIMALTTD
 70
     2
  9
$DIMTXSTY
  7
STANDARD
  9
$DIMAUNIT
 70
     0
  9
$DIMADEC
 70
     0
  9
$DIMALTRND
 40
0.0
  9
$DIMAZIN
 70
     0
  9
$DIMDSEP
 70
    46
  9
$DIMATFIT
 70
     3
  9
$DIMFRAC
 70
     2
  9
$DIMLDRBLK
  1

  9
$DIMLUNIT
 70
     5
  9
$DIMLWD
 70
    -2
  9
$DIMLWE
 70
    -2
  9
$DIMTMOVE
 70
     2
  9
$LUNITS
 70
     2
  9
$LUPREC
 70
     4
  9
$SKETCHINC
 40
0.1
  9
$FILLETRAD
 40
0.0
  9
$AUNITS
 70
     0
  9
$AUPREC
 70
     0
  9
$MENU
  1
ACAD
  9
$ELEVATION
 40
0.0
  9
$PELEVATION
 40
0.0
  9
$THICKNESS
 40
0.0
  9
$LIMCHECK
 70
     0
  9
$CHAMFERA
 40
0.0
  9
$CHAMFERB
 40
0.0
  9
$CHAMFERC
 40
0.0
  9
$CHAMFERD
 40
0.0
  9
$SKPOLY
 70
     0
  9
$TDCREATE
 40
2449436.829454167
  9
$TDUCREATE
 40
2449437.1627875
  9
$TDUPDATE
 40
2454166.944563067
  9
$TDUUPDATE
 40
2454167.277896401
  9
$TDINDWG
 40
1.2604895602
  9
$TDUSRTIMER
 40
1.2604895602
  9
$USRTIMER
 70
     1
  9
$ANGBASE
 50
0.0
  9
$ANGDIR
 70
     0
  9
$PDMODE
 70
     0
  9
$PDSIZE
 40
0.0
  9
$PLINEWID
 40
0.0
  9
$SPLFRAME
 70
     0
  9
$SPLINETYPE
 70
     6
  9
$SPLINESEGS
 70
     8
  9
$HANDSEED
  5
35C
  9
$SURFTAB1
 70
     6
  9
$SURFTAB2
 70
     6
  9
$SURFTYPE
 70
     6
  9
$SURFU
 70
     6
  9
$SURFV
 70
     6
  9
$UCSBASE
  2

  9
$UCSNAME
  2

  9
$UCSORG
 10
0.0
 20
0.0
 30
0.0
  9
$UCSXDIR
 10
1.0
 20
0.0
 30
0.0
  9
$UCSYDIR
 10
0.0
 20
1.0
 30
0.0
  9
$UCSORTHOREF
  2

  9
$UCSORTHOVIEW
 70
     0
  9
$UCSORGTOP
 10
0.0
 20
0.0
 30
0.0
  9
$UCSORGBOTTOM
 10
0.0
 20
0.0
 30
0.0
  9
$UCSORGLEFT
 10
0.0
 20
0.0
 30
0.0
  9
$UCSORGRIGHT
 10
0.0
 20
0.0
 30
0.0
  9
$UCSORGFRONT
 10
0.0
 20
0.0
 30
0.0
  9
$UCSORGBACK
 10
0.0
 20
0.0
 30
0.0
  9
$PUCSBASE
  2

  9
$PUCSNAME
  2

  9
$PUCSORG
 10
0.0
 20
0.0
 30
0.0
  9
$PUCSXDIR
 10
1.0
 20
0.0
 30
0.0
  9
$PUCSYDIR
 10
0.0
 20
1.0
 30
0.0
  9
$PUCSORTHOREF
  2

  9
$PUCSORTHOVIEW
 70
     0
  9
$PUCSORGTOP
 10
0.0
 20
0.0
 30
0.0
  9
$PUCSORGBOTTOM
 10
0.0
 20
0.0
 30
0.0
  9
$PUCSORGLEFT
 10
0.0
 20
0.0
 30
0.0
  9
$PUCSORGRIGHT
 10
0.0
 20
0.0
 30
0.0
  9
$PUCSORGFRONT
 10
0.0
 20
0.0
 30
0.0
  9
$PUCSORGBACK
 10
0.0
 20
0.0
 30
0.0
  9
$USERI1
 70
     0
  9
$USERI2
 70
     0
  9
$USERI3
 70
     0
  9
$USERI4
 70
     0
  9
$USERI5
 70
     0
  9
$USERR1
 40
0.0
  9
$USERR2
 40
0.0
  9
$USERR3
 40
0.0
  9
$USERR4
 40
0.0
  9
$USERR5
 40
0.0
  9
$WORLDVIEW
 70
     1
  9
$SHADEDGE
 70
     3
  9
$SHADEDIF
 70
    70
  9
$TILEMODE
 70
     1
  9
$MAXACTVP
 70
    16
  9
$PINSBASE
 10
0.0
 20
0.0
 30
0.0
  9
$PLIMCHECK
 70
     0
  9
$PEXTMIN
 10
1.000000000000000E+20
 20
1.000000000000000E+20
 30
1.000000000000000E+20
  9
$PEXTMAX
 10
-1.000000000000000E+20
 20
-1.000000000000000E+20
 30
-1.000000000000000E+20
  9
$PLIMMIN
 10
0.0
 20
0.0
  9
$PLIMMAX
 10
12.0
 20
9.0
  9
$UNITMODE
 70
     0
  9
$VISRETAIN
 70
     0
  9
$PLINEGEN
 70
     0
  9
$PSLTSCALE
 70
     0
  9
$TREEDEPTH
 70
  3020
  9
$CMLSTYLE
  2
STANDARD
  9
$CMLJUST
 70
     0
  9
$CMLSCALE
 40
1.0
  9
$PROXYGRAPHICS
 70
     1
  9
$MEASUREMENT
 70
     0
  9
$CELWEIGHT
370
    -1
  9
$ENDCAPS
280
     0
  9
$JOINSTYLE
280
     0
  9
$LWDISPLAY
290
     0
  9
$INSUNITS
 70
     0
  9
$HYPERLINKBASE
  1

  9
$STYLESHEET
  1

  9
$XEDIT
290
     1
  9
$CEPSNTYPE
380
     0
  9
$PSTYLEMODE
290
     1
  9
$FINGERPRINTGUID
  2
{7E1BADCE-439C-11D5-BE3F-00508B5FCD51}
  9
$VERSIONGUID
  2
{B0A8AB52-9247-4D5B-9ABE-04DF95BEBC6F}
  9
$EXTNAMES
290
     1
  9
$PSVPSCALE
 40
0.0
  9
$OLESTARTUP
290
     0
  0
ENDSEC
  0
SECTION
  2
CLASSES
  0
CLASS
  1
DICTIONARYVAR
  2
AcDbDictionaryVar
  3
AutoCAD 2000
 90
        0
280
     0
281
     0
  0
CLASS
  1
LWPOLYLINE
  2
AcDbPolyline
  3
AutoCAD 2000
 90
        0
280
     0
281
     1
  0
CLASS
  1
ACDBDICTIONARYWDFLT
  2
AcDbDictionaryWithDefault
  3
AutoCAD 2000
 90
        0
280
     0
281
     0
  0
CLASS
  1
ACDBPLACEHOLDER
  2
AcDbPlaceHolder
  3
ObjectDBX Classes
 90
        0
280
     0
281
     0
  0
CLASS
  1
LAYOUT
  2
AcDbLayout
  3
ObjectDBX Classes
 90
        0
280
     0
281
     0
  0
CLASS
  1
LONG_TRANSACTION
  2
AcDbLongTransaction
  3
ObjectDBX Classes
 90
   -65536
280
     1
281
     0
  0
CLASS
  1
LWPOLYLINE
  2
AcDbPolyline
  3
AutoCAD 2000
 90
        0
280
     0
281
     1
  0
CLASS
  1
HATCH
  2
AcDbHatch
  3
AutoCAD 2000
 90
        0
280
     0
281
     1
  0
CLASS
  1
XRECORD
  2
AcDbXrecord
  3
AutoCAD 2000
 90
        0
280
     0
281
     0
  0
CLASS
  1
LONG_TRANSACTION
  2
AcDbLongTransaction
  3
ObjectDBX Classes
 90
   -65536
280
     1
281
     0
  0
CLASS
  1
LWPOLYLINE
  2
AcDbPolyline
  3
AutoCAD 2000
 90
        0
280
     0
281
     1
  0
CLASS
  1
HATCH
  2
AcDbHatch
  3
AutoCAD 2000
 90
        0
280
     0
281
     1
  0
CLASS
  1
XRECORD
  2
AcDbXrecord
  3
AutoCAD 2000
 90
        0
280
     0
281
     0
  0
CLASS
  1
LONG_TRANSACTION
  2
AcDbLongTransaction
  3
ObjectDBX Classes
 90
   -65536
280
     1
281
     0
  0
CLASS
  1
LWPOLYLINE
  2
AcDbPolyline
  3
AutoCAD 2000
 90
        0
280
     0
281
     1
  0
CLASS
  1
HATCH
  2
AcDbHatch
  3
AutoCAD 2000
 90
        0
280
     0
281
     1
  0
CLASS
  1
XRECORD
  2
AcDbXrecord
  3
AutoCAD 2000
 90
        0
280
     0
281
     0
  0
CLASS
  1
OLE2FRAME
  2
AcDbOle2Frame
  3
AutoCAD 2000
 90
        0
280
     0
281
     1
  0
CLASS
  1
LONG_TRANSACTION
  2
AcDbLongTransaction
  3
ObjectDBX Classes
 90
   -65536
280
     1
281
     0
  0
CLASS
  1
LWPOLYLINE
  2
AcDbPolyline
  3
AutoCAD 2000
 90
        0
280
     0
281
     1
  0
CLASS
  1
HATCH
  2
AcDbHatch
  3
AutoCAD 2000
 90
        0
280
     0
281
     1
  0
CLASS
  1
XRECORD
  2
AcDbXrecord
  3
AutoCAD 2000
 90
        0
280
     0
281
     0
  0
CLASS
  1
LONG_TRANSACTION
  2
AcDbLongTransaction
  3
ObjectDBX Classes
 90
   -65536
280
     1
281
     0
  0
CLASS
  1
LWPOLYLINE
  2
AcDbPolyline
  3
AutoCAD 2000
 90
        0
280
     0
281
     1
  0
CLASS
  1
HATCH
  2
AcDbHatch
  3
AutoCAD 2000
 90
        0
280
     0
281
     1
  0
CLASS
  1
XRECORD
  2
AcDbXrecord
  3
AutoCAD 2000
 90
        0
280
     0
281
     0
  0
CLASS
  1
LONG_TRANSACTION
  2
AcDbLongTransaction
  3
ObjectDBX Classes
 90
   -65536
280
     1
281
     0
  0
CLASS
  1
LWPOLYLINE
  2
AcDbPolyline
  3
AutoCAD 2000
 90
        0
280
     0
281
     1
  0
CLASS
  1
HATCH
  2
AcDbHatch
  3
AutoCAD 2000
 90
        0
280
     0
281
     1
  0
CLASS
  1
XRECORD
  2
AcDbXrecord
  3
AutoCAD 2000
 90
        0
280
     0
281
     0
  0
CLASS
  1
LONG_TRANSACTION
  2
AcDbLongTransaction
  3
ObjectDBX Classes
 90
   -65536
280
     1
281
     0
  0
CLASS
  1
LWPOLYLINE
  2
AcDbPolyline
  3
AutoCAD 2000
 90
        0
280
     0
281
     1
  0
CLASS
  1
HATCH
  2
AcDbHatch
  3
AutoCAD 2000
 90
        0
280
     0
281
     1
  0
CLASS
  1
XRECORD
  2
AcDbXrecord
  3
AutoCAD 2000
 90
        0
280
     0
281
     0
  0
CLASS
  1
LONG_TRANSACTION
  2
AcDbLongTransaction
  3
ObjectDBX Classes
 90
   -65536
280
     1
281
     0
  0
CLASS
  1
LWPOLYLINE
  2
AcDbPolyline
  3
AutoCAD 2000
 90
        0
280
     0
281
     1
  0
CLASS
  1
HATCH
  2
AcDbHatch
  3
AutoCAD 2000
 90
        0
280
     0
281
     1
  0
CLASS
  1
XRECORD
  2
AcDbXrecord
  3
AutoCAD 2000
 90
        0
280
     0
281
     0
  0
CLASS
  1
LONG_TRANSACTION
  2
AcDbLongTransaction
  3
ObjectDBX Classes
 90
   -65536
280
     1
281
     0
  0
CLASS
  1
LWPOLYLINE
  2
AcDbPolyline
  3
AutoCAD 2000
 90
        0
280
     0
281
     1
  0
CLASS
  1
HATCH
  2
AcDbHatch
  3
AutoCAD 2000
 90
        0
280
     0
281
     1
  0
CLASS
  1
XRECORD
  2
AcDbXrecord
  3
AutoCAD 2000
 90
        0
280
     0
281
     0
  0
CLASS
  1
LONG_TRANSACTION
  2
AcDbLongTransaction
  3
ObjectDBX Classes
 90
   -65536
280
     1
281
     0
  0
CLASS
  1
LWPOLYLINE
  2
AcDbPolyline
  3
AutoCAD 2000
 90
        0
280
     0
281
     1
  0
CLASS
  1
HATCH
  2
AcDbHatch
  3
AutoCAD 2000
 90
        0
280
     0
281
     1
  0
CLASS
  1
XRECORD
  2
AcDbXrecord
  3
AutoCAD 2000
 90
        0
280
     0
281
     0
  0
CLASS
  1
LONG_TRANSACTION
  2
AcDbLongTransaction
  3
ObjectDBX Classes
 90
   -65536
280
     1
281
     0
  0
CLASS
  1
LWPOLYLINE
  2
AcDbPolyline
  3
AutoCAD 2000
 90
        0
280
     0
281
     1
  0
CLASS
  1
HATCH
  2
AcDbHatch
  3
AutoCAD 2000
 90
        0
280
     0
281
     1
  0
CLASS
  1
XRECORD
  2
AcDbXrecord
  3
AutoCAD 2000
 90
        0
280
     0
281
     0
  0
CLASS
  1
LONG_TRANSACTION
  2
AcDbLongTransaction
  3
ObjectDBX Classes
 90
   -65536
280
     1
281
     0
  0
CLASS
  1
LWPOLYLINE
  2
AcDbPolyline
  3
AutoCAD 2000
 90
        0
280
     0
281
     1
  0
CLASS
  1
HATCH
  2
AcDbHatch
  3
AutoCAD 2000
 90
        0
280
     0
281
     1
  0
CLASS
  1
XRECORD
  2
AcDbXrecord
  3
AutoCAD 2000
 90
        0
280
     0
281
     0
  0
CLASS
  1
LONG_TRANSACTION
  2
AcDbLongTransaction
  3
ObjectDBX Classes
 90
   -65536
280
     1
281
     0
  0
CLASS
  1
LWPOLYLINE
  2
AcDbPolyline
  3
AutoCAD 2000
 90
        0
280
     0
281
     1
  0
CLASS
  1
HATCH
  2
AcDbHatch
  3
AutoCAD 2000
 90
        0
280
     0
281
     1
  0
CLASS
  1
XRECORD
  2
AcDbXrecord
  3
AutoCAD 2000
 90
        0
280
     0
281
     0
  0
CLASS
  1
LONG_TRANSACTION
  2
AcDbLongTransaction
  3
ObjectDBX Classes
 90
   -65536
280
     1
281
     0
  0
CLASS
  1
LWPOLYLINE
  2
AcDbPolyline
  3
AutoCAD 2000
 90
        0
280
     0
281
     1
  0
CLASS
  1
HATCH
  2
AcDbHatch
  3
AutoCAD 2000
 90
        0
280
     0
281
     1
  0
CLASS
  1
XRECORD
  2
AcDbXrecord
  3
AutoCAD 2000
 90
        0
280
     0
281
     0
  0
CLASS
  1
TABLESTYLE
  2
AcDbTableStyle
  3
ObjectDBX Classes
 90
     2047
280
     1
281
     0
  0
ENDSEC
  0
SECTION
  2
TABLES
  0
TABLE
  2
VPORT
  5
1D
330
0
100
AcDbSymbolTable
 70
     5
  0
VPORT
  5
34C
330
1D
100
AcDbSymbolTableRecord
100
AcDbViewportTableRecord
  2
*Active
 70
     0
 10
0.0
 20
0.0
 11
1.0
 21
1.0
 12
8.193005061147535
 22
10.93753995389445
 13
0.0
 23
0.0
 14
0.063
 24
0.063
 15
0.25
 25
0.25
 16
0.0
 26
0.0
 36
1.0
 17
0.0
 27
0.0
 37
0.0
 40
31.93722874622799
 41
1.814583333333333
 42
50.0
 43
0.0
 44
0.0
 50
0.0
 51
0.0
 71
     0
 72
   100
 73
     1
 74
     0
 75
     0
 76
     0
 77
     0
 78
     1
281
     0
 65
     1
110
0.0
120
0.0
130
0.0
111
1.0
121
0.0
131
0.0
112
0.0
122
1.0
132
0.0
 79
     0
146
0.0
  0
ENDTAB
  0
TABLE
  2
LTYPE
  5
18
330
0
100
AcDbSymbolTable
 70
     3
  0
LTYPE
  5
19
330
18
100
AcDbSymbolTableRecord
100
AcDbLinetypeTableRecord
  2
BYBLOCK
 70
     0
  3

 72
    65
 73
     0
 40
0.0
  0
LTYPE
  5
1A
330
18
100
AcDbSymbolTableRecord
100
AcDbLinetypeTableRecord
  2
BYLAYER
 70
     0
  3

 72
    65
 73
     0
 40
0.0
  0
LTYPE
  5
A
330
18
100
AcDbSymbolTableRecord
100
AcDbLinetypeTableRecord
  2
CONTINUOUS
 70
     0
  3
Solid line
 72
    65
 73
     0
 40
0.0
  0
LTYPE
  5
37
330
18
100
AcDbSymbolTableRecord
100
AcDbLinetypeTableRecord
  2
HIDDEN2
 70
     0
  3
Hidden (.5x) _ _ _ _ _ _ _ _ _ _ _ _ _ _ _ _ _
 72
    65
 73
     2
 40
0.1875
 49
0.125
 74
     0
 49
-0.0625
 74
     0
  0
LTYPE
  5
2FA
330
18
100
AcDbSymbolTableRecord
100
AcDbLinetypeTableRecord
  2
HIDDEN
 70
     0
  3
Hidden __ __ __ __ __ __ __ __ __ __ __ __ __ _
 72
    65
 73
     2
 40
0.375
 49
0.25
 74
     0
 49
-0.125
 74
     0
  0
ENDTAB
  0
TABLE
  2
LAYER
  5
14
330
0
100
AcDbSymbolTable
 70
     2
  0
LAYER
  5
6
330
14
100
AcDbSymbolTableRecord
100
AcDbLayerTableRecord
  2
0
 70
     0
 62
     7
  6
CONTINUOUS
370
    -3
390
7
  0
ENDTAB
  0
TABLE
  2
STYLE
  5
15
330
0
100
AcDbSymbolTable
 70
     1
  0
STYLE
  5
16
330
15
100
AcDbSymbolTableRecord
100
AcDbTextStyleTableRecord
  2
STANDARD
 70
     0
 40
0.0
 41
1.0
 50
0.0
 71
     0
 42
0.27
  3
TXT
  4

  0
ENDTAB
  0
TABLE
  2
VIEW
  5
1B
330
0
100
AcDbSymbolTable
 70
     0
  0
ENDTAB
  0
TABLE
  2
UCS
  5
1C
330
0
100
AcDbSymbolTable
 70
     0
  0
ENDTAB
  0
TABLE
  2
APPID
  5
1F
330
0
100
AcDbSymbolTable
 70
     2
  0
APPID
  5
20
330
1F
100
AcDbSymbolTableRecord
100
AcDbRegAppTableRecord
  2
ACAD
 70
     0
  0
APPID
  5
4A
330
1F
100
AcDbSymbolTableRecord
100
AcDbRegAppTableRecord
  2
_DIE112SSJYHX
 70
     0
  0
ENDTAB
  0
TABLE
  2
DIMSTYLE
  5
21
330
0
100
AcDbSymbolTable
 70
     1
100
AcDbDimStyleTable
  0
DIMSTYLE
105
28
330
21
100
AcDbSymbolTableRecord
100
AcDbDimStyleTableRecord
  2
STANDARD
 70
     0
  3

  4

340
16
  0
ENDTAB
  0
TABLE
  2
BLOCK_RECORD
  5
1
330
0
100
AcDbSymbolTable
 70
     1
  0
BLOCK_RECORD
  5
2
330
1
100
AcDbSymbolTableRecord
100
AcDbBlockTableRecord
  2
*MODEL_SPACE
340
C
  0
BLOCK_RECORD
  5
E
330
1
100
AcDbSymbolTableRecord
100
AcDbBlockTableRecord
  2
*PAPER_SPACE
340
13
  0
ENDTAB
  0
ENDSEC
  0
SECTION
  2
BLOCKS
  0
BLOCK
  5
5
330
2
100
AcDbEntity
  8
0
100
AcDbBlockBegin
  2
*MODEL_SPACE
 70
     0
 10
0.0
 20
0.0
 30
0.0
  3
*MODEL_SPACE
  1

  4

  0
ENDBLK
  5
B
330
2
100
AcDbEntity
  8
0
100
AcDbBlockEnd
  0
BLOCK
  5
11
330
E
100
AcDbEntity
 67
     1
  8
0
100
AcDbBlockBegin
  2
*PAPER_SPACE
 70
     0
 10
0.0
 20
0.0
 30
0.0
  3
*PAPER_SPACE
  1

  4

  0
ENDBLK
  5
12
330
E
100
AcDbEntity
 67
     1
  8
0
100
AcDbBlockEnd
  0
ENDSEC
  0
SECTION
  2
ENTITIES
  0
LINE
  5
179
330
2
100
AcDbEntity
  8
0
100
AcDbLine
 10
0.8574999999999875
 20
8.714999999999973
 30
0.0
 11
0.8574999999999875
 21
0.1349999999999909
 31
0.0
  0
LINE
  5
17A
330
2
100
AcDbEntity
  8
0
100
AcDbLine
 10
-0.8574999999999875
 20
0.1349999999999909
 30
0.0
 11
-0.8574999999999875
 21
8.714999999999973
 31
0.0
  0
LINE
  5
17B
330
2
100
AcDbEntity
  8
0
100
AcDbLine
 10
0.8125000000000089
 20
8.714999999999973
 30
0.0
 11
0.8124999999999716
 21
0.1349999999999909
 31
0.0
  0
LINE
  5
17C
330
2
100
AcDbEntity
  8
0
100
AcDbLine
 10
-0.8125000000000284
 20
0.1349999999999909
 30
0.0
 11
-0.8125000000000284
 21
8.714999999999973
 31
0.0
  0
CIRCLE
  5
17D
330
2
100
AcDbEntity
  8
0
  6
Continuous
100
AcDbCircle
 10
1.737500000000019
 20
6.214999999999973
 30
0.0
 40
0.0855
  0
CIRCLE
  5
17E
330
2
100
AcDbEntity
  8
0
  6
Continuous
100
AcDbCircle
 10
-1.737500000000019
 20
6.214999999999973
 30
0.0
 40
0.0855
  0
LINE
  5
17F
330
2
100
AcDbEntity
  8
0
100
AcDbLine
 10
0.8125000000000071
 20
8.728663742235161
 30
0.0
 11
0.8125000000000071
 21
0.1399999999999757
 31
0.0
  0
LINE
  5
180
330
2
100
AcDbEntity
  8
0
100
AcDbLine
 10
-0.8125
 20
0.1399999999999757
 30
0.0
 11
-0.8125
 21
8.728663742235161
 31
0.0
  0
LINE
  5
181
330
2
100
AcDbEntity
  8
0
100
AcDbLine
 10
1.987500000000019
 20
8.96499999999998
 30
0.0
 11
1.987500000000155
 21
5.173142315092321
 31
0.0
  0
LINE
  5
182
330
2
100
AcDbEntity
  8
0
100
AcDbLine
 10
-1.987500000000019
 20
8.96499999999998
 30
0.0
 11
-1.987500000000156
 21
5.173142315092321
 31
0.0
  0
ARC
  5
183
330
2
100
AcDbEntity
  8
0
100
AcDbCircle
 10
0.7675000000000125
 20
0.1349999999999909
 30
0.0
 40
0.135
100
AcDbArc
 50
270.0
 51
0.0
  0
LINE
  5
184
330
2
100
AcDbEntity
  8
0
100
AcDbLine
 10
0.8574999999999093
 20
2.095896261652161
 30
0.0
 11
1.426199924399555
 21
2.908083925117911
 31
0.0
  0
LINE
  5
185
330
2
100
AcDbEntity
  8
0
100
AcDbLine
 10
0.9024999999999466
 20
2.280544494717219
 30
0.0
 11
0.9024999999999466
 21
0.1349999999999909
 31
0.0
  0
LINE
  5
186
330
2
100
AcDbEntity
  8
0
100
AcDbLine
 10
-0.9025000000000034
 20
0.1349999999999909
 30
0.0
 11
-0.9025000000000034
 21
2.280544494717219
 31
0.0
  0
LINE
  5
187
330
2
100
AcDbEntity
  8
0
100
AcDbLine
 10
0.7675000000000125
 20
0.0
 30
0.0
 11
-0.7675000000000125
 21
0.0
 31
0.0
  0
LINE
  5
188
330
2
100
AcDbEntity
  8
0
100
AcDbLine
 10
0.7675000000000125
 20
0.0450000000000159
 30
0.0
 11
-0.7675000000000125
 21
0.0450000000000159
 31
0.0
  0
LINE
  5
189
330
2
100
AcDbEntity
  8
0
100
AcDbLine
 10
0.7675000000000125
 20
0.089999999999975
 30
0.0
 11
-0.7675000000000125
 21
0.089999999999975
 31
0.0
  0
LINE
  5
18A
330
2
100
AcDbEntity
  8
0
100
AcDbLine
 10
0.7625000000000028
 20
0.089999999999975
 30
0.0
 11
-0.7625000000000028
 21
0.089999999999975
 31
0.0
  0
ARC
  5
18B
330
2
100
AcDbEntity
  8
0
100
AcDbCircle
 10
-0.7675000000000125
 20
0.1349999999999909
 30
0.0
 40
0.135
100
AcDbArc
 50
180.0
 51
270.0
  0
ARC
  5
18C
330
2
100
AcDbEntity
  8
0
100
AcDbCircle
 10
-0.7675000000000125
 20
0.1349999999999909
 30
0.0
 40
0.09
100
AcDbArc
 50
180.0
 51
270.0
  0
ARC
  5
18D
330
2
100
AcDbEntity
  8
0
100
AcDbCircle
 10
-0.7675000000000125
 20
0.1349999999999909
 30
0.0
 40
0.045
100
AcDbArc
 50
180.0
 51
270.0
  0
ARC
  5
18E
330
2
100
AcDbEntity
  8
0
100
AcDbCircle
 10
-0.7674999999999255
 20
1.207720000000279
 30
0.0
 40
0.045
100
AcDbArc
 50
180.0
 51
225.0000000076272
  0
LINE
  5
18F
330
2
100
AcDbEntity
  8
0
100
AcDbLine
 10
-0.7993198051492509
 20
1.175900194842598
 30
0.0
 11
-0.6793198051493619
 21
0.9922605845764583
 31
0.0
  0
ARC
  5
190
330
2
100
AcDbEntity
  8
0
100
AcDbCircle
 10
-0.826342116257174
 20
1.171102700793993
 30
0.0
 40
0.2315168730279693
100
AcDbArc
 50
273.4276901945817
 51
309.4228987337908
  0
ARC
  5
191
330
2
100
AcDbEntity
  8
0
100
AcDbCircle
 10
-0.7674999999999246
 20
0.9327200000001099
 30
0.0
 40
0.045
100
AcDbArc
 50
180.0
 51
225.0000000076272
  0
LINE
  5
192
330
2
100
AcDbEntity
  8
0
100
AcDbLine
 10
-0.7993198051492501
 20
0.9009001948424285
 30
0.0
 11
-0.679319805149361
 21
0.7172605845762892
 31
0.0
  0
ARC
  5
193
330
2
100
AcDbEntity
  8
0
100
AcDbCircle
 10
-0.8263421162572122
 20
0.8961027007940157
 30
0.0
 40
0.2315168730281418
100
AcDbArc
 50
273.4276901945887
 51
309.422898733768
  0
LINE
  5
194
330
2
100
AcDbEntity
  8
0
100
AcDbLine
 10
-0.0000000000000284
 20
0.1899999999992019
 30
0.0
 11
0.0541265877365902
 21
0.089999999999975
 31
0.0
  0
LINE
  5
195
330
2
100
AcDbEntity
  8
0
100
AcDbLine
 10
-0.0000000000000284
 20
0.1899999999992019
 30
0.0
 11
-0.054126587736647
 21
0.089999999999975
 31
0.0
  0
LINE
  5
196
330
2
100
AcDbEntity
  8
0
100
AcDbLine
 10
-0.0935080210463468
 20
0.0899999999997476
 30
0.0
 11
-0.0935080210458921
 21
0.1898307366423637
 31
0.0
  0
LINE
  5
197
330
2
100
AcDbEntity
  8
0
100
AcDbLine
 10
0.0935080210460626
 20
0.089999999999975
 30
0.0
 11
0.0935080210460626
 21
0.1898307366428185
 31
0.0
  0
LINE
  5
198
330
2
100
AcDbEntity
  8
0
100
AcDbLine
 10
0.0935080210460626
 20
0.1898307366428185
 30
0.0
 11
0.0257468900594802
 21
0.1424320834992727
 31
0.0
  0
LINE
  5
199
330
2
100
AcDbEntity
  8
0
100
AcDbLine
 10
-0.0935080210458921
 20
0.1898307366423637
 30
0.0
 11
-0.0257468900588549
 21
0.1424320834995001
 31
0.0
  0
LINE
  5
19A
330
2
100
AcDbEntity
  8
0
100
AcDbLine
 10
-0.0000000000000284
 20
0.1899999999992019
 30
0.0
 11
-0.054126587736647
 21
0.089999999999975
 31
0.0
  0
LINE
  5
19B
330
2
100
AcDbEntity
  8
0
100
AcDbLine
 10
-0.0935080210458921
 20
0.1898307366423637
 30
0.0
 11
-0.0257468900589028
 21
0.1424320834995339
 31
0.0
  0
LINE
  5
19C
330
2
100
AcDbEntity
  8
0
100
AcDbLine
 10
-0.0935080210463468
 20
0.089999999999975
 30
0.0
 11
-0.0935080210458921
 21
0.1898307366423637
 31
0.0
  0
LINE
  5
19D
330
2
100
AcDbEntity
  8
0
100
AcDbLine
 10
-0.0000000000000284
 20
0.1899999999992019
 30
0.0
 11
0.0541265877365902
 21
0.089999999999975
 31
0.0
  0
LINE
  5
19E
330
2
100
AcDbEntity
  8
0
100
AcDbLine
 10
0.0935080210460697
 20
0.089999999999975
 30
0.0
 11
0.0935080210460626
 21
0.1898307366428185
 31
0.0
  0
LINE
  5
19F
330
2
100
AcDbEntity
  8
0
100
AcDbLine
 10
0.0935080210460626
 20
0.1898307366428185
 30
0.0
 11
0.0257468900591213
 21
0.1424320834990223
 31
0.0
  0
ARC
  5
1A0
330
2
100
AcDbEntity
  8
0
100
AcDbCircle
 10
0.7675000000000125
 20
0.1349999999999909
 30
0.0
 40
0.09
100
AcDbArc
 50
270.0
 51
0.0
  0
ARC
  5
1A1
330
2
100
AcDbEntity
  8
0
100
AcDbCircle
 10
0.7675000000000125
 20
0.1349999999999909
 30
0.0
 40
0.045
100
AcDbArc
 50
270.0
 51
0.0
  0
POINT
  5
1A2
330
2
100
AcDbEntity
  8
0
  6
ByBlock
100
AcDbPoint
 10
0.7625000000000028
 20
0.089999999999975
 30
0.0
  0
POINT
  5
1A3
330
2
100
AcDbEntity
  8
0
  6
ByBlock
100
AcDbPoint
 10
0.7624999999999957
 20
0.089999999999975
 30
0.0
  0
POINT
  5
1A4
330
2
100
AcDbEntity
  8
0
  6
ByBlock
100
AcDbPoint
 10
0.8125000000000071
 20
0.1399999999999757
 30
0.0
  0
ARC
  5
1A5
330
2
100
AcDbEntity
  8
0
100
AcDbCircle
 10
0.8263421162571554
 20
0.8961027007940157
 30
0.0
 40
0.2315168730281418
100
AcDbArc
 50
230.5771012662321
 51
266.5723098054114
  0
LINE
  5
1A6
330
2
100
AcDbEntity
  8
0
100
AcDbLine
 10
0.7993198051491932
 20
0.9009001948424285
 30
0.0
 11
0.6793198051493041
 21
0.7172605845762892
 31
0.0
  0
ARC
  5
1A7
330
2
100
AcDbEntity
  8
0
100
AcDbCircle
 10
0.7674999999998686
 20
1.207720000000279
 30
0.0
 40
0.045
100
AcDbArc
 50
314.9999999923728
 51
0.000000000000007
  0
LINE
  5
1A8
330
2
100
AcDbEntity
  8
0
100
AcDbLine
 10
0.7993198051491941
 20
1.175900194842598
 30
0.0
 11
0.679319805149305
 21
0.9922605845764583
 31
0.0
  0
ARC
  5
1A9
330
2
100
AcDbEntity
  8
0
100
AcDbCircle
 10
0.8263421162571172
 20
1.171102700793993
 30
0.0
 40
0.2315168730279693
100
AcDbArc
 50
230.5771012662092
 51
266.5723098054183
  0
ARC
  5
1AA
330
2
100
AcDbEntity
  8
0
100
AcDbCircle
 10
-1.485000000000156
 20
5.173142315092321
 30
0.0
 40
0.5025000000000001
100
AcDbArc
 50
180.0
 51
224.999999999981
1001
_DIE112SSJYHX
1002
{
1000
comp_type
1000
DBL24
1000
material
1000
D-2
1000
thickness
1040
1.25
1000
mount
1000
SBP10
1000
mntlay
1000
DIE_SUB_PLATE
1002
}
  0
LINE
  5
1AB
330
2
100
AcDbEntity
  8
0
100
AcDbLine
 10
-1.612500000000212
 20
3.458235042593003
 30
0.0
 11
-1.612500000000156
 21
4.3839287527191
 31
0.0
  0
LINE
  5
1AC
330
2
100
AcDbEntity
  8
0
100
AcDbLine
 10
-0.5838716692542203
 20
1.600360522024729
 30
0.0
 11
-0.7794698377051628
 21
2.560306871569878
 31
0.0
  0
LINE
  5
1AD
330
2
100
AcDbEntity
  8
0
100
AcDbLine
 10
-0.8574999999999662
 20
2.095896261652161
 30
0.0
 11
-1.426199924399612
 21
2.908083925117911
 31
0.0
  0
ARC
  5
1AE
330
2
100
AcDbEntity
  8
0
100
AcDbCircle
 10
-0.8574999999997033
 20
1.696250000000077
 30
0.0
 40
0.05
100
AcDbArc
 50
90.0
 51
154.158067238145
  0
LINE
  5
1AF
330
2
100
AcDbEntity
  8
0
100
AcDbLine
 10
-0.8125000000002256
 20
1.343316936683891
 30
0.0
 11
-0.5838716692542203
 21
1.600360522024729
 31
0.0
  0
ARC
  5
1B0
330
2
100
AcDbEntity
  8
0
100
AcDbCircle
 10
-0.8574999999997033
 20
2.258750000000077
 30
0.0
 40
0.05
100
AcDbArc
 50
90.0
 51
154.158067238145
  0
ARC
  5
1B1
330
2
100
AcDbEntity
  8
0
100
AcDbCircle
 10
-0.6100000000000083
 20
3.490235042593312
 30
0.0
 40
1.002500000000003
100
AcDbArc
 50
180.0
 51
214.9999999999975
1001
_DIE112SSJYHX
1002
{
1000
comp_type
1000
DBL24
1000
material
1000
D-2
1000
thickness
1040
1.25
1000
mount
1000
SBP10
1000
mntlay
1000
DIE_SUB_PLATE
1002
}
  0
ARC
  5
1B2
330
2
100
AcDbEntity
  8
0
100
AcDbCircle
 10
-0.8531216819596921
 20
2.540571919380767
 30
0.0
 40
0.07625
100
AcDbArc
 50
15.00000000003474
 51
36.33921337440425
  0
LINE
  5
1B3
330
2
100
AcDbEntity
  8
0
100
AcDbLine
 10
-0.8125
 20
2.614029400264514
 30
0.0
 11
-0.7917005594447346
 21
2.585754971612374
 31
0.0
  0
LINE
  5
1B4
330
2
100
AcDbEntity
  8
0
100
AcDbLine
 10
0.5838716692541635
 20
1.600360522024729
 30
0.0
 11
0.7794698377051059
 21
2.560306871569878
 31
0.0
  0
LINE
  5
1B5
330
2
100
AcDbEntity
  8
0
100
AcDbLine
 10
0.8125000000001688
 20
1.343316936683891
 30
0.0
 11
0.5838716692541635
 21
1.600360522024729
 31
0.0
  0
ARC
  5
1B6
330
2
100
AcDbEntity
  8
0
100
AcDbCircle
 10
0.8574999999994466
 20
1.696250000000489
 30
0.0
 40
0.05
100
AcDbArc
 50
25.84193276185504
 51
90.0
  0
ARC
  5
1B7
330
2
100
AcDbEntity
  8
0
100
AcDbCircle
 10
0.8574999999996464
 20
2.258750000000077
 30
0.0
 40
0.05
100
AcDbArc
 50
25.84193276185504
 51
90.0
  0
ARC
  5
1B8
330
2
100
AcDbEntity
  8
0
100
AcDbCircle
 10
0.8531216819596352
 20
2.540571919380767
 30
0.0
 40
0.07625
100
AcDbArc
 50
143.6607866255957
 51
164.9999999999653
  0
LINE
  5
1B9
330
2
100
AcDbEntity
  8
0
100
AcDbLine
 10
0.8124999999999432
 20
2.614029400264514
 30
0.0
 11
0.7917005594446778
 21
2.585754971612374
 31
0.0
  0
ARC
  5
1BA
330
2
100
AcDbEntity
  8
0
100
AcDbCircle
 10
-2.110000000000156
 20
4.3839287527191
 30
0.0
 40
0.4975
100
AcDbArc
 50
0.0
 51
44.99999999998109
1001
_DIE112SSJYHX
1002
{
1000
comp_type
1000
DBL24
1000
material
1000
D-2
1000
thickness
1040
1.25
1000
mount
1000
SBP10
1000
mntlay
1000
DIE_SUB_PLATE
1002
}
  0
LINE
  5
1BB
330
2
100
AcDbEntity
  8
0
100
AcDbLine
 10
-1.739965093079992
 20
4.716465093079949
 30
0.0
 11
-1.863732546540005
 21
4.84023254653996
 31
0.0
  0
CIRCLE
  5
1BC
330
2
100
AcDbEntity
  8
0
  6
Continuous
100
AcDbCircle
 10
-1.737500000000019
 20
5.089999999999973
 30
0.0
 40
0.0855
  0
LINE
  5
1BD
330
2
100
AcDbEntity
  8
0
100
AcDbLine
 10
-0.8624999999999972
 20
5.213506350946084
 30
0.0
 11
-0.8125
 21
5.213506350946084
 31
0.0
  0
LINE
  5
1BE
330
2
100
AcDbEntity
  8
0
100
AcDbLine
 10
-0.8624999999999972
 20
4.996999999999975
 30
0.0
 11
-0.8125
 21
4.996999999999975
 31
0.0
  0
LINE
  5
1BF
330
2
100
AcDbEntity
  8
0
100
AcDbLine
 10
0.8125000000000071
 20
5.213506350946084
 30
0.0
 11
0.8625000000000114
 21
5.213506350946084
 31
0.0
  0
LINE
  5
1C0
330
2
100
AcDbEntity
  8
0
100
AcDbLine
 10
0.8125000000000071
 20
4.996999999999975
 30
0.0
 11
0.8625000000000114
 21
4.996999999999975
 31
0.0
  0
LINE
  5
1C1
330
2
100
AcDbEntity
  8
0
100
AcDbLine
 10
1.612500000000036
 20
3.458235042592873
 30
0.0
 11
1.612500000000155
 21
4.3839287527191
 31
0.0
  0
ARC
  5
1C2
330
2
100
AcDbEntity
  8
0
100
AcDbCircle
 10
0.6099999999999444
 20
3.490235042593312
 30
0.0
 40
1.002500000000009
100
AcDbArc
 50
325.0000000000027
 51
0.0
1001
_DIE112SSJYHX
1002
{
1000
comp_type
1000
DBL24
1000
material
1000
D-2
1000
thickness
1040
1.25
1000
mount
1000
SBP10
1000
mntlay
1000
DIE_SUB_PLATE
1002
}
  0
ARC
  5
1C3
330
2
100
AcDbEntity
  8
0
100
AcDbCircle
 10
1.485000000000147
 20
5.173142315092322
 30
0.0
 40
0.5025000000000081
100
AcDbArc
 50
315.0000000000194
 51
359.9999999999998
1001
_DIE112SSJYHX
1002
{
1000
comp_type
1000
DBL24
1000
material
1000
D-2
1000
thickness
1040
1.25
1000
mount
1000
SBP10
1000
mntlay
1000
DIE_SUB_PLATE
1002
}
  0
ARC
  5
1C4
330
2
100
AcDbEntity
  8
0
100
AcDbCircle
 10
2.110000000000156
 20
4.3839287527191
 30
0.0
 40
0.4975
100
AcDbArc
 50
135.0000000000189
 51
180.0
1001
_DIE112SSJYHX
1002
{
1000
comp_type
1000
DBL24
1000
material
1000
D-2
1000
thickness
1040
1.25
1000
mount
1000
SBP10
1000
mntlay
1000
DIE_SUB_PLATE
1002
}
  0
LINE
  5
1C5
330
2
100
AcDbEntity
  8
0
100
AcDbLine
 10
1.758214376359732
 20
4.735714376359292
 30
0.0
 11
1.840321157546478
 21
4.817821157546243
 31
0.0
  0
CIRCLE
  5
1C6
330
2
100
AcDbEntity
  8
0
  6
Continuous
100
AcDbCircle
 10
1.737500000000019
 20
5.089999999999973
 30
0.0
 40
0.0855
  0
LINE
  5
1C7
330
2
100
AcDbEntity
  8
0
100
AcDbLine
 10
0.8625000000000114
 20
9.214999999999973
 30
0.0
 11
1.112500000000011
 21
9.214999999999973
 31
0.0
  0
LINE
  5
1C8
330
2
100
AcDbEntity
  8
0
100
AcDbLine
 10
0.8125000000000071
 20
8.728663742235161
 30
0.0
 11
1.069864720043661
 21
9.149197226926736
 31
0.0
  0
LINE
  5
1C9
330
2
100
AcDbEntity
  8
0
100
AcDbLine
 10
0.8625000000000114
 20
8.714999999999973
 30
0.0
 11
1.112500000000011
 21
9.123077638433733
 31
0.0
  0
ARC
  5
1CA
330
2
100
AcDbEntity
  8
0
100
AcDbCircle
 10
0.8125000000000071
 20
8.714999999999973
 30
0.0
 40
0.15625
100
AcDbArc
 50
288.6629248849412
 51
42.67230656116108
  0
LINE
  5
1CB
330
2
100
AcDbEntity
  8
0
100
AcDbLine
 10
-1.987500000000019
 20
8.96499999999998
 30
0.0
 11
-1.737500000000019
 21
9.21499999999998
 31
0.0
  0
ARC
  5
1CC
330
2
100
AcDbEntity
  8
0
100
AcDbCircle
 10
-0.8124999999999929
 20
8.714999999999973
 30
0.0
 40
0.15625
100
AcDbArc
 50
137.3276934388401
 51
251.3370751150561
  0
CIRCLE
  5
1CD
330
2
100
AcDbEntity
  8
0
  6
Continuous
100
AcDbCircle
 10
-1.737500000000019
 20
7.339999999999973
 30
0.0
 40
0.0855
  0
LINE
  5
1CE
330
2
100
AcDbEntity
  8
0
100
AcDbLine
 10
-1.187250000000169
 20
7.52238834764796
 30
0.0
 11
-1.187250000000162
 21
8.277499999999973
 31
0.0
  0
LINE
  5
1CF
330
2
100
AcDbEntity
  8
0
100
AcDbLine
 10
-1.375250000000165
 20
8.277499999999973
 30
0.0
 11
-1.375250000000165
 21
7.522388347648294
 31
0.0
  0
LINE
  5
1D0
330
2
100
AcDbEntity
  8
0
100
AcDbLine
 10
-1.281249999999837
 20
7.402499999999973
 30
0.0
 11
-1.20555582617601
 21
7.4781941738238
 31
0.0
  0
LINE
  5
1D1
330
2
100
AcDbEntity
  8
0
100
AcDbLine
 10
-1.281250000000163
 20
7.402499999999973
 30
0.0
 11
-1.356944173824324
 21
7.478194173824134
 31
0.0
  0
ARC
  5
1D2
330
2
100
AcDbEntity
  8
0
100
AcDbCircle
 10
-1.312750000000172
 20
7.522388347648294
 30
0.0
 40
0.0625
100
AcDbArc
 50
180.0
 51
224.9999999999999
  0
ARC
  5
1D3
330
2
100
AcDbEntity
  8
0
100
AcDbCircle
 10
-1.249750000000169
 20
7.52238834764796
 30
0.0
 40
0.0625
100
AcDbArc
 50
314.9999999999995
 51
359.9999999999998
  0
CIRCLE
  5
1D4
330
2
100
AcDbEntity
  8
0
  6
Continuous
100
AcDbCircle
 10
-1.737500000000019
 20
8.464999999999966
 30
0.0
 40
0.0855
  0
LINE
  5
1D5
330
2
100
AcDbEntity
  8
0
100
AcDbLine
 10
-1.112499999999997
 20
9.63999999999997
 30
0.0
 11
-1.487500000000019
 21
9.63999999999997
 31
0.0
  0
LWPOLYLINE
  5
1D6
330
2
100
AcDbEntity
  8
0
  6
Continuous
100
AcDbPolyline
 90
        4
 70
     1
 43
0.0
 10
-1.365256426651637
 20
9.339999999999948
 10
-1.2347435733484
 20
9.339999999999948
 10
-1.2347435733484
 20
9.089999999999948
 10
-1.365256426651637
 20
9.089999999999948
  0
LINE
  5
1D7
330
2
100
AcDbEntity
  8
0
100
AcDbLine
 10
-1.487500000000004
 20
9.214999999999966
 30
0.0
 11
-1.487500000000019
 21
9.63999999999997
 31
0.0
  0
LINE
  5
1D8
330
2
100
AcDbEntity
  8
0
100
AcDbLine
 10
-1.487500000000019
 20
9.21499999999998
 30
0.0
 11
-1.737500000000019
 21
9.21499999999998
 31
0.0
  0
LINE
  5
1D9
330
2
100
AcDbEntity
  8
0
100
AcDbLine
 10
-1.112499999999997
 20
9.214999999999973
 30
0.0
 11
-1.112499999999997
 21
9.63999999999997
 31
0.0
  0
LINE
  5
1DA
330
2
100
AcDbEntity
  8
0
100
AcDbLine
 10
-0.8125
 20
8.728663742235161
 30
0.0
 11
-1.069864720043654
 21
9.149197226926736
 31
0.0
  0
LINE
  5
1DB
330
2
100
AcDbEntity
  8
0
100
AcDbLine
 10
-0.8624999999999972
 20
9.214999999999973
 30
0.0
 11
-1.112499999999997
 21
9.214999999999973
 31
0.0
  0
LINE
  5
1DC
330
2
100
AcDbEntity
  8
0
100
AcDbLine
 10
-0.8624999999999972
 20
8.714999999999973
 30
0.0
 11
-1.112499999999997
 21
9.123077638433733
 31
0.0
  0
LINE
  5
1DD
330
2
100
AcDbEntity
  8
0
100
AcDbLine
 10
-1.112499999999997
 20
9.123077638433733
 30
0.0
 11
-1.069864720043654
 21
9.149197226926736
 31
0.0
  0
LINE
  5
1DE
330
2
100
AcDbEntity
  8
0
100
AcDbLine
 10
-0.8624999999999972
 20
8.863033991029054
 30
0.0
 11
-0.8624999999999972
 21
9.214999999999973
 31
0.0
  0
ARC
  5
1DF
330
2
100
AcDbEntity
  8
0
100
AcDbCircle
 10
-0.8124999999999929
 20
8.714999999999973
 30
0.0
 40
0.15625
100
AcDbArc
 50
108.6629248849441
 51
118.8501228964894
  0
ARC
  5
1E0
330
2
100
AcDbEntity
  8
0
100
AcDbCircle
 10
0.8125000000000071
 20
8.714999999999973
 30
0.0
 40
0.15625
100
AcDbArc
 50
61.14987710351321
 51
71.33707511505588
  0
LINE
  5
1E1
330
2
100
AcDbEntity
  8
0
100
AcDbLine
 10
0.8625000000000114
 20
8.863033991029054
 30
0.0
 11
0.8625000000000114
 21
9.214999999999973
 31
0.0
  0
CIRCLE
  5
1E2
330
2
100
AcDbEntity
  8
0
  6
Continuous
100
AcDbCircle
 10
1.737500000000019
 20
7.339999999999973
 30
0.0
 40
0.0855
  0
LINE
  5
1E3
330
2
100
AcDbEntity
  8
0
100
AcDbLine
 10
1.187250000000176
 20
7.52238834764796
 30
0.0
 11
1.187250000000169
 21
8.277499999999973
 31
0.0
  0
LINE
  5
1E4
330
2
100
AcDbEntity
  8
0
100
AcDbLine
 10
1.375250000000172
 20
8.277499999999973
 30
0.0
 11
1.375250000000172
 21
7.522388347648294
 31
0.0
  0
LINE
  5
1E5
330
2
100
AcDbEntity
  8
0
100
AcDbLine
 10
1.281249999999844
 20
7.402499999999973
 30
0.0
 11
1.205555826176017
 21
7.4781941738238
 31
0.0
  0
ARC
  5
1E6
330
2
100
AcDbEntity
  8
0
100
AcDbCircle
 10
1.249750000000176
 20
7.52238834764796
 30
0.0
 40
0.0625
100
AcDbArc
 50
180.0000000000002
 51
225.0000000000005
  0
LINE
  5
1E7
330
2
100
AcDbEntity
  8
0
100
AcDbLine
 10
1.281250000000171
 20
7.402499999999973
 30
0.0
 11
1.356944173824331
 21
7.478194173824134
 31
0.0
  0
ARC
  5
1E8
330
2
100
AcDbEntity
  8
0
100
AcDbCircle
 10
1.312750000000172
 20
7.522388347648294
 30
0.0
 40
0.0625
100
AcDbArc
 50
315.0000000000001
 51
0.000000000000007
  0
CIRCLE
  5
1E9
330
2
100
AcDbEntity
  8
0
  6
Continuous
100
AcDbCircle
 10
1.737500000000019
 20
8.464999999999966
 30
0.0
 40
0.0855
  0
LINE
  5
1EA
330
2
100
AcDbEntity
  8
0
100
AcDbLine
 10
1.487500000000019
 20
9.21499999999998
 30
0.0
 11
1.737500000000019
 21
9.21499999999998
 31
0.0
  0
LWPOLYLINE
  5
1EB
330
2
100
AcDbEntity
  8
0
  6
Continuous
100
AcDbPolyline
 90
        4
 70
     1
 43
0.0
 10
1.235000000000021
 20
9.339999999999984
 10
1.365512853303258
 20
9.339999999999984
 10
1.365512853303258
 20
9.089999999999984
 10
1.235000000000021
 20
9.089999999999984
  0
LINE
  5
1EC
330
2
100
AcDbEntity
  8
0
100
AcDbLine
 10
1.112500000000011
 20
9.214999999999973
 30
0.0
 11
1.112500000000011
 21
9.63999999999997
 31
0.0
  0
LINE
  5
1ED
330
2
100
AcDbEntity
  8
0
100
AcDbLine
 10
1.487500000000019
 20
9.21499999999998
 30
0.0
 11
1.487500000000019
 21
9.639999999999978
 31
0.0
  0
LINE
  5
1EE
330
2
100
AcDbEntity
  8
0
100
AcDbLine
 10
1.112500000000011
 20
9.123077638433733
 30
0.0
 11
1.069864720043661
 21
9.149197226926736
 31
0.0
  0
LINE
  5
1EF
330
2
100
AcDbEntity
  8
0
100
AcDbLine
 10
1.112500000000004
 20
9.63999999999997
 30
0.0
 11
1.487500000000011
 21
9.639999999999978
 31
0.0
  0
LINE
  5
1F0
330
2
100
AcDbEntity
  8
0
100
AcDbLine
 10
1.987500000000019
 20
8.96499999999998
 30
0.0
 11
1.737500000000019
 21
9.21499999999998
 31
0.0
  0
LINE
  5
330
330
2
100
AcDbEntity
  8
0
  6
HIDDEN
100
AcDbLine
 10
-1.112499999999997
 20
9.589999999999973
 30
0.0
 11
-1.487500000000019
 21
9.589999999999973
 31
0.0
  0
LINE
  5
331
330
2
100
AcDbEntity
  8
0
  6
HIDDEN
100
AcDbLine
 10
1.112500000000004
 20
9.589999999999973
 30
0.0
 11
1.487500000000011
 21
9.58999999999998
 31
0.0
  0
ENDSEC
  0
SECTION
  2
OBJECTS
  0
DICTIONARY
  5
9
330
0
100
AcDbDictionary
281
     1
  3
ACAD_COLOR
350
2F5
  3
ACAD_GROUP
350
23
  3
ACAD_LAYOUT
350
D
  3
ACAD_MATERIAL
350
2F4
  3
ACAD_MLINESTYLE
350
24
  3
ACAD_PLOTSETTINGS
350
25
  3
ACAD_PLOTSTYLENAME
350
8
  3
ACAD_TABLESTYLE
350
2F6
  3
ACDBHEADERROUNDTRIPXREC
350
355
  3
AcDbVariableDictionary
350
16D
  0
DICTIONARY
  5
2F5
102
{ACAD_REACTORS
330
9
102
}
330
9
100
AcDbDictionary
281
     1
  0
DICTIONARY
  5
23
102
{ACAD_REACTORS
330
9
102
}
330
9
100
AcDbDictionary
281
     1
  0
DICTIONARY
  5
D
102
{ACAD_REACTORS
330
9
102
}
330
9
100
AcDbDictionary
281
     1
  3
Layout1
350
13
  3
Model
350
C
  0
DICTIONARY
  5
2F4
102
{ACAD_REACTORS
330
9
102
}
330
9
100
AcDbDictionary
281
     1
  0
DICTIONARY
  5
24
102
{ACAD_REACTORS
330
9
102
}
330
9
100
AcDbDictionary
281
     1
  3
STANDARD
350
27
  0
DICTIONARY
  5
25
102
{ACAD_REACTORS
330
9
102
}
330
9
100
AcDbDictionary
281
     1
  0
ACDBDICTIONARYWDFLT
  5
8
102
{ACAD_REACTORS
330
9
102
}
330
9
100
AcDbDictionary
281
     1
  3
Normal
350
7
100
AcDbDictionaryWithDefault
340
7
  0
DICTIONARY
  5
2F6
102
{ACAD_REACTORS
330
9
102
}
330
9
100
AcDbDictionary
281
     1
  3
Standard
350
2F7
  0
DICTIONARY
  5
355
102
{ACAD_REACTORS
330
9
102
}
330
9
100
AcDbDictionary
281
     1
  3
COLORDICT
350
356
  3
MATERIALDICT
350
357
  0
DICTIONARY
  5
16D
102
{ACAD_REACTORS
330
9
102
}
330
9
100
AcDbDictionary
281
     1
  3
CTABLESTYLE
350
352
  3
HIDETEXT
350
354
  0
LAYOUT
  5
13
102
{ACAD_REACTORS
330
D
102
}
102
{ACAD_XDICTIONARY
360
358
102
}
330
D
100
AcDbPlotSettings
  1

  2
HP LaserJet 2100 Series PS
  4

  6

 40
0.0
 41
0.0
 42
0.0
 43
0.0
 44
0.0
 45
0.0
 46
0.0
 47
0.0
 48
0.0
 49
0.0
140
0.0
141
0.0
142
1.0
143
1.0
 70
   688
 72
     0
 73
     0
 74
     5
  7

 75
    16
147
1.0
148
0.0
149
0.0
100
AcDbLayout
  1
Layout1
 70
     0
 71
     1
 10
0.0
 20
0.0
 11
12.0
 21
9.0
 12
0.0
 22
0.0
 32
0.0
 14
1.000000000000000E+20
 24
1.000000000000000E+20
 34
1.000000000000000E+20
 15
-1.000000000000000E+20
 25
-1.000000000000000E+20
 35
-1.000000000000000E+20
146
0.0
 13
0.0
 23
0.0
 33
0.0
 16
1.0
 26
0.0
 36
0.0
 17
0.0
 27
1.0
 37
0.0
 76
     0
330
E
  0
LAYOUT
  5
C
102
{ACAD_REACTORS
330
D
102
}
102
{ACAD_XDICTIONARY
360
35A
102
}
330
D
100
AcDbPlotSettings
  1

  2
HP LaserJet 2100 Series PS
  4
Letter
  6

 40
5.365749835968018
 41
5.386905193328857
 42
5.386917114257813
 43
5.365753173828125
 44
215.8999938964844
 45
279.3999938964844
 46
0.0
 47
0.0
 48
0.0
 49
0.0
140
0.0
141
0.0
142
1.0
143
1.0
 70
 11952
 72
     0
 73
     1
 74
     0
  7

 75
     0
147
1.0
148
-51.34525308194984
149
5.032826400000006
100
AcDbLayout
  1
Model
 70
     1
 71
     0
 10
0.0
 20
0.0
 11
12.0
 21
9.0
 12
0.0
 22
0.0
 32
0.0
 14
0.0
 24
0.0
 34
0.0
 15
0.0
 25
0.0
 35
0.0
146
0.0
 13
0.0
 23
0.0
 33
0.0
 16
1.0
 26
0.0
 36
0.0
 17
0.0
 27
1.0
 37
0.0
 76
     0
330
2
  0
MLINESTYLE
  5
27
102
{ACAD_REACTORS
330
24
102
}
330
24
100
AcDbMlineStyle
  2
STANDARD
 70
     0
  3

 62
   256
 51
90.0
 52
90.0
 71
     2
 49
0.5
 62
   256
  6
BYLAYER
 49
-0.5
 62
   256
  6
BYLAYER
  0
ACDBPLACEHOLDER
  5
7
102
{ACAD_REACTORS
330
8
102
}
330
8
  0
ACAD_PROXY_OBJECT
  5
2F7
102
{ACAD_REACTORS
330
2F6
102
}
330
2F6
100
AcDbProxyObject
 90
      499
 91
      562
 95
   983063
 70
     0
 93
     1841
310
4214DD185B99185C9928B81E85EB51B8AE3F2E07A17AD46E2B8FC02B5E8DC0F42B1CFD028000000C1008070000C3001FDFF8000000C1003FBFF000000182007F7FE00000030400FEFFC00000060801FDFF8000000C1003FBFF00000018200000000000000681FA0B0000001820100E000186003FBFF000000182007F7FE000
310
00030400FEFFC00000060801FDFF8000000C1003FBFF000000182007F7FE000000304000AD7A3703D0AC73F4160000003040201C00030C007F7FE00000030400FEFFC00000060801FDFF8000000C1003FBFF000000182007F7FE00000030400FEFFC000000608000
340
16
340
16
340
16
 94
        0
  0
XRECORD
  5
356
102
{ACAD_REACTORS
330
355
102
}
330
355
100
AcDbXrecord
340
2F5
  0
XRECORD
  5
357
102
{ACAD_REACTORS
330
355
102
}
330
355
100
AcDbXrecord
340
2F4
  0
DICTIONARYVAR
  5
352
102
{ACAD_REACTORS
330
16D
102
}
330
16D
100
DictionaryVariables
280
     0
  1
STANDARD
  0
DICTIONARYVAR
  5
354
102
{ACAD_REACTORS
330
16D
102
}
330
16D
100
DictionaryVariables
280
     0
  1
1
  0
DICTIONARY
  5
358
330
13
100
AcDbDictionary
280
     1
281
     1
  3
ACAD_XREC_ROUNDTRIP
360
359
  0
DICTIONARY
  5
35A
330
C
100
AcDbDictionary
280
     1
281
     1
  3
ACAD_XREC_ROUNDTRIP
360
35B
  0
XRECORD
  5
359
102
{ACAD_REACTORS
330
358
102
}
330
358
100
AcDbXrecord
102
SHADEPLOT
 70
     0
102
SHADEPLOTRESLEVEL
 70
     2
102
SHADEPLOTCUSTOMDPI
 70
   300
  0
XRECORD
  5
35B
102
{ACAD_REACTORS
330
35A
102
}
330
35A
100
AcDbXrecord
102
SHADEPLOT
 70
     0
102
SHADEPLOTRESLEVEL
 70
     2
102
SHADEPLOTCUSTOMDPI
 70
   300
  0
ENDSEC
  0
EOF
