  0
SECTION
  2
HEADER
  9
$ACADVER
  1
AC1015
  9
$ACADMAINTVER
 70
     6
  9
$DWGCODEPAGE
  3
ANSI_1252
  9
$INSBASE
 10
0.0
 20
0.0
 30
0.0
  9
$EXTMIN
 10
-8.944638143103518
 20
-0.0414187410030461
 30
0.0
  9
$EXTMAX
 10
8.944638143103525
 20
15.58655408602174
 30
0.0
  9
$LIMMIN
 10
0.0
 20
0.0
  9
$LIMMAX
 10
24.0
 20
31.5
  9
$ORTHOMODE
 70
     1
  9
$REGENMODE
 70
     1
  9
$FILLMODE
 70
     1
  9
$QTEXTMODE
 70
     0
  9
$MIRRTEXT
 70
     0
  9
$LTSCALE
 40
0.6
  9
$ATTMODE
 70
     1
  9
$TEXTSIZE
 40
0.27
  9
$TRACEWID
 40
0.05
  9
$TEXTSTYLE
  7
STANDARD
  9
$CLAYER
  8
0
  9
$CELTYPE
  6
HIDDEN
  9
$CECOLOR
 62
   256
  9
$CELTSCALE
 40
1.0
  9
$DISPSILH
 70
     0
  9
$DIMSCALE
 40
3.0
  9
$DIMASZ
 40
0.125
  9
$DIMEXO
 40
0.062
  9
$DIMDLI
 40
0.375
  9
$DIMRND
 40
0.0
  9
$DIMDLE
 40
0.0
  9
$DIMEXE
 40
0.08
  9
$DIMTP
 40
0.0313
  9
$DIMTM
 40
0.0
  9
$DIMTXT
 40
0.09
  9
$DIMCEN
 40
-0.03125
  9
$DIMTSZ
 40
0.0
  9
$DIMTOL
 70
     0
  9
$DIMLIM
 70
     0
  9
$DIMTIH
 70
     1
  9
$DIMTOH
 70
     1
  9
$DIMSE1
 70
     0
  9
$DIMSE2
 70
     0
  9
$DIMTAD
 70
     0
  9
$DIMZIN
 70
     0
  9
$DIMBLK
  1

  9
$DIMASO
 70
     1
  9
$DIMSHO
 70
     0
  9
$DIMPOST
  1

  9
$DIMAPOST
  1

  9
$DIMALT
 70
     0
  9
$DIMALTD
 70
     2
  9
$DIMALTF
 40
25.4
  9
$DIMLFAC
 40
1.0
  9
$DIMTOFL
 70
     0
  9
$DIMTVP
 40
0.0
  9
$DIMTIX
 70
     0
  9
$DIMSOXD
 70
     0
  9
$DIMSAH
 70
     0
  9
$DIMBLK1
  1

  9
$DIMBLK2
  1

  9
$DIMSTYLE
  2
STANDARD
  9
$DIMCLRD
 70
     0
  9
$DIMCLRE
 70
     0
  9
$DIMCLRT
 70
     0
  9
$DIMTFAC
 40
1.0
  9
$DIMGAP
 40
0.09
  9
$DIMJUST
 70
     0
  9
$DIMSD1
 70
     0
  9
$DIMSD2
 70
     0
  9
$DIMTOLJ
 70
     1
  9
$DIMTZIN
 70
     0
  9
$DIMALTZ
 70
     0
  9
$DIMALTTZ
 70
     0
  9
$DIMUPT
 70
     1
  9
$DIMDEC
 70
     5
  9
$DIMTDEC
 70
     4
  9
$DIMALTU
 70
     2
  9
$DIMALTTD
 70
     2
  9
$DIMTXSTY
  7
STANDARD
  9
$DIMAUNIT
 70
     0
  9
$DIMADEC
 70
     0
  9
$DIMALTRND
 40
0.0
  9
$DIMAZIN
 70
     0
  9
$DIMDSEP
 70
    46
  9
$DIMATFIT
 70
     3
  9
$DIMFRAC
 70
     2
  9
$DIMLDRBLK
  1

  9
$DIMLUNIT
 70
     5
  9
$DIMLWD
 70
    -2
  9
$DIMLWE
 70
    -2
  9
$DIMTMOVE
 70
     2
  9
$LUNITS
 70
     2
  9
$LUPREC
 70
     4
  9
$SKETCHINC
 40
0.1
  9
$FILLETRAD
 40
0.0
  9
$AUNITS
 70
     0
  9
$AUPREC
 70
     0
  9
$MENU
  1
ACAD
  9
$ELEVATION
 40
0.0
  9
$PELEVATION
 40
0.0
  9
$THICKNESS
 40
0.0
  9
$LIMCHECK
 70
     0
  9
$CHAMFERA
 40
0.0
  9
$CHAMFERB
 40
0.0
  9
$CHAMFERC
 40
0.0
  9
$CHAMFERD
 40
0.0
  9
$SKPOLY
 70
     0
  9
$TDCREATE
 40
2449436.829454167
  9
$TDUCREATE
 40
2449437.1627875
  9
$TDUPDATE
 40
2454166.944789132
  9
$TDUUPDATE
 40
2454167.278122465
  9
$TDINDWG
 40
1.2605137963
  9
$TDUSRTIMER
 40
1.2605137963
  9
$USRTIMER
 70
     1
  9
$ANGBASE
 50
0.0
  9
$ANGDIR
 70
     0
  9
$PDMODE
 70
     0
  9
$PDSIZE
 40
0.0
  9
$PLINEWID
 40
0.0
  9
$SPLFRAME
 70
     0
  9
$SPLINETYPE
 70
     6
  9
$SPLINESEGS
 70
     8
  9
$HANDSEED
  5
35B
  9
$SURFTAB1
 70
     6
  9
$SURFTAB2
 70
     6
  9
$SURFTYPE
 70
     6
  9
$SURFU
 70
     6
  9
$SURFV
 70
     6
  9
$UCSBASE
  2

  9
$UCSNAME
  2

  9
$UCSORG
 10
0.0
 20
0.0
 30
0.0
  9
$UCSXDIR
 10
1.0
 20
0.0
 30
0.0
  9
$UCSYDIR
 10
0.0
 20
1.0
 30
0.0
  9
$UCSORTHOREF
  2

  9
$UCSORTHOVIEW
 70
     0
  9
$UCSORGTOP
 10
0.0
 20
0.0
 30
0.0
  9
$UCSORGBOTTOM
 10
0.0
 20
0.0
 30
0.0
  9
$UCSORGLEFT
 10
0.0
 20
0.0
 30
0.0
  9
$UCSORGRIGHT
 10
0.0
 20
0.0
 30
0.0
  9
$UCSORGFRONT
 10
0.0
 20
0.0
 30
0.0
  9
$UCSORGBACK
 10
0.0
 20
0.0
 30
0.0
  9
$PUCSBASE
  2

  9
$PUCSNAME
  2

  9
$PUCSORG
 10
0.0
 20
0.0
 30
0.0
  9
$PUCSXDIR
 10
1.0
 20
0.0
 30
0.0
  9
$PUCSYDIR
 10
0.0
 20
1.0
 30
0.0
  9
$PUCSORTHOREF
  2

  9
$PUCSORTHOVIEW
 70
     0
  9
$PUCSORGTOP
 10
0.0
 20
0.0
 30
0.0
  9
$PUCSORGBOTTOM
 10
0.0
 20
0.0
 30
0.0
  9
$PUCSORGLEFT
 10
0.0
 20
0.0
 30
0.0
  9
$PUCSORGRIGHT
 10
0.0
 20
0.0
 30
0.0
  9
$PUCSORGFRONT
 10
0.0
 20
0.0
 30
0.0
  9
$PUCSORGBACK
 10
0.0
 20
0.0
 30
0.0
  9
$USERI1
 70
     0
  9
$USERI2
 70
     0
  9
$USERI3
 70
     0
  9
$USERI4
 70
     0
  9
$USERI5
 70
     0
  9
$USERR1
 40
0.0
  9
$USERR2
 40
0.0
  9
$USERR3
 40
0.0
  9
$USERR4
 40
0.0
  9
$USERR5
 40
0.0
  9
$WORLDVIEW
 70
     1
  9
$SHADEDGE
 70
     3
  9
$SHADEDIF
 70
    70
  9
$TILEMODE
 70
     1
  9
$MAXACTVP
 70
    16
  9
$PINSBASE
 10
0.0
 20
0.0
 30
0.0
  9
$PLIMCHECK
 70
     0
  9
$PEXTMIN
 10
1.000000000000000E+20
 20
1.000000000000000E+20
 30
1.000000000000000E+20
  9
$PEXTMAX
 10
-1.000000000000000E+20
 20
-1.000000000000000E+20
 30
-1.000000000000000E+20
  9
$PLIMMIN
 10
0.0
 20
0.0
  9
$PLIMMAX
 10
12.0
 20
9.0
  9
$UNITMODE
 70
     0
  9
$VISRETAIN
 70
     0
  9
$PLINEGEN
 70
     0
  9
$PSLTSCALE
 70
     0
  9
$TREEDEPTH
 70
  3020
  9
$CMLSTYLE
  2
STANDARD
  9
$CMLJUST
 70
     0
  9
$CMLSCALE
 40
1.0
  9
$PROXYGRAPHICS
 70
     1
  9
$MEASUREMENT
 70
     0
  9
$CELWEIGHT
370
    -1
  9
$ENDCAPS
280
     0
  9
$JOINSTYLE
280
     0
  9
$LWDISPLAY
290
     0
  9
$INSUNITS
 70
     0
  9
$HYPERLINKBASE
  1

  9
$STYLESHEET
  1

  9
$XEDIT
290
     1
  9
$CEPSNTYPE
380
     0
  9
$PSTYLEMODE
290
     1
  9
$FINGERPRINTGUID
  2
{7E1BADCE-439C-11D5-BE3F-00508B5FCD51}
  9
$VERSIONGUID
  2
{A52A98C5-4521-4F9E-B67F-B3B4F5B9E343}
  9
$EXTNAMES
290
     1
  9
$PSVPSCALE
 40
0.0
  9
$OLESTARTUP
290
     0
  0
ENDSEC
  0
SECTION
  2
CLASSES
  0
CLASS
  1
DICTIONARYVAR
  2
AcDbDictionaryVar
  3
AutoCAD 2000
 90
        0
280
     0
281
     0
  0
CLASS
  1
LWPOLYLINE
  2
AcDbPolyline
  3
AutoCAD 2000
 90
        0
280
     0
281
     1
  0
CLASS
  1
ACDBDICTIONARYWDFLT
  2
AcDbDictionaryWithDefault
  3
AutoCAD 2000
 90
        0
280
     0
281
     0
  0
CLASS
  1
ACDBPLACEHOLDER
  2
AcDbPlaceHolder
  3
ObjectDBX Classes
 90
        0
280
     0
281
     0
  0
CLASS
  1
LAYOUT
  2
AcDbLayout
  3
ObjectDBX Classes
 90
        0
280
     0
281
     0
  0
CLASS
  1
LONG_TRANSACTION
  2
AcDbLongTransaction
  3
ObjectDBX Classes
 90
   -65536
280
     1
281
     0
  0
CLASS
  1
LWPOLYLINE
  2
AcDbPolyline
  3
AutoCAD 2000
 90
        0
280
     0
281
     1
  0
CLASS
  1
HATCH
  2
AcDbHatch
  3
AutoCAD 2000
 90
        0
280
     0
281
     1
  0
CLASS
  1
XRECORD
  2
AcDbXrecord
  3
AutoCAD 2000
 90
        0
280
     0
281
     0
  0
CLASS
  1
LONG_TRANSACTION
  2
AcDbLongTransaction
  3
ObjectDBX Classes
 90
   -65536
280
     1
281
     0
  0
CLASS
  1
LWPOLYLINE
  2
AcDbPolyline
  3
AutoCAD 2000
 90
        0
280
     0
281
     1
  0
CLASS
  1
HATCH
  2
AcDbHatch
  3
AutoCAD 2000
 90
        0
280
     0
281
     1
  0
CLASS
  1
XRECORD
  2
AcDbXrecord
  3
AutoCAD 2000
 90
        0
280
     0
281
     0
  0
CLASS
  1
LONG_TRANSACTION
  2
AcDbLongTransaction
  3
ObjectDBX Classes
 90
   -65536
280
     1
281
     0
  0
CLASS
  1
LWPOLYLINE
  2
AcDbPolyline
  3
AutoCAD 2000
 90
        0
280
     0
281
     1
  0
CLASS
  1
HATCH
  2
AcDbHatch
  3
AutoCAD 2000
 90
        0
280
     0
281
     1
  0
CLASS
  1
XRECORD
  2
AcDbXrecord
  3
AutoCAD 2000
 90
        0
280
     0
281
     0
  0
CLASS
  1
OLE2FRAME
  2
AcDbOle2Frame
  3
AutoCAD 2000
 90
        0
280
     0
281
     1
  0
CLASS
  1
LONG_TRANSACTION
  2
AcDbLongTransaction
  3
ObjectDBX Classes
 90
   -65536
280
     1
281
     0
  0
CLASS
  1
LWPOLYLINE
  2
AcDbPolyline
  3
AutoCAD 2000
 90
        0
280
     0
281
     1
  0
CLASS
  1
HATCH
  2
AcDbHatch
  3
AutoCAD 2000
 90
        0
280
     0
281
     1
  0
CLASS
  1
XRECORD
  2
AcDbXrecord
  3
AutoCAD 2000
 90
        0
280
     0
281
     0
  0
CLASS
  1
LONG_TRANSACTION
  2
AcDbLongTransaction
  3
ObjectDBX Classes
 90
   -65536
280
     1
281
     0
  0
CLASS
  1
LWPOLYLINE
  2
AcDbPolyline
  3
AutoCAD 2000
 90
        0
280
     0
281
     1
  0
CLASS
  1
HATCH
  2
AcDbHatch
  3
AutoCAD 2000
 90
        0
280
     0
281
     1
  0
CLASS
  1
XRECORD
  2
AcDbXrecord
  3
AutoCAD 2000
 90
        0
280
     0
281
     0
  0
CLASS
  1
LONG_TRANSACTION
  2
AcDbLongTransaction
  3
ObjectDBX Classes
 90
   -65536
280
     1
281
     0
  0
CLASS
  1
LWPOLYLINE
  2
AcDbPolyline
  3
AutoCAD 2000
 90
        0
280
     0
281
     1
  0
CLASS
  1
HATCH
  2
AcDbHatch
  3
AutoCAD 2000
 90
        0
280
     0
281
     1
  0
CLASS
  1
XRECORD
  2
AcDbXrecord
  3
AutoCAD 2000
 90
        0
280
     0
281
     0
  0
CLASS
  1
LONG_TRANSACTION
  2
AcDbLongTransaction
  3
ObjectDBX Classes
 90
   -65536
280
     1
281
     0
  0
CLASS
  1
LWPOLYLINE
  2
AcDbPolyline
  3
AutoCAD 2000
 90
        0
280
     0
281
     1
  0
CLASS
  1
HATCH
  2
AcDbHatch
  3
AutoCAD 2000
 90
        0
280
     0
281
     1
  0
CLASS
  1
XRECORD
  2
AcDbXrecord
  3
AutoCAD 2000
 90
        0
280
     0
281
     0
  0
CLASS
  1
LONG_TRANSACTION
  2
AcDbLongTransaction
  3
ObjectDBX Classes
 90
   -65536
280
     1
281
     0
  0
CLASS
  1
LWPOLYLINE
  2
AcDbPolyline
  3
AutoCAD 2000
 90
        0
280
     0
281
     1
  0
CLASS
  1
HATCH
  2
AcDbHatch
  3
AutoCAD 2000
 90
        0
280
     0
281
     1
  0
CLASS
  1
XRECORD
  2
AcDbXrecord
  3
AutoCAD 2000
 90
        0
280
     0
281
     0
  0
CLASS
  1
LONG_TRANSACTION
  2
AcDbLongTransaction
  3
ObjectDBX Classes
 90
   -65536
280
     1
281
     0
  0
CLASS
  1
LWPOLYLINE
  2
AcDbPolyline
  3
AutoCAD 2000
 90
        0
280
     0
281
     1
  0
CLASS
  1
HATCH
  2
AcDbHatch
  3
AutoCAD 2000
 90
        0
280
     0
281
     1
  0
CLASS
  1
XRECORD
  2
AcDbXrecord
  3
AutoCAD 2000
 90
        0
280
     0
281
     0
  0
CLASS
  1
LONG_TRANSACTION
  2
AcDbLongTransaction
  3
ObjectDBX Classes
 90
   -65536
280
     1
281
     0
  0
CLASS
  1
LWPOLYLINE
  2
AcDbPolyline
  3
AutoCAD 2000
 90
        0
280
     0
281
     1
  0
CLASS
  1
HATCH
  2
AcDbHatch
  3
AutoCAD 2000
 90
        0
280
     0
281
     1
  0
CLASS
  1
XRECORD
  2
AcDbXrecord
  3
AutoCAD 2000
 90
        0
280
     0
281
     0
  0
CLASS
  1
LONG_TRANSACTION
  2
AcDbLongTransaction
  3
ObjectDBX Classes
 90
   -65536
280
     1
281
     0
  0
CLASS
  1
LWPOLYLINE
  2
AcDbPolyline
  3
AutoCAD 2000
 90
        0
280
     0
281
     1
  0
CLASS
  1
HATCH
  2
AcDbHatch
  3
AutoCAD 2000
 90
        0
280
     0
281
     1
  0
CLASS
  1
XRECORD
  2
AcDbXrecord
  3
AutoCAD 2000
 90
        0
280
     0
281
     0
  0
CLASS
  1
LONG_TRANSACTION
  2
AcDbLongTransaction
  3
ObjectDBX Classes
 90
   -65536
280
     1
281
     0
  0
CLASS
  1
LWPOLYLINE
  2
AcDbPolyline
  3
AutoCAD 2000
 90
        0
280
     0
281
     1
  0
CLASS
  1
HATCH
  2
AcDbHatch
  3
AutoCAD 2000
 90
        0
280
     0
281
     1
  0
CLASS
  1
XRECORD
  2
AcDbXrecord
  3
AutoCAD 2000
 90
        0
280
     0
281
     0
  0
CLASS
  1
LONG_TRANSACTION
  2
AcDbLongTransaction
  3
ObjectDBX Classes
 90
   -65536
280
     1
281
     0
  0
CLASS
  1
LWPOLYLINE
  2
AcDbPolyline
  3
AutoCAD 2000
 90
        0
280
     0
281
     1
  0
CLASS
  1
HATCH
  2
AcDbHatch
  3
AutoCAD 2000
 90
        0
280
     0
281
     1
  0
CLASS
  1
XRECORD
  2
AcDbXrecord
  3
AutoCAD 2000
 90
        0
280
     0
281
     0
  0
CLASS
  1
LONG_TRANSACTION
  2
AcDbLongTransaction
  3
ObjectDBX Classes
 90
   -65536
280
     1
281
     0
  0
CLASS
  1
LWPOLYLINE
  2
AcDbPolyline
  3
AutoCAD 2000
 90
        0
280
     0
281
     1
  0
CLASS
  1
HATCH
  2
AcDbHatch
  3
AutoCAD 2000
 90
        0
280
     0
281
     1
  0
CLASS
  1
XRECORD
  2
AcDbXrecord
  3
AutoCAD 2000
 90
        0
280
     0
281
     0
  0
CLASS
  1
TABLESTYLE
  2
AcDbTableStyle
  3
ObjectDBX Classes
 90
     2047
280
     1
281
     0
  0
ENDSEC
  0
SECTION
  2
TABLES
  0
TABLE
  2
VPORT
  5
1D
330
0
100
AcDbSymbolTable
 70
     3
  0
VPORT
  5
34D
330
1D
100
AcDbSymbolTableRecord
100
AcDbViewportTableRecord
  2
*Active
 70
     0
 10
0.0
 20
0.0
 11
1.0
 21
1.0
 12
7.793789792498671
 22
13.86511922724555
 13
0.0
 23
0.0
 14
0.063
 24
0.063
 15
0.25
 25
0.25
 16
0.0
 26
0.0
 36
1.0
 17
0.0
 27
0.0
 37
0.0
 40
31.93722874622799
 41
1.814583333333333
 42
50.0
 43
0.0
 44
0.0
 50
0.0
 51
0.0
 71
     0
 72
   100
 73
     1
 74
     0
 75
     0
 76
     0
 77
     0
 78
     1
281
     0
 65
     1
110
0.0
120
0.0
130
0.0
111
1.0
121
0.0
131
0.0
112
0.0
122
1.0
132
0.0
 79
     0
146
0.0
  0
ENDTAB
  0
TABLE
  2
LTYPE
  5
18
330
0
100
AcDbSymbolTable
 70
     3
  0
LTYPE
  5
19
330
18
100
AcDbSymbolTableRecord
100
AcDbLinetypeTableRecord
  2
BYBLOCK
 70
     0
  3

 72
    65
 73
     0
 40
0.0
  0
LTYPE
  5
1A
330
18
100
AcDbSymbolTableRecord
100
AcDbLinetypeTableRecord
  2
BYLAYER
 70
     0
  3

 72
    65
 73
     0
 40
0.0
  0
LTYPE
  5
A
330
18
100
AcDbSymbolTableRecord
100
AcDbLinetypeTableRecord
  2
CONTINUOUS
 70
     0
  3
Solid line
 72
    65
 73
     0
 40
0.0
  0
LTYPE
  5
37
330
18
100
AcDbSymbolTableRecord
100
AcDbLinetypeTableRecord
  2
HIDDEN2
 70
     0
  3
Hidden (.5x) _ _ _ _ _ _ _ _ _ _ _ _ _ _ _ _ _
 72
    65
 73
     2
 40
0.1875
 49
0.125
 74
     0
 49
-0.0625
 74
     0
  0
LTYPE
  5
2FA
330
18
100
AcDbSymbolTableRecord
100
AcDbLinetypeTableRecord
  2
HIDDEN
 70
     0
  3
Hidden __ __ __ __ __ __ __ __ __ __ __ __ __ _
 72
    65
 73
     2
 40
0.375
 49
0.25
 74
     0
 49
-0.125
 74
     0
  0
ENDTAB
  0
TABLE
  2
LAYER
  5
14
330
0
100
AcDbSymbolTable
 70
     1
  0
LAYER
  5
6
330
14
100
AcDbSymbolTableRecord
100
AcDbLayerTableRecord
  2
0
 70
     0
 62
     7
  6
CONTINUOUS
370
    -3
390
7
  0
ENDTAB
  0
TABLE
  2
STYLE
  5
15
330
0
100
AcDbSymbolTable
 70
     1
  0
STYLE
  5
16
330
15
100
AcDbSymbolTableRecord
100
AcDbTextStyleTableRecord
  2
STANDARD
 70
     0
 40
0.0
 41
1.0
 50
0.0
 71
     0
 42
0.27
  3
TXT
  4

  0
ENDTAB
  0
TABLE
  2
VIEW
  5
1B
330
0
100
AcDbSymbolTable
 70
     0
  0
ENDTAB
  0
TABLE
  2
UCS
  5
1C
330
0
100
AcDbSymbolTable
 70
     0
  0
ENDTAB
  0
TABLE
  2
APPID
  5
1F
330
0
100
AcDbSymbolTable
 70
     2
  0
APPID
  5
20
330
1F
100
AcDbSymbolTableRecord
100
AcDbRegAppTableRecord
  2
ACAD
 70
     0
  0
APPID
  5
4A
330
1F
100
AcDbSymbolTableRecord
100
AcDbRegAppTableRecord
  2
_DIE112SSJYHX
 70
     0
  0
ENDTAB
  0
TABLE
  2
DIMSTYLE
  5
21
330
0
100
AcDbSymbolTable
 70
     1
100
AcDbDimStyleTable
  0
DIMSTYLE
105
28
330
21
100
AcDbSymbolTableRecord
100
AcDbDimStyleTableRecord
  2
STANDARD
 70
     0
  3

  4

340
16
  0
ENDTAB
  0
TABLE
  2
BLOCK_RECORD
  5
1
330
0
100
AcDbSymbolTable
 70
     0
  0
BLOCK_RECORD
  5
2
330
1
100
AcDbSymbolTableRecord
100
AcDbBlockTableRecord
  2
*MODEL_SPACE
340
C
  0
BLOCK_RECORD
  5
E
330
1
100
AcDbSymbolTableRecord
100
AcDbBlockTableRecord
  2
*PAPER_SPACE
340
13
  0
ENDTAB
  0
ENDSEC
  0
SECTION
  2
BLOCKS
  0
BLOCK
  5
5
330
2
100
AcDbEntity
  8
0
100
AcDbBlockBegin
  2
*MODEL_SPACE
 70
     0
 10
0.0
 20
0.0
 30
0.0
  3
*MODEL_SPACE
  1

  4

  0
ENDBLK
  5
B
330
2
100
AcDbEntity
  8
0
100
AcDbBlockEnd
  0
BLOCK
  5
11
330
E
100
AcDbEntity
 67
     1
  8
0
100
AcDbBlockBegin
  2
*PAPER_SPACE
 70
     0
 10
0.0
 20
0.0
 30
0.0
  3
*PAPER_SPACE
  1

  4

  0
ENDBLK
  5
12
330
E
100
AcDbEntity
 67
     1
  8
0
100
AcDbBlockEnd
  0
ENDSEC
  0
SECTION
  2
ENTITIES
  0
LINE
  5
2A3
330
2
100
AcDbEntity
  8
0
100
AcDbLine
 10
-0.4109467758797649
 20
9.539999999999969
 30
0.0
 11
-0.4109467758797649
 21
2.067037001685646
 31
0.0
  0
LINE
  5
2A4
330
2
100
AcDbEntity
  8
0
100
AcDbLine
 10
-0.3609467758797678
 20
9.539999999999976
 30
0.0
 11
-0.3609467758797678
 21
1.995629601348549
 31
0.0
  0
LINE
  5
2A5
330
2
100
AcDbEntity
  8
0
100
AcDbLine
 10
0.4633209910731573
 20
5.173874548139507
 30
0.0
 11
0.4640532241202422
 21
8.899197226926729
 31
0.0
  0
ARC
  5
2A6
330
2
100
AcDbEntity
  8
0
100
AcDbCircle
 10
0.9665532241202328
 20
1.344328618174586
 30
0.0
 40
0.06
100
AcDbArc
 50
270.0000000000003
 51
359.9999999999999
  0
LWPOLYLINE
  5
2A7
330
2
100
AcDbEntity
  8
0
100
AcDbPolyline
 90
       43
 70
     0
 43
0.0
 10
0.6515532241202386
 20
1.344328618174586
 10
0.652805421070795
 20
1.71047841297651
 10
0.6556718487709503
 20
1.798155638876562
 10
0.6599414185709946
 20
1.878230283776485
 10
0.665321073570837
 20
1.951392941076403
 10
0.6715902690707907
 20
2.018257840476519
 10
0.6785832366709172
 20
2.079385567376459
 10
0.6861731470708463
 20
2.135260034176564
 10
0.694264584770778
 20
2.186311956276551
 10
0.7027841187707935
 20
2.232905598176568
 10
0.7116849977708597
 20
2.27539225037641
 10
0.7209371874708239
 20
2.314066008976408
 10
0.7305266133708273
 20
2.349173799276525
 10
0.7404573767708342
 20
2.380925059676439
 10
0.7507511712708919
 20
2.409481908776581
 10
0.7614575229709288
 20
2.434970441876441
 10
0.7726688985708705
 20
2.457474375976528
 10
0.7844945429708758
 20
2.476932307376512
 10
0.7970723920707741
 20
2.493126267376521
 10
0.8105474609708807
 20
2.505605805476545
 10
0.8246991827709707
 20
2.513510903376538
 10
0.8388221121709165
 20
2.516224003176614
 10
0.8530196434708586
 20
2.513786956776595
 10
0.8672617695709022
 20
2.50609693637649
 10
0.8808078554709908
 20
2.493783372976406
 10
0.893469522070788
 20
2.477681044676512
 10
0.9053657319707753
 20
2.458278693576414
 10
0.9166386728709739
 20
2.435802209376572
 10
0.9273984858707962
 20
2.410321751476442
 10
0.9377380291708022
 20
2.381761808576595
 10
0.9477096755709198
 20
2.349995059576497
 10
0.957335563570993
 20
2.31486235917647
 10
0.9666205592709929
 20
2.276155018076462
 10
0.975551053570868
 20
2.233626791876542
 10
0.9840971125709501
 20
2.186985305676455
 10
0.9922125569708413
 20
2.135877662876521
 10
0.9998238977707814
 20
2.079940624576476
 10
1.00683582167089
 20
2.018742866876448
 10
1.013121458670909
 20
1.951799814376511
 10
1.01851481687099
 20
1.878550791076588
 10
1.022795067870945
 20
1.798380101876557
 10
1.025668584270804
 20
1.710596414776557
 10
1.026553224120232
 20
1.344328618174586
  0
ARC
  5
2A8
330
2
100
AcDbEntity
  8
0
100
AcDbCircle
 10
0.8390532241202351
 20
1.409328618174591
 30
0.0
 40
0.1874999999999982
100
AcDbArc
 50
0.000000000000007
 51
180.0
  0
ARC
  5
2A9
330
2
100
AcDbEntity
  8
0
100
AcDbCircle
 10
1.841553224120158
 20
3.454235042592941
 30
0.0
 40
1.002500000000012
100
AcDbArc
 50
180.0000000000002
 51
214.9999999999974
1001
_DIE112SSJYHX
1002
{
1000
comp_type
1000
DBL24
1000
material
1000
D-2
1000
thickness
1040
1.25
1000
mount
1000
SBP10
1000
mntlay
1000
DIE_SUB_PLATE
1002
}
  0
LINE
  5
2AA
330
2
100
AcDbEntity
  8
0
100
AcDbLine
 10
0.8890532241203317
 20
0.7349999999999106
 30
0.0
 11
1.039053224120309
 21
0.9099999999999788
 31
0.0
  0
ARC
  5
2AB
330
2
100
AcDbEntity
  8
0
100
AcDbCircle
 10
1.039053224120252
 20
0.8474999999999788
 30
0.0
 40
0.1875
100
AcDbArc
 50
216.869897645846
 51
323.1301023541623
  0
LINE
  5
2AC
330
2
100
AcDbEntity
  8
0
100
AcDbLine
 10
1.039053224120195
 20
0.7122605845752439
 30
0.0
 11
0.889053224120218
 21
0.7350000000000243
 31
0.0
  0
LINE
  5
2AE
330
2
100
AcDbEntity
  8
0
  6
HIDDEN2
100
AcDbLine
 10
1.245303224120242
 20
0.0399999999999743
 30
0.0
 11
1.245303224120264
 21
1.602499999999953
 31
0.0
  0
LINE
  5
2AF
330
2
100
AcDbEntity
  8
0
  6
HIDDEN2
100
AcDbLine
 10
1.432803224120235
 20
0.0399999999999743
 30
0.0
 11
1.432803224120264
 21
1.602499999999953
 31
0.0
  0
LINE
  5
2B0
330
2
100
AcDbEntity
  8
0
100
AcDbLine
 10
1.839053224120377
 20
0.170499999999933
 30
0.0
 11
1.839053224120146
 21
1.553138852532367
 31
0.0
  0
LINE
  5
2B4
330
2
100
AcDbEntity
  8
0
100
AcDbLine
 10
1.039053224120309
 20
0.9099999999999788
 30
0.0
 11
1.189053224120286
 21
0.7349999999999106
 31
0.0
  0
LINE
  5
2B5
330
2
100
AcDbEntity
  8
0
100
AcDbLine
 10
1.039053224120195
 20
0.7122605845752439
 30
0.0
 11
1.039053224120309
 21
0.9099999999998651
 31
0.0
  0
LINE
  5
2B6
330
2
100
AcDbEntity
  8
0
100
AcDbLine
 10
1.039053224120195
 20
0.7122605845752439
 30
0.0
 11
1.189053224120229
 21
0.7349999999999106
 31
0.0
  0
LINE
  5
2B7
330
2
100
AcDbEntity
  8
0
100
AcDbLine
 10
1.749081366153902
 20
1.838493129617039
 30
0.0
 11
1.020353299720409
 21
2.879224665151048
 31
0.0
  0
ARC
  5
2B8
330
2
100
AcDbEntity
  8
0
100
AcDbCircle
 10
1.341553224120148
 20
1.553138852532367
 30
0.0
 40
0.4975
100
AcDbArc
 50
0.000000000000007
 51
35.0000000000036
1001
_DIE112SSJYHX
1002
{
1000
comp_type
1000
DBL24
1000
material
1000
D-2
1000
thickness
1040
1.25
1000
mount
1000
SBP10
1000
mntlay
1000
DIE_SUB_PLATE
1002
}
  0
ARC
  5
2B9
330
2
100
AcDbEntity
  8
0
  6
HIDDEN2
100
AcDbCircle
 10
1.339053224120264
 20
1.602499999999953
 30
0.0
 40
0.09375
100
AcDbArc
 50
0.000000000000007
 51
180.0
  0
ARC
  5
2BA
330
2
100
AcDbEntity
  8
0
100
AcDbCircle
 10
0.6390532241202749
 20
1.122499999999956
 30
0.0
 40
0.1875
100
AcDbArc
 50
216.869897645846
 51
323.1301023541623
  0
LINE
  5
2BB
330
2
100
AcDbEntity
  8
0
  6
HIDDEN2
100
AcDbLine
 10
0.2453032241202635
 20
2.164999999999953
 30
0.0
 11
0.2453032241202351
 21
0.0399999999999743
 31
0.0
  0
LINE
  5
2BC
330
2
100
AcDbEntity
  8
0
  6
HIDDEN2
100
AcDbLine
 10
0.4328032241202635
 20
2.164999999999953
 30
0.0
 11
0.4328032241202351
 21
0.0399999999999743
 31
0.0
  0
LINE
  5
2BD
330
2
100
AcDbEntity
  8
0
100
AcDbLine
 10
-0.1609467758798537
 20
1.553138852532367
 30
0.0
 11
-0.1609467758798502
 21
0.170499999999933
 31
0.0
  0
ARC
  5
2C5
330
2
100
AcDbEntity
  8
0
  6
HIDDEN2
100
AcDbCircle
 10
0.3390532241202635
 20
2.164999999999953
 30
0.0
 40
0.09375
100
AcDbArc
 50
0.000000000000007
 51
180.0
  0
LINE
  5
2C6
330
2
100
AcDbEntity
  8
0
100
AcDbLine
 10
0.6390532241203317
 20
1.184999999999842
 30
0.0
 11
0.789053224120309
 21
1.009999999999888
 31
0.0
  0
LINE
  5
2C7
330
2
100
AcDbEntity
  8
0
100
AcDbLine
 10
0.639053224120218
 20
0.9872605845752212
 30
0.0
 11
0.7890532241202521
 21
1.009999999999888
 31
0.0
  0
LINE
  5
2C8
330
2
100
AcDbEntity
  8
0
100
AcDbLine
 10
0.7115532241202374
 20
1.284328618174584
 30
0.0
 11
0.9665532241202328
 21
1.284328618174584
 31
0.0
  0
LINE
  5
2C9
330
2
100
AcDbEntity
  8
0
100
AcDbLine
 10
0.639053224120218
 20
0.9872605845752212
 30
0.0
 11
0.6390532241203317
 21
1.184999999999842
 31
0.0
  0
ARC
  5
2CA
330
2
100
AcDbEntity
  8
0
100
AcDbCircle
 10
0.7115532241202374
 20
1.344328618174586
 30
0.0
 40
0.06
100
AcDbArc
 50
180.0000000000001
 51
269.9999999999998
  0
POINT
  5
2CB
330
2
100
AcDbEntity
  8
0
  6
ByBlock
100
AcDbPoint
 10
0.7115532241202374
 20
1.284328618174584
 30
0.0
  0
LINE
  5
2CC
330
2
100
AcDbEntity
  8
0
100
AcDbLine
 10
0.4890532241203545
 20
1.009999999999888
 30
0.0
 11
0.6390532241203317
 21
1.184999999999842
 31
0.0
  0
LINE
  5
2CD
330
2
100
AcDbEntity
  8
0
100
AcDbLine
 10
0.639053224120218
 20
0.9872605845752212
 30
0.0
 11
0.4890532241202408
 21
1.010000000000002
 31
0.0
  0
POINT
  5
2CE
330
2
100
AcDbEntity
  8
0
  6
ByBlock
100
AcDbPoint
 10
0.8390532241202351
 20
1.596828618174587
 30
0.0
  0
POINT
  5
2CF
330
2
100
AcDbEntity
  8
0
  6
ByBlock
100
AcDbPoint
 10
0.8390532241202351
 20
1.596828618174587
 30
0.0
  0
ARC
  5
2D0
330
2
100
AcDbEntity
  8
0
100
AcDbCircle
 10
-0.6584467758798525
 20
1.553138852532367
 30
0.0
 40
0.4975
100
AcDbArc
 50
0.000000000000007
 51
35.0000000000036
1001
_DIE112SSJYHX
1002
{
1000
comp_type
1000
DBL24
1000
material
1000
D-2
1000
thickness
1040
1.25
1000
mount
1000
SBP10
1000
mntlay
1000
DIE_SUB_PLATE
1002
}
  0
LINE
  5
2D1
330
2
100
AcDbEntity
  8
0
100
AcDbLine
 10
-0.2509186338458136
 20
1.838493129617245
 30
0.0
 11
-0.4109467758796228
 21
2.067037001685446
 31
0.0
  0
ARC
  5
2D2
330
2
100
AcDbEntity
  8
0
100
AcDbCircle
 10
0.3408209910729312
 20
4.384660985765946
 30
0.0
 40
0.4975000000000007
100
AcDbArc
 50
0.000000000000007
 51
44.99999999998105
1001
_DIE112SSJYHX
1002
{
1000
comp_type
1000
DBL24
1000
material
1000
D-2
1000
thickness
1040
1.25
1000
mount
1000
SBP10
1000
mntlay
1000
DIE_SUB_PLATE
1002
}
  0
LINE
  5
2D3
330
2
100
AcDbEntity
  8
0
100
AcDbLine
 10
0.4567245392767063
 20
4.612279177624171
 30
0.0
 11
0.6194745392767231
 21
4.51831542106903
 31
0.0
  0
LINE
  5
2D4
330
2
100
AcDbEntity
  8
0
100
AcDbLine
 10
0.4567245392439574
 20
4.370225077265665
 30
0.0
 11
0.6194745392767231
 21
4.464188833332502
 31
0.0
  0
LINE
  5
2D5
330
2
100
AcDbEntity
  8
0
100
AcDbLine
 10
0.8390532241201463
 20
3.454235042592938
 30
0.0
 11
0.8383209910729299
 21
4.384660985765946
 31
0.0
  0
ARC
  5
2D6
330
2
100
AcDbEntity
  8
0
100
AcDbCircle
 10
0.6038495392767231
 20
4.491252127200765
 30
0.0
 40
0.03125
100
AcDbArc
 50
299.9999999999999
 51
60.00000000000281
  0
LINE
  5
2D7
330
2
100
AcDbEntity
  8
0
100
AcDbLine
 10
0.4098532241202371
 20
4.397768255661488
 30
0.0
 11
0.4098532241202229
 21
4.58569576826455
 31
0.0
  0
ARC
  5
2D8
330
2
100
AcDbEntity
  8
0
100
AcDbCircle
 10
0.4410995392767063
 20
4.585215883755907
 30
0.0
 40
0.03125
100
AcDbArc
 50
60.00000000000076
 51
180.0000000000025
  0
ARC
  5
2D9
330
2
100
AcDbEntity
  8
0
100
AcDbCircle
 10
0.4410995392767063
 20
4.397288371134696
 30
0.0
 40
0.03125
100
AcDbArc
 50
179.9999999999975
 51
299.9999999999993
  0
ARC
  5
2DA
330
2
100
AcDbEntity
  8
0
100
AcDbCircle
 10
0.9658209910731586
 20
5.173874548139507
 30
0.0
 40
0.5025
100
AcDbArc
 50
180.0
 51
225.0000000000001
  0
LINE
  5
2DB
330
2
100
AcDbEntity
  8
0
100
AcDbLine
 10
0.6926066147135686
 20
4.73644660940664
 30
0.0
 11
0.6104998335269016
 21
4.818553390593307
 31
0.0
  0
LINE
  5
2DC
330
2
100
AcDbEntity
  8
0
100
AcDbLine
 10
-0.3609467758797678
 20
5.213506350946084
 30
0.0
 11
-0.4109467758797649
 21
5.213506350946084
 31
0.0
  0
LINE
  5
2DD
330
2
100
AcDbEntity
  8
0
100
AcDbLine
 10
-0.3609467758797678
 20
4.996999999999975
 30
0.0
 11
-0.4109467758797649
 21
4.996999999999975
 31
0.0
  0
ARC
  5
2DE
330
2
100
AcDbEntity
  8
0
  6
Continuous
100
AcDbCircle
 10
-0.130982743061594
 20
7.592317641324987
 30
0.0
 40
0.096
100
AcDbArc
 50
285.0000000000007
 51
44.99999999999807
  0
LINE
  5
2DF
330
2
100
AcDbEntity
  8
0
  6
Continuous
100
AcDbLine
 10
-0.3514736878143339
 20
7.948573088065556
 30
0.0
 11
-0.0631004920676759
 21
7.660199892318898
 31
0.0
  0
LINE
  5
2E0
330
2
100
AcDbEntity
  8
0
  6
Continuous
100
AcDbLine
 10
-0.3609467758797642
 20
7.892992352261812
 30
0.0
 11
-0.0956274040022578
 21
7.627672980384316
 31
0.0
  0
LINE
  5
2E1
330
2
100
AcDbEntity
  8
0
  6
Continuous
100
AcDbLine
 10
-0.1180417908064584
 20
7.544021350010537
 30
0.0
 11
-0.359523247378732
 21
7.479316588734902
 31
0.0
  0
LINE
  5
2E2
330
2
100
AcDbEntity
  8
0
  6
Continuous
100
AcDbLine
 10
-0.1061361147317399
 20
7.499588762001244
 30
0.0
 11
-0.3476175713040135
 21
7.434884000725601
 31
0.0
  0
ARC
  5
2E3
330
2
100
AcDbEntity
  8
0
  6
Continuous
100
AcDbCircle
 10
-0.130982743061594
 20
7.592317641324987
 30
0.0
 40
0.05
100
AcDbArc
 50
284.9999999999996
 51
44.99999999999807
  0
LINE
  5
2E4
330
2
100
AcDbEntity
  8
0
  6
Continuous
100
AcDbLine
 10
-0.359523247378732
 20
7.47931658873493
 30
0.0
 11
-0.3476175713040277
 21
7.434884000725637
 31
0.0
  0
ARC
  5
2E5
330
2
100
AcDbEntity
  8
0
  6
Continuous
100
AcDbCircle
 10
-0.318946775879752
 20
7.981100000000138
 30
0.0
 40
0.046
100
AcDbArc
 50
204.0706146225166
 51
224.9999999999999
  0
ARC
  5
2E6
330
2
100
AcDbEntity
  8
0
  6
Continuous
100
AcDbCircle
 10
-0.2962112153835257
 20
7.98750162342253
 30
0.0
 40
0.1148432675996877
100
AcDbArc
 50
188.4365649615204
 51
224.8347775975267
  0
LINE
  5
2E7
330
2
100
AcDbEntity
  8
0
100
AcDbLine
 10
0.4640532241202422
 20
8.714999999999966
 30
0.0
 11
-0.2295922760866418
 21
8.714999999999973
 31
0.0
  0
LINE
  5
2E8
330
2
100
AcDbEntity
  8
0
100
AcDbLine
 10
0.2140532241202351
 20
9.149197226926736
 30
0.0
 11
-0.2958422760866313
 21
9.149197226926736
 31
0.0
  0
LINE
  5
2E9
330
2
100
AcDbEntity
  8
0
100
AcDbLine
 10
0.2640532241202322
 20
9.099197226926739
 30
0.0
 11
-0.2958422760866313
 21
9.099197226926739
 31
0.0
  0
LINE
  5
2EA
330
2
100
AcDbEntity
  8
0
100
AcDbLine
 10
0.4640532241202422
 20
8.899197226926729
 30
0.0
 11
0.2140532241202351
 21
9.149197226926736
 31
0.0
  0
ARC
  5
2EB
330
2
100
AcDbEntity
  8
0
100
AcDbCircle
 10
-0.4609467758797621
 20
9.539999999999969
 30
0.0
 40
0.05
100
AcDbArc
 50
0.000000000000007
 51
90.0
  0
ARC
  5
2EC
330
2
100
AcDbEntity
  8
0
100
AcDbCircle
 10
-0.4609467758797692
 20
9.539999999999976
 30
0.0
 40
0.1
100
AcDbArc
 50
0.000000000000007
 51
90.0
  0
LINE
  5
2ED
330
2
100
AcDbEntity
  8
0
100
AcDbLine
 10
-0.2958422760866313
 20
9.149197226926736
 30
0.0
 11
-0.2958422760866313
 21
8.842726514475229
 31
0.0
  0
ARC
  5
2EE
330
2
100
AcDbEntity
  8
0
100
AcDbCircle
 10
-0.3858422760866418
 20
8.714999999999973
 30
0.0
 40
0.15625
100
AcDbArc
 50
279.168078897781
 51
54.8303070761397
  0
LINE
  5
2EF
330
2
100
AcDbEntity
  8
0
100
AcDbLine
 10
-0.4609467758797621
 20
9.589999999999973
 30
0.0
 11
-1.035946775879765
 21
9.589999999999973
 31
0.0
  0
LINE
  5
2F0
330
2
100
AcDbEntity
  8
0
100
AcDbLine
 10
-0.4609467758797692
 20
9.63999999999997
 30
0.0
 11
-1.035946775879765
 21
9.63999999999997
 31
0.0
  0
LINE
  5
2F1
330
2
100
AcDbEntity
  8
0
100
AcDbLine
 10
-1.035946775879765
 20
9.63999999999997
 30
0.0
 11
-1.035946775879765
 21
9.589999999999973
 31
0.0
  0
LINE
  5
310
330
2
100
AcDbEntity
  8
0
100
AcDbLine
 10
1.839053224120242
 20
0.0399999999999743
 30
0.0
 11
1.431174174529922
 21
0.0399999999999743
 31
0.0
  0
LINE
  5
311
330
2
100
AcDbEntity
  8
0
100
AcDbLine
 10
1.245303224120242
 20
0.0399999999999743
 30
0.0
 11
0.4319886993251032
 21
0.0399999999999743
 31
0.0
  0
LINE
  5
312
330
2
100
AcDbEntity
  8
0
100
AcDbLine
 10
0.2461177489154238
 20
0.0399999999999743
 30
0.0
 11
-0.1609467758797578
 21
0.0399999999999743
 31
0.0
  0
LINE
  5
313
330
2
100
AcDbEntity
  8
0
100
AcDbLine
 10
1.839053224120242
 20
0.0899999999999785
 30
0.0
 11
1.839053224120242
 21
0.0399999999999743
 31
0.0
  0
LINE
  5
314
330
2
100
AcDbEntity
  8
0
  6
Continuous
100
AcDbLine
 10
1.839053224120242
 20
0.0899999999999785
 30
0.0
 11
1.753699548159702
 21
0.0899999999999803
 31
0.0
  0
ARC
  5
315
330
2
100
AcDbEntity
  8
0
100
AcDbCircle
 10
1.839053224120377
 20
0.0849999999999334
 30
0.0
 40
0.0855
100
AcDbArc
 50
90.0
 51
211.7568638592875
  0
LINE
  5
316
330
2
100
AcDbEntity
  8
0
  6
Continuous
100
AcDbLine
 10
-0.0755930999191747
 20
0.0899999999999714
 30
0.0
 11
-0.1609467758797649
 21
0.0899999999999732
 31
0.0
  0
ARC
  5
317
330
2
100
AcDbEntity
  8
0
100
AcDbCircle
 10
-0.1609467758798502
 20
0.0849999999999334
 30
0.0
 40
0.0855
100
AcDbArc
 50
328.2431361407129
 51
90.0
  0
POINT
  5
318
330
2
100
AcDbEntity
  8
0
  6
ByBlock
100
AcDbPoint
 10
-0.1609467758797649
 20
0.0899999999999732
 30
0.0
 50
180.0
  0
POINT
  5
319
330
2
100
AcDbEntity
  8
0
  6
ByBlock
100
AcDbPoint
 10
-0.1609467758797649
 20
0.0899999999999732
 30
0.0
 50
180.0
  0
POINT
  5
31A
330
2
100
AcDbEntity
  8
0
  6
ByBlock
100
AcDbPoint
 10
-0.1609467758797649
 20
0.0899999999999732
 30
0.0
 50
180.0
  0
POINT
  5
31B
330
2
100
AcDbEntity
  8
0
  6
ByBlock
100
AcDbPoint
 10
-0.1609467758797649
 20
0.0899999999999732
 30
0.0
 50
180.0
  0
LINE
  5
31C
330
2
100
AcDbEntity
  8
0
100
AcDbLine
 10
-0.1609467758797649
 20
0.0899999999999732
 30
0.0
 11
-0.1609467758797578
 21
0.0399999999999743
 31
0.0
  0
LINE
  5
31D
330
2
100
AcDbEntity
  8
0
  6
HIDDEN
100
AcDbLine
 10
-0.0755930999191747
 20
0.0899999999999714
 30
0.0
 11
1.753699548159702
 21
0.0899999999999803
 31
0.0
  0
ARC
  5
31E
330
2
100
AcDbEntity
  8
0
100
AcDbCircle
 10
0.3390532241202635
 20
0.0523312589969542
 30
0.0
 40
0.09375
100
AcDbArc
 50
180.0
 51
0.0
  0
ARC
  5
31F
330
2
100
AcDbEntity
  8
0
100
AcDbCircle
 10
1.338238699325082
 20
0.0523312589969542
 30
0.0
 40
0.09375
100
AcDbArc
 50
180.0
 51
0.0
  0
ENDSEC
  0
SECTION
  2
OBJECTS
  0
DICTIONARY
  5
9
330
0
100
AcDbDictionary
281
     1
  3
ACAD_COLOR
350
2F5
  3
ACAD_GROUP
350
23
  3
ACAD_LAYOUT
350
D
  3
ACAD_MATERIAL
350
2F4
  3
ACAD_MLINESTYLE
350
24
  3
ACAD_PLOTSETTINGS
350
25
  3
ACAD_PLOTSTYLENAME
350
8
  3
ACAD_TABLESTYLE
350
2F6
  3
ACDBHEADERROUNDTRIPXREC
350
354
  3
AcDbVariableDictionary
350
16D
  0
DICTIONARY
  5
2F5
102
{ACAD_REACTORS
330
9
102
}
330
9
100
AcDbDictionary
281
     1
  0
DICTIONARY
  5
23
102
{ACAD_REACTORS
330
9
102
}
330
9
100
AcDbDictionary
281
     1
  0
DICTIONARY
  5
D
102
{ACAD_REACTORS
330
9
102
}
330
9
100
AcDbDictionary
281
     1
  3
Layout1
350
13
  3
Model
350
C
  0
DICTIONARY
  5
2F4
102
{ACAD_REACTORS
330
9
102
}
330
9
100
AcDbDictionary
281
     1
  0
DICTIONARY
  5
24
102
{ACAD_REACTORS
330
9
102
}
330
9
100
AcDbDictionary
281
     1
  3
STANDARD
350
27
  0
DICTIONARY
  5
25
102
{ACAD_REACTORS
330
9
102
}
330
9
100
AcDbDictionary
281
     1
  0
ACDBDICTIONARYWDFLT
  5
8
102
{ACAD_REACTORS
330
9
102
}
330
9
100
AcDbDictionary
281
     1
  3
Normal
350
7
100
AcDbDictionaryWithDefault
340
7
  0
DICTIONARY
  5
2F6
102
{ACAD_REACTORS
330
9
102
}
330
9
100
AcDbDictionary
281
     1
  3
Standard
350
2F7
  0
DICTIONARY
  5
354
102
{ACAD_REACTORS
330
9
102
}
330
9
100
AcDbDictionary
281
     1
  3
COLORDICT
350
355
  3
MATERIALDICT
350
356
  0
DICTIONARY
  5
16D
102
{ACAD_REACTORS
330
9
102
}
330
9
100
AcDbDictionary
281
     1
  3
CTABLESTYLE
350
342
  3
HIDETEXT
350
353
  0
LAYOUT
  5
13
102
{ACAD_REACTORS
330
D
102
}
102
{ACAD_XDICTIONARY
360
357
102
}
330
D
100
AcDbPlotSettings
  1

  2
HP LaserJet 2100 Series PS
  4

  6

 40
0.0
 41
0.0
 42
0.0
 43
0.0
 44
0.0
 45
0.0
 46
0.0
 47
0.0
 48
0.0
 49
0.0
140
0.0
141
0.0
142
1.0
143
1.0
 70
   688
 72
     0
 73
     0
 74
     5
  7

 75
    16
147
1.0
148
0.0
149
0.0
100
AcDbLayout
  1
Layout1
 70
     0
 71
     1
 10
0.0
 20
0.0
 11
12.0
 21
9.0
 12
0.0
 22
0.0
 32
0.0
 14
1.000000000000000E+20
 24
1.000000000000000E+20
 34
1.000000000000000E+20
 15
-1.000000000000000E+20
 25
-1.000000000000000E+20
 35
-1.000000000000000E+20
146
0.0
 13
0.0
 23
0.0
 33
0.0
 16
1.0
 26
0.0
 36
0.0
 17
0.0
 27
1.0
 37
0.0
 76
     0
330
E
  0
LAYOUT
  5
C
102
{ACAD_REACTORS
330
D
102
}
102
{ACAD_XDICTIONARY
360
359
102
}
330
D
100
AcDbPlotSettings
  1

  2
HP LaserJet 2100 Series PS
  4
Letter
  6

 40
5.365749835968018
 41
5.386905193328857
 42
5.386917114257813
 43
5.365753173828125
 44
215.8999938964844
 45
279.3999938964844
 46
0.0
 47
0.0
 48
0.0
 49
0.0
140
0.0
141
0.0
142
1.0
143
1.0
 70
 11952
 72
     0
 73
     1
 74
     0
  7

 75
     0
147
1.0
148
-51.34525308194984
149
5.032826400000006
100
AcDbLayout
  1
Model
 70
     1
 71
     0
 10
0.0
 20
0.0
 11
12.0
 21
9.0
 12
0.0
 22
0.0
 32
0.0
 14
0.0
 24
0.0
 34
0.0
 15
0.0
 25
0.0
 35
0.0
146
0.0
 13
0.0
 23
0.0
 33
0.0
 16
1.0
 26
0.0
 36
0.0
 17
0.0
 27
1.0
 37
0.0
 76
     0
330
2
  0
MLINESTYLE
  5
27
102
{ACAD_REACTORS
330
24
102
}
330
24
100
AcDbMlineStyle
  2
STANDARD
 70
     0
  3

 62
   256
 51
90.0
 52
90.0
 71
     2
 49
0.5
 62
   256
  6
BYLAYER
 49
-0.5
 62
   256
  6
BYLAYER
  0
ACDBPLACEHOLDER
  5
7
102
{ACAD_REACTORS
330
8
102
}
330
8
  0
ACAD_PROXY_OBJECT
  5
2F7
102
{ACAD_REACTORS
330
2F6
102
}
330
2F6
100
AcDbProxyObject
 90
      499
 91
      562
 95
   983063
 70
     0
 93
     1841
310
4214DD185B99185C9928B81E85EB51B8AE3F2E07A17AD46E2B8FC02B5E8DC0F42B1CFD028000000C1008070000C3001FDFF8000000C1003FBFF000000182007F7FE00000030400FEFFC00000060801FDFF8000000C1003FBFF00000018200000000000000681FA0B0000001820100E000186003FBFF000000182007F7FE000
310
00030400FEFFC00000060801FDFF8000000C1003FBFF000000182007F7FE000000304000AD7A3703D0AC73F4160000003040201C00030C007F7FE00000030400FEFFC00000060801FDFF8000000C1003FBFF000000182007F7FE00000030400FEFFC000000608000
340
16
340
16
340
16
 94
        0
  0
XRECORD
  5
355
102
{ACAD_REACTORS
330
354
102
}
330
354
100
AcDbXrecord
340
2F5
  0
XRECORD
  5
356
102
{ACAD_REACTORS
330
354
102
}
330
354
100
AcDbXrecord
340
2F4
  0
DICTIONARYVAR
  5
342
102
{ACAD_REACTORS
330
16D
102
}
330
16D
100
DictionaryVariables
280
     0
  1
STANDARD
  0
DICTIONARYVAR
  5
353
102
{ACAD_REACTORS
330
16D
102
}
330
16D
100
DictionaryVariables
280
     0
  1
1
  0
DICTIONARY
  5
357
330
13
100
AcDbDictionary
280
     1
281
     1
  3
ACAD_XREC_ROUNDTRIP
360
358
  0
DICTIONARY
  5
359
330
C
100
AcDbDictionary
280
     1
281
     1
  3
ACAD_XREC_ROUNDTRIP
360
35A
  0
XRECORD
  5
358
102
{ACAD_REACTORS
330
357
102
}
330
357
100
AcDbXrecord
102
SHADEPLOT
 70
     0
102
SHADEPLOTRESLEVEL
 70
     2
102
SHADEPLOTCUSTOMDPI
 70
   300
  0
XRECORD
  5
35A
102
{ACAD_REACTORS
330
359
102
}
330
359
100
AcDbXrecord
102
SHADEPLOT
 70
     0
102
SHADEPLOTRESLEVEL
 70
     2
102
SHADEPLOTCUSTOMDPI
 70
   300
  0
ENDSEC
  0
EOF
