  0
SECTION
  2
HEADER
  9
$ACADVER
  1
AC1015
  9
$ACADMAINTVER
 70
     6
  9
$DWGCODEPAGE
  3
ANSI_1252
  9
$INSBASE
 10
0.0
 20
0.0
 30
0.0
  9
$EXTMIN
 10
-9.731151119944883
 20
-0.0283569486015978
 30
-0.0000000349181948
  9
$EXTMAX
 10
10.27049921623943
 20
19.60560226524279
 30
0.0000000814935746
  9
$LIMMIN
 10
0.0
 20
0.0
  9
$LIMMAX
 10
24.0
 20
31.5
  9
$ORTHOMODE
 70
     1
  9
$REGENMODE
 70
     1
  9
$FILLMODE
 70
     1
  9
$QTEXTMODE
 70
     0
  9
$MIRRTEXT
 70
     0
  9
$LTSCALE
 40
0.6
  9
$ATTMODE
 70
     1
  9
$TEXTSIZE
 40
0.27
  9
$TRACEWID
 40
0.05
  9
$TEXTSTYLE
  7
STANDARD
  9
$CLAYER
  8
0
  9
$CELTYPE
  6
HIDDEN
  9
$CECOLOR
 62
   256
  9
$CELTSCALE
 40
1.0
  9
$DISPSILH
 70
     0
  9
$DIMSCALE
 40
3.0
  9
$DIMASZ
 40
0.125
  9
$DIMEXO
 40
0.062
  9
$DIMDLI
 40
0.375
  9
$DIMRND
 40
0.0
  9
$DIMDLE
 40
0.0
  9
$DIMEXE
 40
0.08
  9
$DIMTP
 40
0.0
  9
$DIMTM
 40
0.0
  9
$DIMTXT
 40
0.09
  9
$DIMCEN
 40
-0.03125
  9
$DIMTSZ
 40
0.0
  9
$DIMTOL
 70
     0
  9
$DIMLIM
 70
     0
  9
$DIMTIH
 70
     1
  9
$DIMTOH
 70
     1
  9
$DIMSE1
 70
     0
  9
$DIMSE2
 70
     0
  9
$DIMTAD
 70
     0
  9
$DIMZIN
 70
     0
  9
$DIMBLK
  1

  9
$DIMASO
 70
     1
  9
$DIMSHO
 70
     0
  9
$DIMPOST
  1

  9
$DIMAPOST
  1

  9
$DIMALT
 70
     0
  9
$DIMALTD
 70
     2
  9
$DIMALTF
 40
25.4
  9
$DIMLFAC
 40
1.0
  9
$DIMTOFL
 70
     0
  9
$DIMTVP
 40
0.0
  9
$DIMTIX
 70
     0
  9
$DIMSOXD
 70
     0
  9
$DIMSAH
 70
     0
  9
$DIMBLK1
  1

  9
$DIMBLK2
  1

  9
$DIMSTYLE
  2
STANDARD
  9
$DIMCLRD
 70
     0
  9
$DIMCLRE
 70
     0
  9
$DIMCLRT
 70
     0
  9
$DIMTFAC
 40
1.0
  9
$DIMGAP
 40
0.09
  9
$DIMJUST
 70
     0
  9
$DIMSD1
 70
     0
  9
$DIMSD2
 70
     0
  9
$DIMTOLJ
 70
     1
  9
$DIMTZIN
 70
     0
  9
$DIMALTZ
 70
     0
  9
$DIMALTTZ
 70
     0
  9
$DIMUPT
 70
     0
  9
$DIMDEC
 70
     5
  9
$DIMTDEC
 70
     4
  9
$DIMALTU
 70
     2
  9
$DIMALTTD
 70
     2
  9
$DIMTXSTY
  7
STANDARD
  9
$DIMAUNIT
 70
     0
  9
$DIMADEC
 70
     0
  9
$DIMALTRND
 40
0.0
  9
$DIMAZIN
 70
     0
  9
$DIMDSEP
 70
    46
  9
$DIMATFIT
 70
     3
  9
$DIMFRAC
 70
     2
  9
$DIMLDRBLK
  1

  9
$DIMLUNIT
 70
     5
  9
$DIMLWD
 70
    -2
  9
$DIMLWE
 70
    -2
  9
$DIMTMOVE
 70
     2
  9
$LUNITS
 70
     2
  9
$LUPREC
 70
     4
  9
$SKETCHINC
 40
0.1
  9
$FILLETRAD
 40
0.0
  9
$AUNITS
 70
     0
  9
$AUPREC
 70
     0
  9
$MENU
  1
ACAD
  9
$ELEVATION
 40
0.0
  9
$PELEVATION
 40
0.0
  9
$THICKNESS
 40
0.0
  9
$LIMCHECK
 70
     0
  9
$CHAMFERA
 40
0.0
  9
$CHAMFERB
 40
0.0
  9
$CHAMFERC
 40
0.0
  9
$CHAMFERD
 40
0.0
  9
$SKPOLY
 70
     0
  9
$TDCREATE
 40
2449436.829454167
  9
$TDUCREATE
 40
2449437.1627875
  9
$TDUPDATE
 40
2454166.82742184
  9
$TDUUPDATE
 40
2454167.160755174
  9
$TDINDWG
 40
0.6394497569
  9
$TDUSRTIMER
 40
0.6394497569
  9
$USRTIMER
 70
     1
  9
$ANGBASE
 50
0.0
  9
$ANGDIR
 70
     0
  9
$PDMODE
 70
     0
  9
$PDSIZE
 40
0.0
  9
$PLINEWID
 40
0.0
  9
$SPLFRAME
 70
     0
  9
$SPLINETYPE
 70
     6
  9
$SPLINESEGS
 70
     8
  9
$HANDSEED
  5
3B2
  9
$SURFTAB1
 70
     6
  9
$SURFTAB2
 70
     6
  9
$SURFTYPE
 70
     6
  9
$SURFU
 70
     6
  9
$SURFV
 70
     6
  9
$UCSBASE
  2

  9
$UCSNAME
  2

  9
$UCSORG
 10
0.0
 20
0.0
 30
0.0
  9
$UCSXDIR
 10
1.0
 20
0.0
 30
0.0
  9
$UCSYDIR
 10
0.0
 20
1.0
 30
0.0
  9
$UCSORTHOREF
  2

  9
$UCSORTHOVIEW
 70
     0
  9
$UCSORGTOP
 10
0.0
 20
0.0
 30
0.0
  9
$UCSORGBOTTOM
 10
0.0
 20
0.0
 30
0.0
  9
$UCSORGLEFT
 10
0.0
 20
0.0
 30
0.0
  9
$UCSORGRIGHT
 10
0.0
 20
0.0
 30
0.0
  9
$UCSORGFRONT
 10
0.0
 20
0.0
 30
0.0
  9
$UCSORGBACK
 10
0.0
 20
0.0
 30
0.0
  9
$PUCSBASE
  2

  9
$PUCSNAME
  2

  9
$PUCSORG
 10
0.0
 20
0.0
 30
0.0
  9
$PUCSXDIR
 10
1.0
 20
0.0
 30
0.0
  9
$PUCSYDIR
 10
0.0
 20
1.0
 30
0.0
  9
$PUCSORTHOREF
  2

  9
$PUCSORTHOVIEW
 70
     0
  9
$PUCSORGTOP
 10
0.0
 20
0.0
 30
0.0
  9
$PUCSORGBOTTOM
 10
0.0
 20
0.0
 30
0.0
  9
$PUCSORGLEFT
 10
0.0
 20
0.0
 30
0.0
  9
$PUCSORGRIGHT
 10
0.0
 20
0.0
 30
0.0
  9
$PUCSORGFRONT
 10
0.0
 20
0.0
 30
0.0
  9
$PUCSORGBACK
 10
0.0
 20
0.0
 30
0.0
  9
$USERI1
 70
     0
  9
$USERI2
 70
     0
  9
$USERI3
 70
     0
  9
$USERI4
 70
     0
  9
$USERI5
 70
     0
  9
$USERR1
 40
0.0
  9
$USERR2
 40
0.0
  9
$USERR3
 40
0.0
  9
$USERR4
 40
0.0
  9
$USERR5
 40
0.0
  9
$WORLDVIEW
 70
     1
  9
$SHADEDGE
 70
     3
  9
$SHADEDIF
 70
    70
  9
$TILEMODE
 70
     1
  9
$MAXACTVP
 70
    16
  9
$PINSBASE
 10
0.0
 20
0.0
 30
0.0
  9
$PLIMCHECK
 70
     0
  9
$PEXTMIN
 10
1.000000000000000E+20
 20
1.000000000000000E+20
 30
1.000000000000000E+20
  9
$PEXTMAX
 10
-1.000000000000000E+20
 20
-1.000000000000000E+20
 30
-1.000000000000000E+20
  9
$PLIMMIN
 10
0.0
 20
0.0
  9
$PLIMMAX
 10
12.0
 20
9.0
  9
$UNITMODE
 70
     0
  9
$VISRETAIN
 70
     0
  9
$PLINEGEN
 70
     0
  9
$PSLTSCALE
 70
     0
  9
$TREEDEPTH
 70
  3020
  9
$CMLSTYLE
  2
STANDARD
  9
$CMLJUST
 70
     0
  9
$CMLSCALE
 40
1.0
  9
$PROXYGRAPHICS
 70
     1
  9
$MEASUREMENT
 70
     0
  9
$CELWEIGHT
370
    -1
  9
$ENDCAPS
280
     0
  9
$JOINSTYLE
280
     0
  9
$LWDISPLAY
290
     0
  9
$INSUNITS
 70
     0
  9
$HYPERLINKBASE
  1

  9
$STYLESHEET
  1

  9
$XEDIT
290
     1
  9
$CEPSNTYPE
380
     0
  9
$PSTYLEMODE
290
     1
  9
$FINGERPRINTGUID
  2
{7E1BADD1-439C-11D5-BE3F-00508B5FCD51}
  9
$VERSIONGUID
  2
{4E11DB4C-E366-4BE3-8366-6DFA37A803BD}
  9
$EXTNAMES
290
     1
  9
$PSVPSCALE
 40
0.0
  9
$OLESTARTUP
290
     0
  0
ENDSEC
  0
SECTION
  2
CLASSES
  0
CLASS
  1
DICTIONARYVAR
  2
AcDbDictionaryVar
  3
AutoCAD 2000
 90
        0
280
     0
281
     0
  0
CLASS
  1
LWPOLYLINE
  2
AcDbPolyline
  3
AutoCAD 2000
 90
        0
280
     0
281
     1
  0
CLASS
  1
ACDBDICTIONARYWDFLT
  2
AcDbDictionaryWithDefault
  3
AutoCAD 2000
 90
        0
280
     0
281
     0
  0
CLASS
  1
ACDBPLACEHOLDER
  2
AcDbPlaceHolder
  3
ObjectDBX Classes
 90
        0
280
     0
281
     0
  0
CLASS
  1
LAYOUT
  2
AcDbLayout
  3
ObjectDBX Classes
 90
        0
280
     0
281
     0
  0
CLASS
  1
LONG_TRANSACTION
  2
AcDbLongTransaction
  3
ObjectDBX Classes
 90
   -65536
280
     1
281
     0
  0
CLASS
  1
LWPOLYLINE
  2
AcDbPolyline
  3
AutoCAD 2000
 90
        0
280
     0
281
     1
  0
CLASS
  1
HATCH
  2
AcDbHatch
  3
AutoCAD 2000
 90
        0
280
     0
281
     1
  0
CLASS
  1
XRECORD
  2
AcDbXrecord
  3
AutoCAD 2000
 90
        0
280
     0
281
     0
  0
CLASS
  1
LONG_TRANSACTION
  2
AcDbLongTransaction
  3
ObjectDBX Classes
 90
   -65536
280
     1
281
     0
  0
CLASS
  1
LWPOLYLINE
  2
AcDbPolyline
  3
AutoCAD 2000
 90
        0
280
     0
281
     1
  0
CLASS
  1
HATCH
  2
AcDbHatch
  3
AutoCAD 2000
 90
        0
280
     0
281
     1
  0
CLASS
  1
XRECORD
  2
AcDbXrecord
  3
AutoCAD 2000
 90
        0
280
     0
281
     0
  0
CLASS
  1
LONG_TRANSACTION
  2
AcDbLongTransaction
  3
ObjectDBX Classes
 90
   -65536
280
     1
281
     0
  0
CLASS
  1
LWPOLYLINE
  2
AcDbPolyline
  3
AutoCAD 2000
 90
        0
280
     0
281
     1
  0
CLASS
  1
HATCH
  2
AcDbHatch
  3
AutoCAD 2000
 90
        0
280
     0
281
     1
  0
CLASS
  1
XRECORD
  2
AcDbXrecord
  3
AutoCAD 2000
 90
        0
280
     0
281
     0
  0
CLASS
  1
LONG_TRANSACTION
  2
AcDbLongTransaction
  3
ObjectDBX Classes
 90
   -65536
280
     1
281
     0
  0
CLASS
  1
LWPOLYLINE
  2
AcDbPolyline
  3
AutoCAD 2000
 90
        0
280
     0
281
     1
  0
CLASS
  1
HATCH
  2
AcDbHatch
  3
AutoCAD 2000
 90
        0
280
     0
281
     1
  0
CLASS
  1
XRECORD
  2
AcDbXrecord
  3
AutoCAD 2000
 90
        0
280
     0
281
     0
  0
CLASS
  1
LONG_TRANSACTION
  2
AcDbLongTransaction
  3
ObjectDBX Classes
 90
   -65536
280
     1
281
     0
  0
CLASS
  1
LWPOLYLINE
  2
AcDbPolyline
  3
AutoCAD 2000
 90
        0
280
     0
281
     1
  0
CLASS
  1
HATCH
  2
AcDbHatch
  3
AutoCAD 2000
 90
        0
280
     0
281
     1
  0
CLASS
  1
XRECORD
  2
AcDbXrecord
  3
AutoCAD 2000
 90
        0
280
     0
281
     0
  0
CLASS
  1
LONG_TRANSACTION
  2
AcDbLongTransaction
  3
ObjectDBX Classes
 90
   -65536
280
     1
281
     0
  0
CLASS
  1
LWPOLYLINE
  2
AcDbPolyline
  3
AutoCAD 2000
 90
        0
280
     0
281
     1
  0
CLASS
  1
HATCH
  2
AcDbHatch
  3
AutoCAD 2000
 90
        0
280
     0
281
     1
  0
CLASS
  1
XRECORD
  2
AcDbXrecord
  3
AutoCAD 2000
 90
        0
280
     0
281
     0
  0
CLASS
  1
LONG_TRANSACTION
  2
AcDbLongTransaction
  3
ObjectDBX Classes
 90
   -65536
280
     1
281
     0
  0
CLASS
  1
LWPOLYLINE
  2
AcDbPolyline
  3
AutoCAD 2000
 90
        0
280
     0
281
     1
  0
CLASS
  1
HATCH
  2
AcDbHatch
  3
AutoCAD 2000
 90
        0
280
     0
281
     1
  0
CLASS
  1
XRECORD
  2
AcDbXrecord
  3
AutoCAD 2000
 90
        0
280
     0
281
     0
  0
CLASS
  1
LONG_TRANSACTION
  2
AcDbLongTransaction
  3
ObjectDBX Classes
 90
   -65536
280
     1
281
     0
  0
CLASS
  1
LWPOLYLINE
  2
AcDbPolyline
  3
AutoCAD 2000
 90
        0
280
     0
281
     1
  0
CLASS
  1
HATCH
  2
AcDbHatch
  3
AutoCAD 2000
 90
        0
280
     0
281
     1
  0
CLASS
  1
XRECORD
  2
AcDbXrecord
  3
AutoCAD 2000
 90
        0
280
     0
281
     0
  0
CLASS
  1
LONG_TRANSACTION
  2
AcDbLongTransaction
  3
ObjectDBX Classes
 90
   -65536
280
     1
281
     0
  0
CLASS
  1
LWPOLYLINE
  2
AcDbPolyline
  3
AutoCAD 2000
 90
        0
280
     0
281
     1
  0
CLASS
  1
HATCH
  2
AcDbHatch
  3
AutoCAD 2000
 90
        0
280
     0
281
     1
  0
CLASS
  1
XRECORD
  2
AcDbXrecord
  3
AutoCAD 2000
 90
        0
280
     0
281
     0
  0
CLASS
  1
LONG_TRANSACTION
  2
AcDbLongTransaction
  3
ObjectDBX Classes
 90
   -65536
280
     1
281
     0
  0
CLASS
  1
LWPOLYLINE
  2
AcDbPolyline
  3
AutoCAD 2000
 90
        0
280
     0
281
     1
  0
CLASS
  1
HATCH
  2
AcDbHatch
  3
AutoCAD 2000
 90
        0
280
     0
281
     1
  0
CLASS
  1
XRECORD
  2
AcDbXrecord
  3
AutoCAD 2000
 90
        0
280
     0
281
     0
  0
CLASS
  1
LONG_TRANSACTION
  2
AcDbLongTransaction
  3
ObjectDBX Classes
 90
   -65536
280
     1
281
     0
  0
CLASS
  1
LWPOLYLINE
  2
AcDbPolyline
  3
AutoCAD 2000
 90
        0
280
     0
281
     1
  0
CLASS
  1
HATCH
  2
AcDbHatch
  3
AutoCAD 2000
 90
        0
280
     0
281
     1
  0
CLASS
  1
XRECORD
  2
AcDbXrecord
  3
AutoCAD 2000
 90
        0
280
     0
281
     0
  0
CLASS
  1
LONG_TRANSACTION
  2
AcDbLongTransaction
  3
ObjectDBX Classes
 90
   -65536
280
     1
281
     0
  0
CLASS
  1
LWPOLYLINE
  2
AcDbPolyline
  3
AutoCAD 2000
 90
        0
280
     0
281
     1
  0
CLASS
  1
HATCH
  2
AcDbHatch
  3
AutoCAD 2000
 90
        0
280
     0
281
     1
  0
CLASS
  1
XRECORD
  2
AcDbXrecord
  3
AutoCAD 2000
 90
        0
280
     0
281
     0
  0
CLASS
  1
LONG_TRANSACTION
  2
AcDbLongTransaction
  3
ObjectDBX Classes
 90
   -65536
280
     1
281
     0
  0
CLASS
  1
LWPOLYLINE
  2
AcDbPolyline
  3
AutoCAD 2000
 90
        0
280
     0
281
     1
  0
CLASS
  1
HATCH
  2
AcDbHatch
  3
AutoCAD 2000
 90
        0
280
     0
281
     1
  0
CLASS
  1
XRECORD
  2
AcDbXrecord
  3
AutoCAD 2000
 90
        0
280
     0
281
     0
  0
CLASS
  1
LONG_TRANSACTION
  2
AcDbLongTransaction
  3
ObjectDBX Classes
 90
   -65536
280
     1
281
     0
  0
CLASS
  1
LWPOLYLINE
  2
AcDbPolyline
  3
AutoCAD 2000
 90
        0
280
     0
281
     1
  0
CLASS
  1
HATCH
  2
AcDbHatch
  3
AutoCAD 2000
 90
        0
280
     0
281
     1
  0
CLASS
  1
XRECORD
  2
AcDbXrecord
  3
AutoCAD 2000
 90
        0
280
     0
281
     0
  0
CLASS
  1
TABLESTYLE
  2
AcDbTableStyle
  3
ObjectDBX Classes
 90
     2047
280
     1
281
     0
  0
CLASS
  1
SORTENTSTABLE
  2
AcDbSortentsTable
  3
AutoCAD 2000
 90
        0
280
     0
281
     0
  0
ENDSEC
  0
SECTION
  2
TABLES
  0
TABLE
  2
VPORT
  5
1D
330
0
100
AcDbSymbolTable
 70
     4
  0
VPORT
  5
3A2
330
1D
100
AcDbSymbolTableRecord
100
AcDbViewportTableRecord
  2
*Active
 70
     0
 10
0.0
 20
0.0
 11
1.0
 21
1.0
 12
7.134424440027557
 22
15.7358215256992
 13
0.0
 23
0.0
 14
0.063
 24
0.063
 15
0.25
 25
0.25
 16
0.0
 26
0.0
 36
1.0
 17
0.0
 27
0.0
 37
0.0
 40
31.92164206646357
 41
1.814583333333333
 42
50.0
 43
0.0
 44
0.0
 50
0.0
 51
0.0
 71
     0
 72
   100
 73
     1
 74
     0
 75
     0
 76
     0
 77
     0
 78
     1
281
     0
 65
     1
110
0.0
120
0.0
130
0.0
111
1.0
121
0.0
131
0.0
112
0.0
122
1.0
132
0.0
 79
     0
146
0.0
  0
ENDTAB
  0
TABLE
  2
LTYPE
  5
18
330
0
100
AcDbSymbolTable
 70
     3
  0
LTYPE
  5
19
330
18
100
AcDbSymbolTableRecord
100
AcDbLinetypeTableRecord
  2
BYBLOCK
 70
     0
  3

 72
    65
 73
     0
 40
0.0
  0
LTYPE
  5
1A
330
18
100
AcDbSymbolTableRecord
100
AcDbLinetypeTableRecord
  2
BYLAYER
 70
     0
  3

 72
    65
 73
     0
 40
0.0
  0
LTYPE
  5
A
330
18
100
AcDbSymbolTableRecord
100
AcDbLinetypeTableRecord
  2
CONTINUOUS
 70
     0
  3
Solid line
 72
    65
 73
     0
 40
0.0
  0
LTYPE
  5
3B
330
18
100
AcDbSymbolTableRecord
100
AcDbLinetypeTableRecord
  2
HIDDEN2
 70
     0
  3
Hidden (.5x) _ _ _ _ _ _ _ _ _ _ _ _ _ _ _ _ _
 72
    65
 73
     2
 40
0.1875
 49
0.125
 74
     0
 49
-0.0625
 74
     0
  0
LTYPE
  5
365
330
18
100
AcDbSymbolTableRecord
100
AcDbLinetypeTableRecord
  2
HIDDEN
 70
     0
  3
Hidden __ __ __ __ __ __ __ __ __ __ __ __ __ _
 72
    65
 73
     2
 40
0.375
 49
0.25
 74
     0
 49
-0.125
 74
     0
  0
ENDTAB
  0
TABLE
  2
LAYER
  5
14
330
0
100
AcDbSymbolTable
 70
     2
  0
LAYER
  5
6
330
14
100
AcDbSymbolTableRecord
100
AcDbLayerTableRecord
  2
0
 70
     0
 62
     7
  6
CONTINUOUS
370
    -3
390
7
  0
ENDTAB
  0
TABLE
  2
STYLE
  5
15
330
0
100
AcDbSymbolTable
 70
     2
  0
STYLE
  5
16
330
15
100
AcDbSymbolTableRecord
100
AcDbTextStyleTableRecord
  2
STANDARD
 70
     0
 40
0.0
 41
1.0
 50
0.0
 71
     0
 42
0.27
  3
TXT
  4

  0
ENDTAB
  0
TABLE
  2
VIEW
  5
1B
330
0
100
AcDbSymbolTable
 70
     0
  0
ENDTAB
  0
TABLE
  2
UCS
  5
1C
330
0
100
AcDbSymbolTable
 70
     0
  0
ENDTAB
  0
TABLE
  2
APPID
  5
1F
330
0
100
AcDbSymbolTable
 70
     2
  0
APPID
  5
20
330
1F
100
AcDbSymbolTableRecord
100
AcDbRegAppTableRecord
  2
ACAD
 70
     0
  0
APPID
  5
38
330
1F
100
AcDbSymbolTableRecord
100
AcDbRegAppTableRecord
  2
_DIE112SSJYHX
 70
     0
  0
ENDTAB
  0
TABLE
  2
DIMSTYLE
  5
21
330
0
100
AcDbSymbolTable
 70
     1
100
AcDbDimStyleTable
  0
DIMSTYLE
105
22
330
21
100
AcDbSymbolTableRecord
100
AcDbDimStyleTableRecord
  2
STANDARD
 70
     0
  3

  4

340
16
  0
ENDTAB
  0
TABLE
  2
BLOCK_RECORD
  5
1
330
0
100
AcDbSymbolTable
 70
     0
  0
BLOCK_RECORD
  5
2
102
{ACAD_XDICTIONARY
360
3
102
}
330
1
100
AcDbSymbolTableRecord
100
AcDbBlockTableRecord
  2
*MODEL_SPACE
340
C
  0
BLOCK_RECORD
  5
E
330
1
100
AcDbSymbolTableRecord
100
AcDbBlockTableRecord
  2
*PAPER_SPACE
340
13
  0
ENDTAB
  0
ENDSEC
  0
SECTION
  2
BLOCKS
  0
BLOCK
  5
5
330
2
100
AcDbEntity
  8
0
100
AcDbBlockBegin
  2
*MODEL_SPACE
 70
     0
 10
0.0
 20
0.0
 30
0.0
  3
*MODEL_SPACE
  1

  4

  0
ENDBLK
  5
B
330
2
100
AcDbEntity
  8
0
100
AcDbBlockEnd
  0
BLOCK
  5
11
330
E
100
AcDbEntity
 67
     1
  8
0
100
AcDbBlockBegin
  2
*PAPER_SPACE
 70
     0
 10
0.0
 20
0.0
 30
0.0
  3
*PAPER_SPACE
  1

  4

  0
ENDBLK
  5
12
330
E
100
AcDbEntity
 67
     1
  8
0
100
AcDbBlockEnd
  0
ENDSEC
  0
SECTION
  2
ENTITIES
  0
LINE
  5
181
330
2
100
AcDbEntity
  8
0
100
AcDbLine
 10
2.237500000000019
 20
11.34099999999998
 30
0.0
 11
2.237500000000157
 21
5.173142315092321
 31
0.0
  0
LINE
  5
182
330
2
100
AcDbEntity
  8
0
100
AcDbLine
 10
1.112500000000004
 20
11.09099999999997
 30
0.0
 11
1.107500000000012
 21
0.1349999999999909
 31
0.0
  0
LINE
  5
183
330
2
100
AcDbEntity
  8
0
100
AcDbLine
 10
1.062500000000007
 20
11.10466374223516
 30
0.0
 11
1.062500000000012
 21
0.1349999999999909
 31
0.0
  0
LINE
  5
184
330
2
100
AcDbEntity
  8
0
100
AcDbLine
 10
-2.237500000000019
 20
11.34099999999998
 30
0.0
 11
-2.237500000000019
 21
5.248786682236712
 31
0.0
  0
LINE
  5
185
330
2
100
AcDbEntity
  8
0
100
AcDbLine
 10
-1.107500000000012
 20
0.1349999999999909
 30
0.0
 11
-1.112499999999997
 21
11.09099999999998
 31
0.0
  0
LINE
  5
186
330
2
100
AcDbEntity
  8
0
100
AcDbLine
 10
-1.062500000000012
 20
0.1349999999999909
 30
0.0
 11
-1.0625
 21
11.10466374223516
 31
0.0
  0
LINE
  5
187
330
2
100
AcDbEntity
  8
0
100
AcDbLine
 10
-1.107499999999966
 20
2.095896261652163
 30
0.0
 11
-1.676199924399612
 21
2.908083925117913
 31
0.0
  0
LINE
  5
188
330
2
100
AcDbEntity
  8
0
100
AcDbLine
 10
-1.86250000000021
 20
3.458235042593001
 30
0.0
 11
-1.862500000000157
 21
4.383928752719099
 31
0.0
  0
ARC
  5
189
330
2
100
AcDbEntity
  8
0
100
AcDbCircle
 10
-0.8600000000000065
 20
3.49023504259331
 30
0.0
 40
1.002500000000003
100
AcDbArc
 50
180.0
 51
214.9999999999976
1001
_DIE112SSJYHX
1002
{
1000
comp_type
1000
DBL24
1000
material
1000
D-2
1000
thickness
1040
1.25
1000
mount
1000
SBP10
1000
mntlay
1000
DIE_SUB_PLATE
1002
}
  0
ARC
  5
18A
330
2
100
AcDbEntity
  8
0
100
AcDbCircle
 10
-2.360000000000156
 20
4.383928752719099
 30
0.0
 40
0.4975
100
AcDbArc
 50
0.0
 51
44.99999999998114
1001
_DIE112SSJYHX
1002
{
1000
comp_type
1000
DBL24
1000
material
1000
D-2
1000
thickness
1040
1.25
1000
mount
1000
SBP10
1000
mntlay
1000
DIE_SUB_PLATE
1002
}
  0
ARC
  5
18B
330
2
100
AcDbEntity
  8
0
100
AcDbCircle
 10
-1.735000000000156
 20
5.173142315092319
 30
0.0
 40
0.5025000000000001
100
AcDbArc
 50
180.0
 51
224.999999999981
1001
_DIE112SSJYHX
1002
{
1000
comp_type
1000
DBL24
1000
material
1000
D-2
1000
thickness
1040
1.25
1000
mount
1000
SBP10
1000
mntlay
1000
DIE_SUB_PLATE
1002
}
  0
CIRCLE
  5
18C
330
2
100
AcDbEntity
  8
0
  6
Continuous
100
AcDbCircle
 10
-1.987500000000019
 20
5.089999999999973
 30
0.0
 40
0.0855
  0
LINE
  5
18D
330
2
100
AcDbEntity
  8
0
100
AcDbLine
 10
-1.989965093079992
 20
4.716465093079949
 30
0.0
 11
-2.113732546540007
 21
4.84023254653996
 31
0.0
  0
LINE
  5
18E
330
2
100
AcDbEntity
  8
0
100
AcDbLine
 10
0.8338716692541635
 20
1.600360522024729
 30
0.0
 11
1.029469837705106
 21
2.560306871569878
 31
0.0
  0
LINE
  5
18F
330
2
100
AcDbEntity
  8
0
100
AcDbLine
 10
1.152499999999947
 20
2.280544494717217
 30
0.0
 11
1.152499999999947
 21
0.1349999999999909
 31
0.0
  0
LINE
  5
190
330
2
100
AcDbEntity
  8
0
100
AcDbLine
 10
-0.8338716692542203
 20
1.600360522024729
 30
0.0
 11
-1.029469837705163
 21
2.560306871569878
 31
0.0
  0
LINE
  5
191
330
2
100
AcDbEntity
  8
0
100
AcDbLine
 10
-1.152500000000003
 20
0.1349999999999909
 30
0.0
 11
-1.152500000000003
 21
2.280544494717217
 31
0.0
  0
LINE
  5
192
330
2
100
AcDbEntity
  8
0
100
AcDbLine
 10
1.017500000000013
 20
0.0
 30
0.0
 11
-1.017500000000013
 21
0.0
 31
0.0
  0
LINE
  5
193
330
2
100
AcDbEntity
  8
0
100
AcDbLine
 10
1.017500000000013
 20
0.0450000000000159
 30
0.0
 11
-1.017500000000013
 21
0.0450000000000159
 31
0.0
  0
LINE
  5
194
330
2
100
AcDbEntity
  8
0
100
AcDbLine
 10
1.017500000000013
 20
0.089999999999975
 30
0.0
 11
-1.017500000000013
 21
0.089999999999975
 31
0.0
  0
LINE
  5
195
330
2
100
AcDbEntity
  8
0
100
AcDbLine
 10
1.012500000000003
 20
0.089999999999975
 30
0.0
 11
-1.012500000000003
 21
0.089999999999975
 31
0.0
  0
ARC
  5
196
330
2
100
AcDbEntity
  8
0
100
AcDbCircle
 10
-1.017500000000013
 20
0.1349999999999909
 30
0.0
 40
0.135
100
AcDbArc
 50
180.0
 51
270.0
  0
ARC
  5
197
330
2
100
AcDbEntity
  8
0
100
AcDbCircle
 10
-1.017500000000013
 20
0.1349999999999909
 30
0.0
 40
0.09
100
AcDbArc
 50
180.0
 51
270.0
  0
ARC
  5
198
330
2
100
AcDbEntity
  8
0
100
AcDbCircle
 10
-1.017500000000013
 20
0.1349999999999909
 30
0.0
 40
0.045
100
AcDbArc
 50
180.0
 51
270.0
  0
LINE
  5
199
330
2
100
AcDbEntity
  8
0
100
AcDbLine
 10
-1.049319805149251
 20
1.175900194842598
 30
0.0
 11
-0.9293198051493619
 21
0.9922605845764583
 31
0.0
  0
LINE
  5
19A
330
2
100
AcDbEntity
  8
0
100
AcDbLine
 10
-1.049319805149249
 20
0.9009001948424285
 30
0.0
 11
-0.9293198051493619
 21
0.7172605845762892
 31
0.0
  0
ARC
  5
19B
330
2
100
AcDbEntity
  8
0
100
AcDbCircle
 10
-1.076342116257212
 20
0.8961027007940157
 30
0.0
 40
0.2315168730281418
100
AcDbArc
 50
273.4276901945888
 51
309.422898733768
  0
ARC
  5
19C
330
2
100
AcDbEntity
  8
0
100
AcDbCircle
 10
-1.076342116257173
 20
1.171102700793993
 30
0.0
 40
0.2315168730279693
100
AcDbArc
 50
273.4276901945818
 51
309.4228987337907
  0
LINE
  5
19D
330
2
100
AcDbEntity
  8
0
100
AcDbLine
 10
-1.062500000000226
 20
1.343316936683891
 30
0.0
 11
-0.8338716692542203
 21
1.600360522024729
 31
0.0
  0
ARC
  5
19E
330
2
100
AcDbEntity
  8
0
100
AcDbCircle
 10
-1.017499999999924
 20
0.9327200000001099
 30
0.0
 40
0.045
100
AcDbArc
 50
180.0
 51
225.0000000076272
  0
ARC
  5
19F
330
2
100
AcDbEntity
  8
0
100
AcDbCircle
 10
-1.017499999999926
 20
1.207720000000279
 30
0.0
 40
0.045
100
AcDbArc
 50
180.0
 51
225.0000000076272
  0
LINE
  5
1A0
330
2
100
AcDbEntity
  8
0
100
AcDbLine
 10
-0.0005911934305232
 20
0.1899999999992019
 30
0.0
 11
-0.0547177811671418
 21
0.089999999999975
 31
0.0
  0
LINE
  5
1A1
330
2
100
AcDbEntity
  8
0
100
AcDbLine
 10
-0.0005911934305232
 20
0.1899999999992019
 30
0.0
 11
-0.0547177811671418
 21
0.089999999999975
 31
0.0
  0
LINE
  5
1A2
330
2
100
AcDbEntity
  8
0
100
AcDbLine
 10
-0.0940992144768416
 20
0.089999999999975
 30
0.0
 11
-0.0940992144763868
 21
0.1898307366423637
 31
0.0
  0
LINE
  5
1A3
330
2
100
AcDbEntity
  8
0
100
AcDbLine
 10
-0.0940992144768416
 20
0.0899999999997476
 30
0.0
 11
-0.0940992144763868
 21
0.1898307366423637
 31
0.0
  0
LINE
  5
1A4
330
2
100
AcDbEntity
  8
0
100
AcDbLine
 10
-0.0940992144763868
 20
0.1898307366423637
 30
0.0
 11
-0.0263380834893994
 21
0.1424320834995339
 31
0.0
  0
LINE
  5
1A5
330
2
100
AcDbEntity
  8
0
100
AcDbLine
 10
-0.0940992144763868
 20
0.1898307366423637
 30
0.0
 11
-0.0263380834893496
 21
0.1424320834995001
 31
0.0
  0
LINE
  5
1A6
330
2
100
AcDbEntity
  8
0
100
AcDbLine
 10
0.0929168276155679
 20
0.1898307366428185
 30
0.0
 11
0.0251556966286266
 21
0.1424320834990223
 31
0.0
  0
LINE
  5
1A7
330
2
100
AcDbEntity
  8
0
100
AcDbLine
 10
0.0929168276155679
 20
0.1898307366428185
 30
0.0
 11
0.0251556966289854
 21
0.1424320834992727
 31
0.0
  0
LINE
  5
1A8
330
2
100
AcDbEntity
  8
0
100
AcDbLine
 10
-0.0005911934305232
 20
0.1899999999992019
 30
0.0
 11
0.0535353943060954
 21
0.089999999999975
 31
0.0
  0
LINE
  5
1A9
330
2
100
AcDbEntity
  8
0
100
AcDbLine
 10
-0.0005911934305232
 20
0.1899999999992019
 30
0.0
 11
0.0535353943060954
 21
0.089999999999975
 31
0.0
  0
LINE
  5
1AA
330
2
100
AcDbEntity
  8
0
100
AcDbLine
 10
0.092916827615575
 20
0.089999999999975
 30
0.0
 11
0.0929168276155679
 21
0.1898307366428185
 31
0.0
  0
LINE
  5
1AB
330
2
100
AcDbEntity
  8
0
100
AcDbLine
 10
0.0929168276155679
 20
0.089999999999975
 30
0.0
 11
0.0929168276155679
 21
0.1898307366428185
 31
0.0
  0
ARC
  5
1AC
330
2
100
AcDbEntity
  8
0
100
AcDbCircle
 10
1.017500000000013
 20
0.1349999999999909
 30
0.0
 40
0.135
100
AcDbArc
 50
270.0
 51
0.0
  0
POINT
  5
1AD
330
2
100
AcDbEntity
  8
0
  6
ByBlock
100
AcDbPoint
 10
1.062500000000007
 20
0.1399999999999757
 30
0.0
  0
POINT
  5
1AE
330
2
100
AcDbEntity
  8
0
  6
ByBlock
100
AcDbPoint
 10
1.012500000000003
 20
0.089999999999975
 30
0.0
  0
POINT
  5
1AF
330
2
100
AcDbEntity
  8
0
  6
ByBlock
100
AcDbPoint
 10
1.012499999999996
 20
0.089999999999975
 30
0.0
  0
ARC
  5
1B0
330
2
100
AcDbEntity
  8
0
100
AcDbCircle
 10
1.017500000000013
 20
0.1349999999999909
 30
0.0
 40
0.09
100
AcDbArc
 50
270.0
 51
0.0
  0
ARC
  5
1B1
330
2
100
AcDbEntity
  8
0
100
AcDbCircle
 10
1.017500000000013
 20
0.1349999999999909
 30
0.0
 40
0.045
100
AcDbArc
 50
270.0
 51
0.0
  0
LINE
  5
1B2
330
2
100
AcDbEntity
  8
0
100
AcDbLine
 10
1.062500000000169
 20
1.343316936683891
 30
0.0
 11
0.8338716692541635
 21
1.600360522024729
 31
0.0
  0
ARC
  5
1B3
330
2
100
AcDbEntity
  8
0
100
AcDbCircle
 10
1.076342116257116
 20
1.171102700793993
 30
0.0
 40
0.2315168730279693
100
AcDbArc
 50
230.5771012662091
 51
266.5723098054182
  0
ARC
  5
1B4
330
2
100
AcDbEntity
  8
0
100
AcDbCircle
 10
1.076342116257155
 20
0.8961027007940157
 30
0.0
 40
0.2315168730281418
100
AcDbArc
 50
230.577101266232
 51
266.5723098054112
  0
LINE
  5
1B5
330
2
100
AcDbEntity
  8
0
100
AcDbLine
 10
1.049319805149192
 20
0.9009001948424285
 30
0.0
 11
0.929319805149305
 21
0.7172605845762892
 31
0.0
  0
ARC
  5
1B6
330
2
100
AcDbEntity
  8
0
100
AcDbCircle
 10
1.017499999999869
 20
1.207720000000279
 30
0.0
 40
0.045
100
AcDbArc
 50
314.9999999923728
 51
0.0
  0
LINE
  5
1B7
330
2
100
AcDbEntity
  8
0
100
AcDbLine
 10
1.049319805149194
 20
1.175900194842598
 30
0.0
 11
0.929319805149305
 21
0.9922605845764583
 31
0.0
  0
ARC
  5
1B8
330
2
100
AcDbEntity
  8
0
100
AcDbCircle
 10
-1.107499999999703
 20
1.696250000000077
 30
0.0
 40
0.05
100
AcDbArc
 50
90.0
 51
154.158067238145
  0
ARC
  5
1B9
330
2
100
AcDbEntity
  8
0
100
AcDbCircle
 10
-1.107499999999703
 20
2.258750000000076
 30
0.0
 40
0.05
100
AcDbArc
 50
90.0
 51
154.158067238145
  0
ARC
  5
1BA
330
2
100
AcDbEntity
  8
0
100
AcDbCircle
 10
-1.103121681959692
 20
2.540571919380767
 30
0.0
 40
0.07625
100
AcDbArc
 50
15.00000000003474
 51
36.3392133744043
  0
LINE
  5
1BB
330
2
100
AcDbEntity
  8
0
100
AcDbLine
 10
-1.0625
 20
2.614029400264514
 30
0.0
 11
-1.041700559444735
 21
2.585754971612374
 31
0.0
  0
LINE
  5
1BC
330
2
100
AcDbEntity
  8
0
100
AcDbLine
 10
-1.112499999999997
 20
5.029999999999975
 30
0.0
 11
-1.0625
 21
5.029999999999975
 31
0.0
  0
LINE
  5
1BD
330
2
100
AcDbEntity
  8
0
100
AcDbLine
 10
-1.112499999999997
 20
5.246506350946083
 30
0.0
 11
-1.0625
 21
5.246506350946083
 31
0.0
  0
LINE
  5
1BE
330
2
100
AcDbEntity
  8
0
100
AcDbLine
 10
1.862500000000036
 20
3.458235042592873
 30
0.0
 11
1.862500000000154
 21
4.383928752719099
 31
0.0
  0
LINE
  5
1BF
330
2
100
AcDbEntity
  8
0
100
AcDbLine
 10
1.107499999999909
 20
2.095896261652163
 30
0.0
 11
1.676199924399555
 21
2.908083925117913
 31
0.0
  0
ARC
  5
1C0
330
2
100
AcDbEntity
  8
0
100
AcDbCircle
 10
1.107499999999448
 20
1.696250000000489
 30
0.0
 40
0.05
100
AcDbArc
 50
25.84193276185503
 51
90.0
  0
ARC
  5
1C1
330
2
100
AcDbEntity
  8
0
100
AcDbCircle
 10
1.107499999999646
 20
2.258750000000076
 30
0.0
 40
0.05
100
AcDbArc
 50
25.84193276185503
 51
90.0
  0
ARC
  5
1C2
330
2
100
AcDbEntity
  8
0
100
AcDbCircle
 10
1.103121681959635
 20
2.540571919380767
 30
0.0
 40
0.07625
100
AcDbArc
 50
143.6607866255957
 51
164.9999999999652
  0
LINE
  5
1C3
330
2
100
AcDbEntity
  8
0
100
AcDbLine
 10
1.062499999999943
 20
2.614029400264514
 30
0.0
 11
1.041700559444678
 21
2.585754971612374
 31
0.0
  0
ARC
  5
1C4
330
2
100
AcDbEntity
  8
0
100
AcDbCircle
 10
0.8599999999999426
 20
3.49023504259331
 30
0.0
 40
1.002500000000009
100
AcDbArc
 50
325.0000000000027
 51
0.0
1001
_DIE112SSJYHX
1002
{
1000
comp_type
1000
DBL24
1000
material
1000
D-2
1000
thickness
1040
1.25
1000
mount
1000
SBP10
1000
mntlay
1000
DIE_SUB_PLATE
1002
}
  0
LINE
  5
1C5
330
2
100
AcDbEntity
  8
0
100
AcDbLine
 10
1.062500000000007
 20
5.029999999999975
 30
0.0
 11
1.112500000000011
 21
5.029999999999975
 31
0.0
  0
LINE
  5
1C6
330
2
100
AcDbEntity
  8
0
100
AcDbLine
 10
1.062500000000007
 20
5.246506350946083
 30
0.0
 11
1.112500000000011
 21
5.246506350946083
 31
0.0
  0
ARC
  5
1C7
330
2
100
AcDbEntity
  8
0
100
AcDbCircle
 10
2.360000000000156
 20
4.383928752719099
 30
0.0
 40
0.4975
100
AcDbArc
 50
135.0000000000188
 51
180.0
1001
_DIE112SSJYHX
1002
{
1000
comp_type
1000
DBL24
1000
material
1000
D-2
1000
thickness
1040
1.25
1000
mount
1000
SBP10
1000
mntlay
1000
DIE_SUB_PLATE
1002
}
  0
LINE
  5
1C8
330
2
100
AcDbEntity
  8
0
100
AcDbLine
 10
2.008214376359732
 20
4.735714376359292
 30
0.0
 11
2.090321157546477
 21
4.817821157546243
 31
0.0
  0
CIRCLE
  5
1C9
330
2
100
AcDbEntity
  8
0
  6
Continuous
100
AcDbCircle
 10
1.987500000000019
 20
5.089999999999973
 30
0.0
 40
0.0855
  0
ARC
  5
1CA
330
2
100
AcDbEntity
  8
0
100
AcDbCircle
 10
1.735000000000149
 20
5.173142315092322
 30
0.0
 40
0.5025000000000081
100
AcDbArc
 50
315.0000000000194
 51
359.9999999999998
1001
_DIE112SSJYHX
1002
{
1000
comp_type
1000
DBL24
1000
material
1000
D-2
1000
thickness
1040
1.25
1000
mount
1000
SBP10
1000
mntlay
1000
DIE_SUB_PLATE
1002
}
  0
LINE
  5
1CB
330
2
100
AcDbEntity
  8
0
100
AcDbLine
 10
-1.362499999999997
 20
12.01599999999997
 30
0.0
 11
-1.737500000000019
 21
12.01599999999997
 31
0.0
  0
LINE
  5
1CC
330
2
100
AcDbEntity
  8
0
100
AcDbLine
 10
-2.237500000000019
 20
11.34099999999998
 30
0.0
 11
-1.987500000000019
 21
11.59099999999998
 31
0.0
  0
CIRCLE
  5
1CD
330
2
100
AcDbEntity
  8
0
  6
Continuous
100
AcDbCircle
 10
-1.987500000000019
 20
7.403499999999976
 30
0.0
 40
0.0855
  0
CIRCLE
  5
1CE
330
2
100
AcDbEntity
  8
0
  6
Continuous
100
AcDbCircle
 10
-1.726746538668365
 20
8.424071796640089
 30
0.0
 40
0.0855
  0
LINE
  5
1CF
330
2
100
AcDbEntity
  8
0
100
AcDbLine
 10
-1.625250000000165
 20
10.65349999999998
 30
0.0
 11
-1.625250000000165
 21
9.898388347648297
 31
0.0
  0
LINE
  5
1D0
330
2
100
AcDbEntity
  8
0
100
AcDbLine
 10
-1.437250000000169
 20
9.898388347647963
 30
0.0
 11
-1.437250000000162
 21
10.65349999999998
 31
0.0
  0
CIRCLE
  5
1D1
330
2
100
AcDbEntity
  8
0
  6
Continuous
100
AcDbCircle
 10
-1.987500000000019
 20
9.715999999999976
 30
0.0
 40
0.0855
  0
ARC
  5
1D2
330
2
100
AcDbEntity
  8
0
100
AcDbCircle
 10
-1.499750000000169
 20
9.898388347647963
 30
0.0
 40
0.0625
100
AcDbArc
 50
314.9999999999995
 51
359.9999999999998
  0
ARC
  5
1D3
330
2
100
AcDbEntity
  8
0
100
AcDbCircle
 10
-1.562750000000172
 20
9.898388347648297
 30
0.0
 40
0.0625
100
AcDbArc
 50
180.0
 51
224.9999999999999
  0
LINE
  5
1D4
330
2
100
AcDbEntity
  8
0
100
AcDbLine
 10
-1.531250000000163
 20
9.778499999999976
 30
0.0
 11
-1.606944173824324
 21
9.854194173824137
 31
0.0
  0
LINE
  5
1D5
330
2
100
AcDbEntity
  8
0
100
AcDbLine
 10
-1.531249999999837
 20
9.778499999999976
 30
0.0
 11
-1.45555582617601
 21
9.854194173823803
 31
0.0
  0
CIRCLE
  5
1D6
330
2
100
AcDbEntity
  8
0
  6
Continuous
100
AcDbCircle
 10
-1.987500000000019
 20
10.84099999999997
 30
0.0
 40
0.0855
  0
LINE
  5
1D7
330
2
100
AcDbEntity
  8
0
100
AcDbLine
 10
-1.737500000000019
 20
11.59099999999998
 30
0.0
 11
-1.987500000000019
 21
11.59099999999998
 31
0.0
  0
LINE
  5
1D8
330
2
100
AcDbEntity
  8
0
100
AcDbLine
 10
-1.737500000000004
 20
11.59099999999997
 30
0.0
 11
-1.737500000000019
 21
12.01599999999997
 31
0.0
  0
LINE
  5
1DA
330
2
100
AcDbEntity
  8
0
100
AcDbLine
 10
1.112500000000011
 20
11.23903399102906
 30
0.0
 11
1.112500000000011
 21
11.59099999999998
 31
0.0
  0
LINE
  5
1DB
330
2
100
AcDbEntity
  8
0
100
AcDbLine
 10
1.112500000000011
 20
11.09099999999998
 30
0.0
 11
1.362500000000011
 21
11.49907763843374
 31
0.0
  0
LINE
  5
1DC
330
2
100
AcDbEntity
  8
0
100
AcDbLine
 10
1.062500000000007
 20
11.10466374223516
 30
0.0
 11
1.319864720043661
 21
11.52519722692674
 31
0.0
  0
LINE
  5
1DD
330
2
100
AcDbEntity
  8
0
100
AcDbLine
 10
2.237500000000019
 20
11.34099999999998
 30
0.0
 11
1.987500000000019
 21
11.59099999999998
 31
0.0
  0
LINE
  5
1DE
330
2
100
AcDbEntity
  8
0
100
AcDbLine
 10
-1.112499999999997
 20
11.23903399102906
 30
0.0
 11
-1.112499999999997
 21
11.59099999999998
 31
0.0
  0
LINE
  5
1DF
330
2
100
AcDbEntity
  8
0
100
AcDbLine
 10
-1.0625
 20
11.10466374223516
 30
0.0
 11
-1.319864720043654
 21
11.52519722692674
 31
0.0
  0
LINE
  5
1E0
330
2
100
AcDbEntity
  8
0
100
AcDbLine
 10
-1.112499999999997
 20
11.09099999999998
 30
0.0
 11
-1.362499999999997
 21
11.49907763843374
 31
0.0
  0
ARC
  5
1E1
330
2
100
AcDbEntity
  8
0
100
AcDbCircle
 10
-1.062499999999993
 20
11.09099999999998
 30
0.0
 40
0.15625
100
AcDbArc
 50
137.3276934388401
 51
251.3370751150561
  0
ARC
  5
1E2
330
2
100
AcDbEntity
  8
0
100
AcDbCircle
 10
-1.062499999999993
 20
11.09099999999998
 30
0.0
 40
0.15625
100
AcDbArc
 50
108.6629248849441
 51
118.8501228964894
  0
CIRCLE
  5
1E3
330
2
100
AcDbEntity
  8
0
  6
Continuous
100
AcDbCircle
 10
1.987500000000019
 20
7.403499999999976
 30
0.0
 40
0.0855
  0
CIRCLE
  5
1E4
330
2
100
AcDbEntity
  8
0
  6
Continuous
100
AcDbCircle
 10
1.726746538668373
 20
8.424071796640089
 30
0.0
 40
0.0855
  0
ARC
  5
1E5
330
2
100
AcDbEntity
  8
0
100
AcDbCircle
 10
1.062500000000007
 20
11.09099999999998
 30
0.0
 40
0.15625
100
AcDbArc
 50
288.6629248849412
 51
42.67230656116108
  0
ARC
  5
1E6
330
2
100
AcDbEntity
  8
0
100
AcDbCircle
 10
1.062500000000007
 20
11.09099999999998
 30
0.0
 40
0.15625
100
AcDbArc
 50
61.14987710351321
 51
71.33707511505588
  0
LINE
  5
1E7
330
2
100
AcDbEntity
  8
0
100
AcDbLine
 10
1.625250000000172
 20
10.65349999999998
 30
0.0
 11
1.625250000000172
 21
9.898388347648297
 31
0.0
  0
LINE
  5
1E8
330
2
100
AcDbEntity
  8
0
100
AcDbLine
 10
1.437250000000176
 20
9.898388347647963
 30
0.0
 11
1.437250000000169
 21
10.65349999999998
 31
0.0
  0
ARC
  5
1E9
330
2
100
AcDbEntity
  8
0
100
AcDbCircle
 10
1.562750000000172
 20
9.898388347648297
 30
0.0
 40
0.0625
100
AcDbArc
 50
315.0000000000001
 51
0.000000000000007
  0
LINE
  5
1EA
330
2
100
AcDbEntity
  8
0
100
AcDbLine
 10
1.531250000000171
 20
9.778499999999976
 30
0.0
 11
1.606944173824331
 21
9.854194173824137
 31
0.0
  0
ARC
  5
1EB
330
2
100
AcDbEntity
  8
0
100
AcDbCircle
 10
1.499750000000176
 20
9.898388347647963
 30
0.0
 40
0.0625
100
AcDbArc
 50
180.0000000000002
 51
225.0000000000005
  0
LINE
  5
1EC
330
2
100
AcDbEntity
  8
0
100
AcDbLine
 10
1.531249999999844
 20
9.778499999999976
 30
0.0
 11
1.455555826176017
 21
9.854194173823803
 31
0.0
  0
CIRCLE
  5
1ED
330
2
100
AcDbEntity
  8
0
  6
Continuous
100
AcDbCircle
 10
1.987500000000019
 20
9.715999999999976
 30
0.0
 40
0.0855
  0
CIRCLE
  5
1EE
330
2
100
AcDbEntity
  8
0
  6
Continuous
100
AcDbCircle
 10
1.987500000000019
 20
10.84099999999997
 30
0.0
 40
0.0855
  0
LINE
  5
1EF
330
2
100
AcDbEntity
  8
0
100
AcDbLine
 10
-1.112499999999997
 20
11.59099999999998
 30
0.0
 11
-1.362499999999997
 21
11.59099999999998
 31
0.0
  0
LINE
  5
1F0
330
2
100
AcDbEntity
  8
0
100
AcDbLine
 10
-1.362499999999997
 20
11.49907763843374
 30
0.0
 11
-1.319864720043654
 21
11.52519722692674
 31
0.0
  0
LINE
  5
1F1
330
2
100
AcDbEntity
  8
0
100
AcDbLine
 10
-1.362499999999997
 20
11.59099999999998
 30
0.0
 11
-1.362499999999997
 21
12.01599999999997
 31
0.0
  0
LINE
  5
1F2
330
2
100
AcDbEntity
  8
0
100
AcDbLine
 10
1.362500000000004
 20
12.01599999999997
 30
0.0
 11
1.737500000000011
 21
12.01599999999998
 31
0.0
  0
LINE
  5
1F3
330
2
100
AcDbEntity
  8
0
100
AcDbLine
 10
1.112500000000011
 20
11.59099999999998
 30
0.0
 11
1.362500000000011
 21
11.59099999999998
 31
0.0
  0
LINE
  5
1F4
330
2
100
AcDbEntity
  8
0
100
AcDbLine
 10
1.362500000000011
 20
11.49907763843374
 30
0.0
 11
1.319864720043661
 21
11.52519722692674
 31
0.0
  0
LINE
  5
1F5
330
2
100
AcDbEntity
  8
0
100
AcDbLine
 10
1.362500000000011
 20
11.59099999999998
 30
0.0
 11
1.362500000000011
 21
12.01599999999997
 31
0.0
  0
LINE
  5
1F6
330
2
100
AcDbEntity
  8
0
100
AcDbLine
 10
1.737500000000019
 20
11.59099999999998
 30
0.0
 11
1.987500000000019
 21
11.59099999999998
 31
0.0
  0
LINE
  5
1F8
330
2
100
AcDbEntity
  8
0
100
AcDbLine
 10
1.737500000000019
 20
11.59099999999998
 30
0.0
 11
1.737500000000019
 21
12.01599999999998
 31
0.0
  0
LINE
  5
1F9
330
2
100
AcDbEntity
  8
0
100
AcDbLine
 10
-1.158500000000007
 20
18.91798413167575
 30
0.0
 11
-1.524225413175437
 21
18.91798413167575
 31
0.0
  0
LINE
  5
1FA
330
2
100
AcDbEntity
  8
0
100
AcDbLine
 10
-1.158500000000007
 20
18.87198413167575
 30
0.0
 11
-2.237500000000019
 21
18.87198413167574
 31
0.0
  0
LINE
  5
1FB
330
2
100
AcDbEntity
  8
0
100
AcDbLine
 10
-1.625250000000165
 20
18.87198413167575
 30
0.0
 11
-1.625250000000165
 21
18.50042624240797
 31
0.0
  0
LINE
  5
1FC
330
2
100
AcDbEntity
  8
0
100
AcDbLine
 10
-1.437250000000168
 20
18.50042624240796
 30
0.0
 11
-1.437250000000164
 21
18.87198413167575
 31
0.0
  0
ELLIPSE
  5
1FD
330
2
100
AcDbEntity
  8
0
  6
Continuous
100
AcDbEllipse
 10
-1.531250000000166
 20
18.50042624240813
 30
0.0
 11
-0.09399999999999853
 21
1.705302565824240E-13
 31
0.0
210
0.0
220
0.0
230
1.0
 40
0.194197817966139
 41
0.0
 42
3.141592653589793
  0
LINE
  5
1FE
330
2
100
AcDbEntity
  8
0
100
AcDbLine
 10
-1.899225413175458
 20
18.91798413167575
 30
0.0
 11
-2.237500000000019
 21
18.91798413167573
 31
0.0
  0
LINE
  5
1FF
330
2
100
AcDbEntity
  8
0
100
AcDbLine
 10
-2.237500000000019
 20
18.91798413167573
 30
0.0
 11
-2.237500000000019
 21
18.87198413167574
 31
0.0
  0
LINE
  5
200
330
2
100
AcDbEntity
  8
0
100
AcDbLine
 10
-1.987500000000011
 20
18.91798413167574
 30
0.0
 11
-1.987500000000011
 21
18.87198413167574
 31
0.0
  0
LINE
  5
201
330
2
100
AcDbEntity
  8
0
  6
Continuous
100
AcDbLine
 10
-1.899225413175458
 20
19.04298413167574
 30
0.0
 11
-1.805475413175447
 21
19.60548413167573
 31
0.0
  0
LINE
  5
202
330
2
100
AcDbEntity
  8
0
  6
Continuous
100
AcDbLine
 10
-1.617975413175447
 20
19.60548413167573
 30
0.0
 11
-1.524225413175437
 21
19.04298413167574
 31
0.0
  0
LINE
  5
203
330
2
100
AcDbEntity
  8
0
  6
Continuous
100
AcDbLine
 10
-1.899225413175458
 20
19.04298413167574
 30
0.0
 11
-1.899225413175458
 21
18.87198413167575
 31
0.0
  0
LINE
  5
204
330
2
100
AcDbEntity
  8
0
  6
Continuous
100
AcDbLine
 10
-1.524225413175437
 20
19.04298413167574
 30
0.0
 11
-1.524225413175437
 21
18.87198413167575
 31
0.0
  0
LINE
  5
205
330
2
100
AcDbEntity
  8
0
  6
Continuous
100
AcDbLine
 10
-1.805475413175447
 20
19.60548413167573
 30
0.0
 11
-1.617975413175447
 21
19.60548413167573
 31
0.0
  0
LINE
  5
206
330
2
100
AcDbEntity
  8
0
100
AcDbLine
 10
-0.9727810187644614
 20
16.66798413167575
 30
0.0
 11
0.9727810187644685
 21
16.66798413167575
 31
0.0
  0
LINE
  5
207
330
2
100
AcDbEntity
  8
0
100
AcDbLine
 10
-0.9727810187644614
 20
18.66798413167574
 30
0.0
 11
0.9727810187644685
 21
18.66798413167574
 31
0.0
  0
ARC
  5
208
330
2
100
AcDbEntity
  8
0
100
AcDbCircle
 10
-1.158500000000007
 20
18.82598413167575
 30
0.0
 40
0.092
100
AcDbArc
 50
0.0000000000000833
 51
90.0000000000003
  0
ARC
  5
209
330
2
100
AcDbEntity
  8
0
100
AcDbCircle
 10
-1.158500000000007
 20
18.82598413167575
 30
0.0
 40
0.046
100
AcDbArc
 50
0.0000000000000833
 51
90.0000000000003
  0
LINE
  5
20A
330
2
100
AcDbEntity
  8
0
100
AcDbLine
 10
-1.112500000000004
 20
16.66798413167576
 30
0.0
 11
-1.112500000000007
 21
18.04698413167573
 31
0.0
  0
LINE
  5
20B
330
2
100
AcDbEntity
  8
0
100
AcDbLine
 10
-1.066500000000005
 20
16.66798413167575
 30
0.0
 11
-1.066500000000005
 21
18.82598413167575
 31
0.0
  0
LINE
  5
20C
330
2
100
AcDbEntity
  8
0
100
AcDbLine
 10
-1.066500000000005
 20
17.74948413167575
 30
0.0
 11
-1.066500000000005
 21
17.49448413167575
 31
0.0
  0
ARC
  5
20D
330
2
100
AcDbEntity
  8
0
100
AcDbCircle
 10
-1.066500000000005
 20
17.66798413167575
 30
0.0
 40
0.1874999999999982
100
AcDbArc
 50
270.0
 51
90.0
  0
ARC
  5
20E
330
2
100
AcDbEntity
  8
0
100
AcDbCircle
 10
-1.066476097464445
 20
17.66798413167575
 30
0.0
 40
0.1874999999999982
100
AcDbArc
 50
270.0
 51
90.0
  0
ARC
  5
20F
330
2
100
AcDbEntity
  8
0
100
AcDbCircle
 10
-1.035281018764461
 20
16.66798413167574
 30
0.0
 40
0.0625
100
AcDbArc
 50
0.0000000000032639
 51
90.0
  0
LINE
  5
210
330
2
100
AcDbEntity
  8
0
100
AcDbLine
 10
-1.066500000000005
 20
16.73048413167574
 30
0.0
 11
-1.035281018764461
 21
16.73048413167574
 31
0.0
  0
LINE
  5
211
330
2
100
AcDbEntity
  8
0
100
AcDbLine
 10
-1.066500000000005
 20
16.66798413167575
 30
0.0
 11
-1.112500000000004
 21
16.66798413167576
 31
0.0
  0
ARC
  5
212
330
2
100
AcDbEntity
  8
0
100
AcDbCircle
 10
-1.117258935853654
 20
17.12409802145036
 30
0.0
 40
0.0500000000000078
100
AcDbArc
 50
179.6840952777882
 51
274.2726610135184
  0
ARC
  5
213
330
2
100
AcDbEntity
  8
0
100
AcDbCircle
 10
-1.116774733096623
 20
17.21191720024723
 30
0.0
 40
0.0500000000000078
100
AcDbArc
 50
85.09552954204182
 51
179.684095277772
  0
LINE
  5
214
330
2
100
AcDbEntity
  8
0
  6
Continuous
100
AcDbLine
 10
-1.166773973110129
 20
17.21219287772675
 30
0.0
 11
-1.167258175867158
 21
17.12437369892987
 31
0.0
  0
LINE
  5
215
330
2
100
AcDbEntity
  8
0
100
AcDbLine
 10
-1.117258052269719
 20
17.124258275837
 30
0.0
 11
-1.117258052269719
 21
17.124258275837
 31
0.0
  0
LINE
  5
216
330
2
100
AcDbEntity
  8
0
100
AcDbLine
 10
-1.066390367813028
 20
17.39548413167574
 30
0.0
 11
-1.112500000000004
 21
17.39548413167575
 31
0.0
  0
ARC
  5
217
330
2
100
AcDbEntity
  8
0
100
AcDbCircle
 10
-1.174164335017963
 20
17.46798413167571
 30
0.0
 40
0.1875
100
AcDbArc
 50
306.8698976458377
 51
8.981623935599469
  0
ARC
  5
218
330
2
100
AcDbEntity
  8
0
100
AcDbCircle
 10
-1.035281018764461
 20
18.66798413167574
 30
0.0
 40
0.0625
100
AcDbArc
 50
270.0
 51
0.000000000000007
  0
LINE
  5
219
330
2
100
AcDbEntity
  8
0
100
AcDbLine
 10
-1.066500000000005
 20
18.04698413167573
 30
0.0
 11
-1.316500000000012
 21
18.29698413167573
 31
0.0
  0
LINE
  5
21A
330
2
100
AcDbEntity
  8
0
100
AcDbLine
 10
-1.113006455071812
 20
18.04698413167573
 30
0.0
 11
-1.363006455071819
 21
18.29698413167573
 31
0.0
  0
POINT
  5
21B
330
2
100
AcDbEntity
  8
0
  6
ByBlock
100
AcDbPoint
 10
-1.066500000000005
 20
17.74948413167575
 30
0.0
  0
LINE
  5
21C
330
2
100
AcDbEntity
  8
0
100
AcDbLine
 10
-1.066500000000005
 20
17.62198413167575
 30
0.0
 11
-1.112500000000004
 21
17.62198413167574
 31
0.0
  0
LINE
  5
21D
330
2
100
AcDbEntity
  8
0
  6
Continuous
100
AcDbLine
 10
-1.113006455071812
 20
18.04698413167573
 30
0.0
 11
-1.066500000000005
 21
18.04698413167573
 31
0.0
  0
ARC
  5
21E
330
2
100
AcDbEntity
  8
0
100
AcDbCircle
 10
-1.174164335017963
 20
17.86798413167569
 30
0.0
 40
0.1875
100
AcDbArc
 50
351.018376064427
 51
53.13010235415406
  0
LINE
  5
21F
330
2
100
AcDbEntity
  8
0
100
AcDbLine
 10
-1.363006455071819
 20
18.8068796318826
 30
0.0
 11
-1.066500000000005
 21
18.8068796318826
 31
0.0
  0
LINE
  5
220
330
2
100
AcDbEntity
  8
0
100
AcDbLine
 10
-1.313006455071822
 20
18.29349058674754
 30
0.0
 11
-1.313006455071822
 21
18.8068796318826
 31
0.0
  0
LINE
  5
221
330
2
100
AcDbEntity
  8
0
100
AcDbLine
 10
-1.363006455071819
 20
18.29698413167573
 30
0.0
 11
-1.363006455071819
 21
18.8068796318826
 31
0.0
  0
LINE
  5
222
330
2
100
AcDbEntity
  8
0
  6
Continuous
100
AcDbLine
 10
-1.363006455071819
 20
18.29698413167573
 30
0.0
 11
-1.316500000000012
 21
18.29698413167573
 31
0.0
  0
LINE
  5
223
330
2
100
AcDbEntity
  8
0
100
AcDbLine
 10
-1.112500000000009
 20
18.8068796318826
 30
0.0
 11
-1.112500000000008
 21
18.82598413167575
 31
0.0
  0
LINE
  5
224
330
2
100
AcDbEntity
  8
0
100
AcDbLine
 10
-1.066500000000005
 20
18.60548413167574
 30
0.0
 11
-1.035281018764461
 21
18.60548413167574
 31
0.0
  0
ARC
  5
225
330
2
100
AcDbEntity
  8
0
100
AcDbCircle
 10
-0.1174546952938869
 20
17.60856498159371
 30
0.0
 40
0.0390625
100
AcDbArc
 50
149.9999999999975
 51
269.9999999999993
  0
ARC
  5
226
330
2
100
AcDbEntity
  8
0
100
AcDbCircle
 10
-0.0939637562351088
 20
17.61937707739363
 30
0.0
 40
0.03125
100
AcDbArc
 50
149.9999999999975
 51
269.9999999999993
  0
ARC
  5
227
330
2
100
AcDbEntity
  8
0
100
AcDbCircle
 10
0.0939637562638573
 20
17.61937707718183
 30
0.0
 40
0.03125
100
AcDbArc
 50
269.9999999999999
 51
30.0000000000028
  0
ARC
  5
228
330
2
100
AcDbEntity
  8
0
100
AcDbCircle
 10
0.1174546953298208
 20
17.60856498132897
 30
0.0
 40
0.0390625
100
AcDbArc
 50
269.9999999999999
 51
30.0000000000028
  0
LINE
  5
229
330
2
100
AcDbEntity
  8
0
100
AcDbLine
 10
-0.0939637562638538
 20
17.58812707740934
 30
0.0
 11
0.0939637562638609
 21
17.58812707718185
 31
0.0
  0
LINE
  5
22A
330
2
100
AcDbEntity
  8
0
100
AcDbLine
 10
-0.117454695329819
 20
17.56950248161335
 30
0.0
 11
0.1174546953298261
 21
17.56950248132898
 31
0.0
  0
ARC
  5
22B
330
2
100
AcDbEntity
  8
0
100
AcDbCircle
 10
0.0000000000754987
 20
17.78212707739362
 30
0.0
 40
0.03125
100
AcDbArc
 50
30.00000000000072
 51
150.0000000000025
  0
ARC
  5
22C
330
2
100
AcDbEntity
  8
0
100
AcDbCircle
 10
0.0000000000943725
 20
17.8120024815937
 30
0.0
 40
0.0390625
100
AcDbArc
 50
30.00000000000072
 51
150.0000000000025
  0
LINE
  5
22D
330
2
100
AcDbEntity
  8
0
100
AcDbLine
 10
-0.1512838126178551
 20
17.62809623161335
 30
0.0
 11
-0.0338291172409608
 21
17.8315337315937
 31
0.0
  0
LINE
  5
22E
330
2
100
AcDbEntity
  8
0
100
AcDbLine
 10
-0.1210270500942841
 20
17.63500207740934
 30
0.0
 11
-0.027063293792768
 21
17.79775207739362
 31
0.0
  0
LINE
  5
22F
330
2
100
AcDbEntity
  8
0
100
AcDbLine
 10
0.0270632939437583
 20
17.79775207739361
 30
0.0
 11
0.1210270501321205
 21
17.63500207718184
 31
0.0
  0
LINE
  5
230
330
2
100
AcDbEntity
  8
0
100
AcDbLine
 10
0.033829117429697
 20
17.83153373159369
 30
0.0
 11
0.1512838126651488
 21
17.62809623132897
 31
0.0
  0
ARC
  5
231
330
2
100
AcDbEntity
  8
0
100
AcDbCircle
 10
1.158500000000014
 20
18.82598413167575
 30
0.0
 40
0.046
100
AcDbArc
 50
89.9999999999997
 51
179.9999999999999
  0
ARC
  5
232
330
2
100
AcDbEntity
  8
0
100
AcDbCircle
 10
1.158500000000014
 20
18.82598413167575
 30
0.0
 40
0.092
100
AcDbArc
 50
89.9999999999997
 51
179.9999999999999
  0
LINE
  5
233
330
2
100
AcDbEntity
  8
0
100
AcDbLine
 10
1.625250000000172
 20
18.87198413167575
 30
0.0
 11
1.625250000000172
 21
18.50042624240797
 31
0.0
  0
LINE
  5
234
330
2
100
AcDbEntity
  8
0
100
AcDbLine
 10
1.437250000000175
 20
18.50042624240796
 30
0.0
 11
1.437250000000171
 21
18.87198413167575
 31
0.0
  0
LINE
  5
235
330
2
100
AcDbEntity
  8
0
100
AcDbLine
 10
1.066500000000012
 20
16.66798413167575
 30
0.0
 11
1.066500000000012
 21
18.82598413167575
 31
0.0
  0
LINE
  5
236
330
2
100
AcDbEntity
  8
0
100
AcDbLine
 10
1.112500000000011
 20
16.66798413167576
 30
0.0
 11
1.112500000000013
 21
18.04698413167571
 31
0.0
  0
ARC
  5
237
330
2
100
AcDbEntity
  8
0
100
AcDbCircle
 10
1.066523902535565
 20
17.66798413167575
 30
0.0
 40
0.1874999999999982
100
AcDbArc
 50
90.0
 51
270.0
  0
LINE
  5
238
330
2
100
AcDbEntity
  8
0
100
AcDbLine
 10
1.066500000000012
 20
16.73048413167574
 30
0.0
 11
1.035281018764469
 21
16.73048413167574
 31
0.0
  0
ARC
  5
239
330
2
100
AcDbEntity
  8
0
100
AcDbCircle
 10
1.035281018764469
 20
16.66798413167574
 30
0.0
 40
0.0625
100
AcDbArc
 50
90.0
 51
179.9999999999967
  0
LINE
  5
23A
330
2
100
AcDbEntity
  8
0
100
AcDbLine
 10
1.066500000000012
 20
16.66798413167575
 30
0.0
 11
1.112500000000011
 21
16.66798413167576
 31
0.0
  0
ARC
  5
23B
330
2
100
AcDbEntity
  8
0
100
AcDbCircle
 10
1.117258935853661
 20
17.12409802145036
 30
0.0
 40
0.0500000000000078
100
AcDbArc
 50
265.7273389864816
 51
0.3159047222117708
  0
ARC
  5
23C
330
2
100
AcDbEntity
  8
0
100
AcDbCircle
 10
1.11677473309663
 20
17.21191720024723
 30
0.0
 40
0.0500000000000078
100
AcDbArc
 50
0.3159047222280552
 51
94.90447045795818
  0
ARC
  5
23D
330
2
100
AcDbEntity
  8
0
100
AcDbCircle
 10
1.174212140089082
 20
17.46798413167571
 30
0.0
 40
0.1875
100
AcDbArc
 50
171.0183760644005
 51
233.1301023541622
  0
LINE
  5
23E
330
2
100
AcDbEntity
  8
0
100
AcDbLine
 10
1.066390367813035
 20
17.39548413167574
 30
0.0
 11
1.112500000000011
 21
17.39548413167575
 31
0.0
  0
LINE
  5
23F
330
2
100
AcDbEntity
  8
0
100
AcDbLine
 10
1.117258052269726
 20
17.124258275837
 30
0.0
 11
1.117258052269726
 21
17.124258275837
 31
0.0
  0
LINE
  5
240
330
2
100
AcDbEntity
  8
0
  6
Continuous
100
AcDbLine
 10
1.166773973110136
 20
17.21219287772675
 30
0.0
 11
1.167258175867165
 21
17.12437369892987
 31
0.0
  0
LINE
  5
241
330
2
100
AcDbEntity
  8
0
100
AcDbLine
 10
1.113006455071807
 20
18.04698413167571
 30
0.0
 11
1.363006455071819
 21
18.29698413167571
 31
0.0
  0
LINE
  5
242
330
2
100
AcDbEntity
  8
0
100
AcDbLine
 10
1.0665
 20
18.04698413167571
 30
0.0
 11
1.316500000000012
 21
18.29698413167571
 31
0.0
  0
ARC
  5
243
330
2
100
AcDbEntity
  8
0
100
AcDbCircle
 10
1.174212140089082
 20
17.86798413167569
 30
0.0
 40
0.1875
100
AcDbArc
 50
126.8698976458459
 51
188.981623935573
  0
LINE
  5
244
330
2
100
AcDbEntity
  8
0
  6
Continuous
100
AcDbLine
 10
1.113006455071807
 20
18.04698413167571
 30
0.0
 11
1.0665
 21
18.04698413167571
 31
0.0
  0
LINE
  5
245
330
2
100
AcDbEntity
  8
0
100
AcDbLine
 10
1.066500000000012
 20
17.62198413167575
 30
0.0
 11
1.112500000000011
 21
17.62198413167574
 31
0.0
  0
LINE
  5
246
330
2
100
AcDbEntity
  8
0
100
AcDbLine
 10
1.363006455071828
 20
18.80687963188258
 30
0.0
 11
1.066500000000014
 21
18.80687963188258
 31
0.0
  0
LINE
  5
247
330
2
100
AcDbEntity
  8
0
100
AcDbLine
 10
1.112500000000014
 20
18.80687963188258
 30
0.0
 11
1.112500000000015
 21
18.82598413167575
 31
0.0
  0
LINE
  5
248
330
2
100
AcDbEntity
  8
0
100
AcDbLine
 10
1.066500000000012
 20
18.60548413167574
 30
0.0
 11
1.035281018764469
 21
18.60548413167574
 31
0.0
  0
ARC
  5
249
330
2
100
AcDbEntity
  8
0
100
AcDbCircle
 10
1.035281018764469
 20
18.66798413167574
 30
0.0
 40
0.0625
100
AcDbArc
 50
180.0
 51
270.0
  0
LINE
  5
24A
330
2
100
AcDbEntity
  8
0
  6
Continuous
100
AcDbLine
 10
1.363006455071819
 20
18.29698413167571
 30
0.0
 11
1.316500000000012
 21
18.29698413167571
 31
0.0
  0
LINE
  5
24B
330
2
100
AcDbEntity
  8
0
100
AcDbLine
 10
1.313006455071822
 20
18.29349058674752
 30
0.0
 11
1.313006455071831
 21
18.80687963188258
 31
0.0
  0
LINE
  5
24C
330
2
100
AcDbEntity
  8
0
100
AcDbLine
 10
1.363006455071819
 20
18.29698413167571
 30
0.0
 11
1.363006455071828
 21
18.80687963188258
 31
0.0
  0
ELLIPSE
  5
24D
330
2
100
AcDbEntity
  8
0
  6
Continuous
100
AcDbEllipse
 10
1.531250000000174
 20
18.50042624240813
 30
0.0
 11
0.09399999999999854
 21
-1.692223006060538E-13
 31
0.0
210
0.0
220
0.0
230
1.0
 40
0.1941978179661328
 41
3.141592653589719
 42
6.283185307179514
  0
LINE
  5
24E
330
2
100
AcDbEntity
  8
0
100
AcDbLine
 10
1.158500000000014
 20
18.91798413167575
 30
0.0
 11
1.524225413175444
 21
18.91798413167575
 31
0.0
  0
LINE
  5
24F
330
2
100
AcDbEntity
  8
0
100
AcDbLine
 10
1.158500000000014
 20
18.87198413167575
 30
0.0
 11
2.237500000000026
 21
18.87198413167574
 31
0.0
  0
LINE
  5
250
330
2
100
AcDbEntity
  8
0
  6
Continuous
100
AcDbLine
 10
1.899225413175465
 20
19.04298413167574
 30
0.0
 11
1.805475413175454
 21
19.60548413167573
 31
0.0
  0
LINE
  5
251
330
2
100
AcDbEntity
  8
0
  6
Continuous
100
AcDbLine
 10
1.617975413175454
 20
19.60548413167573
 30
0.0
 11
1.524225413175444
 21
19.04298413167574
 31
0.0
  0
LINE
  5
252
330
2
100
AcDbEntity
  8
0
  6
Continuous
100
AcDbLine
 10
1.524225413175444
 20
19.04298413167574
 30
0.0
 11
1.524225413175444
 21
18.87198413167575
 31
0.0
  0
LINE
  5
253
330
2
100
AcDbEntity
  8
0
  6
Continuous
100
AcDbLine
 10
1.805475413175454
 20
19.60548413167573
 30
0.0
 11
1.617975413175454
 21
19.60548413167573
 31
0.0
  0
LINE
  5
254
330
2
100
AcDbEntity
  8
0
100
AcDbLine
 10
1.899225413175465
 20
18.91798413167575
 30
0.0
 11
2.237500000000026
 21
18.91798413167573
 31
0.0
  0
LINE
  5
255
330
2
100
AcDbEntity
  8
0
  6
Continuous
100
AcDbLine
 10
1.899225413175465
 20
19.04298413167574
 30
0.0
 11
1.899225413175465
 21
18.87198413167575
 31
0.0
  0
LINE
  5
256
330
2
100
AcDbEntity
  8
0
100
AcDbLine
 10
1.987500000000019
 20
18.91798413167574
 30
0.0
 11
1.987500000000019
 21
18.87198413167574
 31
0.0
  0
LINE
  5
257
330
2
100
AcDbEntity
  8
0
100
AcDbLine
 10
2.237500000000026
 20
18.91798413167573
 30
0.0
 11
2.237500000000026
 21
18.87198413167574
 31
0.0
  0
LINE
  5
259
330
2
100
AcDbEntity
  8
0
100
AcDbLine
 10
-8.237190884601883
 20
4.403225077265663
 30
0.0
 11
-8.074440884569118
 21
4.497188833332501
 31
0.0
  0
LINE
  5
25A
330
2
100
AcDbEntity
  8
0
100
AcDbLine
 10
-8.237190884569134
 20
4.645279177624172
 30
0.0
 11
-8.074440884569118
 21
4.551315421069031
 31
0.0
  0
ARC
  5
25B
330
2
100
AcDbEntity
  8
0
100
AcDbCircle
 10
-7.728094432772682
 20
5.206874548139506
 30
0.0
 40
0.5025
100
AcDbArc
 50
180.0
 51
225.0000000000001
  0
LINE
  5
25C
330
2
100
AcDbEntity
  8
0
100
AcDbLine
 10
-6.854862199725599
 20
0.0729999999999738
 30
0.0
 11
-7.262741249315919
 21
0.0729999999999738
 31
0.0
  0
LINE
  5
25D
330
2
100
AcDbEntity
  8
0
100
AcDbLine
 10
-8.054862199725623
 20
1.020260584575221
 30
0.0
 11
-8.2048621997256
 21
1.043000000000001
 31
0.0
  0
ARC
  5
25E
330
2
100
AcDbEntity
  8
0
100
AcDbCircle
 10
-8.054862199725566
 20
1.155499999999956
 30
0.0
 40
0.1875
100
AcDbArc
 50
216.869897645846
 51
323.1301023541622
  0
LINE
  5
25F
330
2
100
AcDbEntity
  8
0
100
AcDbLine
 10
-8.204862199725486
 20
1.042999999999887
 30
0.0
 11
-8.054862199725509
 21
1.217999999999842
 31
0.0
  0
ARC
  5
260
330
2
100
AcDbEntity
  8
0
100
AcDbCircle
 10
-7.854862199725606
 20
1.442328618174591
 30
0.0
 40
0.1874999999999982
100
AcDbArc
 50
0.000000000000007
 51
180.0
  0
ARC
  5
261
330
2
100
AcDbEntity
  8
0
100
AcDbCircle
 10
-7.352362199725693
 20
1.586138852532367
 30
0.0
 40
0.4975
100
AcDbArc
 50
0.000000000000007
 51
35.00000000000365
1001
_DIE112SSJYHX
1002
{
1000
comp_type
1000
DBL24
1000
material
1000
D-2
1000
thickness
1040
1.25
1000
mount
1000
SBP10
1000
mntlay
1000
DIE_SUB_PLATE
1002
}
  0
LINE
  5
263
330
2
100
AcDbEntity
  8
0
  6
HIDDEN2
100
AcDbLine
 10
-7.261112199725606
 20
0.0729999999999738
 30
0.0
 11
-7.261112199725577
 21
1.635499999999952
 31
0.0
  0
LINE
  5
264
330
2
100
AcDbEntity
  8
0
  6
HIDDEN2
100
AcDbLine
 10
-7.448612199725599
 20
0.0729999999999738
 30
0.0
 11
-7.448612199725577
 21
1.635499999999952
 31
0.0
  0
ARC
  5
265
330
2
100
AcDbEntity
  8
0
100
AcDbCircle
 10
-7.854862199725606
 20
1.442328618174591
 30
0.0
 40
0.1874999999999982
100
AcDbArc
 50
0.000000000000007
 51
180.0
  0
LINE
  5
266
330
2
100
AcDbEntity
  8
0
100
AcDbLine
 10
-6.854862199725464
 20
0.2034999999999325
 30
0.0
 11
-6.854862199725691
 21
1.586138852532367
 31
0.0
  0
LINE
  5
267
330
2
100
AcDbEntity
  8
0
100
AcDbLine
 10
-6.854862199725599
 20
0.122999999999978
 30
0.0
 11
-6.854862199725599
 21
0.0729999999999738
 31
0.0
  0
LINE
  5
268
330
2
100
AcDbEntity
  8
0
  6
Continuous
100
AcDbLine
 10
-6.854862199725599
 20
0.122999999999978
 30
0.0
 11
-6.940215875686139
 21
0.1229999999999798
 31
0.0
  0
ARC
  5
269
330
2
100
AcDbEntity
  8
0
100
AcDbCircle
 10
-6.854862199725464
 20
0.1179999999999328
 30
0.0
 40
0.0855
100
AcDbArc
 50
90.0
 51
211.7568638592874
  0
LINE
  5
26A
330
2
100
AcDbEntity
  8
0
100
AcDbLine
 10
-7.654862199725645
 20
0.7452605845752434
 30
0.0
 11
-7.804862199725623
 21
0.7680000000000238
 31
0.0
  0
ARC
  5
26B
330
2
100
AcDbEntity
  8
0
100
AcDbCircle
 10
-7.654862199725589
 20
0.8804999999999783
 30
0.0
 40
0.1875
100
AcDbArc
 50
216.869897645846
 51
323.1301023541622
  0
LINE
  5
26C
330
2
100
AcDbEntity
  8
0
100
AcDbLine
 10
-7.804862199725509
 20
0.7679999999999101
 30
0.0
 11
-7.654862199725532
 21
0.9429999999999783
 31
0.0
  0
LINE
  5
26D
330
2
100
AcDbEntity
  8
0
100
AcDbLine
 10
-7.654862199725645
 20
0.7452605845752434
 30
0.0
 11
-7.504862199725611
 21
0.7679999999999101
 31
0.0
  0
LINE
  5
26E
330
2
100
AcDbEntity
  8
0
100
AcDbLine
 10
-7.654862199725645
 20
0.7452605845752434
 30
0.0
 11
-7.654862199725532
 21
0.9429999999998646
 31
0.0
  0
LINE
  5
26F
330
2
100
AcDbEntity
  8
0
100
AcDbLine
 10
-7.654862199725532
 20
0.9429999999999783
 30
0.0
 11
-7.504862199725555
 21
0.7679999999999101
 31
0.0
  0
LINE
  5
270
330
2
100
AcDbEntity
  8
0
100
AcDbLine
 10
-7.982362199725603
 20
1.317328618174583
 30
0.0
 11
-7.727362199725608
 21
1.317328618174583
 31
0.0
  0
ARC
  5
271
330
2
100
AcDbEntity
  8
0
100
AcDbCircle
 10
-7.727362199725608
 20
1.377328618174586
 30
0.0
 40
0.06
100
AcDbArc
 50
270.0000000000004
 51
359.9999999999999
  0
POINT
  5
272
330
2
100
AcDbEntity
  8
0
  6
ByBlock
100
AcDbPoint
 10
-7.982362199725603
 20
1.317328618174583
 30
0.0
 50
180.0
  0
ARC
  5
273
330
2
100
AcDbEntity
  8
0
100
AcDbCircle
 10
-7.982362199725603
 20
1.377328618174586
 30
0.0
 40
0.06
100
AcDbArc
 50
180.0000000000001
 51
269.9999999999998
  0
LINE
  5
274
330
2
100
AcDbEntity
  8
0
100
AcDbLine
 10
-8.054862199725623
 20
1.020260584575221
 30
0.0
 11
-7.904862199725589
 21
1.042999999999887
 31
0.0
  0
LINE
  5
275
330
2
100
AcDbEntity
  8
0
100
AcDbLine
 10
-8.054862199725509
 20
1.217999999999842
 30
0.0
 11
-7.904862199725532
 21
1.042999999999887
 31
0.0
  0
LINE
  5
276
330
2
100
AcDbEntity
  8
0
100
AcDbLine
 10
-8.054862199725623
 20
1.020260584575221
 30
0.0
 11
-8.054862199725509
 21
1.217999999999842
 31
0.0
  0
LINE
  5
277
330
2
100
AcDbEntity
  8
0
100
AcDbLine
 10
-7.854862199725691
 20
3.487235042592939
 30
0.0
 11
-7.855594432772907
 21
4.417660985765945
 31
0.0
  0
LINE
  5
278
330
2
100
AcDbEntity
  8
0
100
AcDbLine
 10
-6.944834057691939
 20
1.871493129617038
 30
0.0
 11
-7.673562124125429
 21
2.912224665151047
 31
0.0
  0
ARC
  5
279
330
2
100
AcDbEntity
  8
0
  6
HIDDEN2
100
AcDbCircle
 10
-7.354862199725577
 20
1.635499999999952
 30
0.0
 40
0.09375
100
AcDbArc
 50
0.000000000000007
 51
180.0
  0
POINT
  5
27A
330
2
100
AcDbEntity
  8
0
  6
ByBlock
100
AcDbPoint
 10
-6.854862199725606
 20
1.747999999999969
 30
0.0
 50
180.0
  0
POINT
  5
27B
330
2
100
AcDbEntity
  8
0
  6
ByBlock
100
AcDbPoint
 10
-7.854862199725606
 20
1.629828618174587
 30
0.0
 50
180.0
  0
POINT
  5
27C
330
2
100
AcDbEntity
  8
0
  6
ByBlock
100
AcDbPoint
 10
-7.854862199725606
 20
1.629828618174587
 30
0.0
 50
180.0
  0
POINT
  5
27D
330
2
100
AcDbEntity
  8
0
  6
ByBlock
100
AcDbPoint
 10
-7.854862199725606
 20
1.629828618174587
 30
0.0
 50
180.0
  0
POINT
  5
27E
330
2
100
AcDbEntity
  8
0
  6
ByBlock
100
AcDbPoint
 10
-7.854862199725606
 20
1.629828618174587
 30
0.0
 50
180.0
  0
ARC
  5
27F
330
2
100
AcDbEntity
  8
0
100
AcDbCircle
 10
-6.852362199725679
 20
3.487235042592939
 30
0.0
 40
1.002500000000012
100
AcDbArc
 50
180.0000000000002
 51
214.9999999999976
1001
_DIE112SSJYHX
1002
{
1000
comp_type
1000
DBL24
1000
material
1000
D-2
1000
thickness
1040
1.25
1000
mount
1000
SBP10
1000
mntlay
1000
DIE_SUB_PLATE
1002
}
  0
ARC
  5
280
330
2
100
AcDbEntity
  8
0
100
AcDbCircle
 10
-8.35309443277291
 20
4.417660985765945
 30
0.0
 40
0.4975000000000007
100
AcDbArc
 50
0.000000000000007
 51
44.99999999998109
1001
_DIE112SSJYHX
1002
{
1000
comp_type
1000
DBL24
1000
material
1000
D-2
1000
thickness
1040
1.25
1000
mount
1000
SBP10
1000
mntlay
1000
DIE_SUB_PLATE
1002
}
  0
ARC
  5
281
330
2
100
AcDbEntity
  8
0
100
AcDbCircle
 10
-8.090065884569118
 20
4.524252127200764
 30
0.0
 40
0.03125
100
AcDbArc
 50
299.9999999999999
 51
60.00000000000284
  0
LINE
  5
282
330
2
100
AcDbEntity
  8
0
100
AcDbLine
 10
-8.001308809132272
 20
4.769446609406639
 30
0.0
 11
-8.083415590318939
 21
4.851553390593306
 31
0.0
  0
LINE
  5
283
330
2
100
AcDbEntity
  8
0
100
AcDbLine
 10
-9.104862199725606
 20
11.91599999999997
 30
0.0
 11
-9.104862199725606
 21
2.105037001685483
 31
0.0
  0
LINE
  5
284
330
2
100
AcDbEntity
  8
0
100
AcDbLine
 10
-9.054862199725609
 20
11.91599999999998
 30
0.0
 11
-9.054862199725609
 21
2.033629601348386
 31
0.0
  0
LINE
  5
285
330
2
100
AcDbEntity
  8
0
100
AcDbLine
 10
-8.229862199725606
 20
4.997999999999971
 30
0.0
 11
-8.229862199725599
 21
11.27519722692673
 31
0.0
  0
ARC
  5
286
330
2
100
AcDbEntity
  8
0
100
AcDbCircle
 10
-9.352362199725693
 20
1.586138852532367
 30
0.0
 40
0.4975
100
AcDbArc
 50
0.000000000000007
 51
35.00000000000365
1001
_DIE112SSJYHX
1002
{
1000
comp_type
1000
DBL24
1000
material
1000
D-2
1000
thickness
1040
1.25
1000
mount
1000
SBP10
1000
mntlay
1000
DIE_SUB_PLATE
1002
}
  0
LINE
  5
287
330
2
100
AcDbEntity
  8
0
  6
HIDDEN2
100
AcDbLine
 10
-8.261112199725577
 20
2.197999999999954
 30
0.0
 11
-8.261112199725606
 21
0.0729999999999738
 31
0.0
  0
LINE
  5
288
330
2
100
AcDbEntity
  8
0
  6
HIDDEN2
100
AcDbLine
 10
-8.448612199725577
 20
2.197999999999954
 30
0.0
 11
-8.448612199725606
 21
0.0729999999999738
 31
0.0
  0
LINE
  5
289
330
2
100
AcDbEntity
  8
0
100
AcDbLine
 10
-8.854862199725691
 20
1.586138852532367
 30
0.0
 11
-8.854862199725691
 21
0.2034999999999325
 31
0.0
  0
LINE
  5
28A
330
2
100
AcDbEntity
  8
0
  6
Continuous
100
AcDbLine
 10
-8.769508523765015
 20
0.1229999999999709
 30
0.0
 11
-8.854862199725606
 21
0.1229999999999727
 31
0.0
  0
ARC
  5
28B
330
2
100
AcDbEntity
  8
0
100
AcDbCircle
 10
-8.854862199725691
 20
0.1179999999999328
 30
0.0
 40
0.0855
100
AcDbArc
 50
328.2431361407129
 51
90.0
  0
POINT
  5
28C
330
2
100
AcDbEntity
  8
0
  6
ByBlock
100
AcDbPoint
 10
-8.854862199725606
 20
0.1229999999999727
 30
0.0
 50
180.0
  0
POINT
  5
28D
330
2
100
AcDbEntity
  8
0
  6
ByBlock
100
AcDbPoint
 10
-8.854862199725606
 20
0.1229999999999727
 30
0.0
 50
180.0
  0
POINT
  5
28E
330
2
100
AcDbEntity
  8
0
  6
ByBlock
100
AcDbPoint
 10
-8.854862199725606
 20
0.1229999999999727
 30
0.0
 50
180.0
  0
POINT
  5
28F
330
2
100
AcDbEntity
  8
0
  6
ByBlock
100
AcDbPoint
 10
-8.854862199725606
 20
0.1229999999999727
 30
0.0
 50
180.0
  0
LINE
  5
290
330
2
100
AcDbEntity
  8
0
100
AcDbLine
 10
-8.854862199725606
 20
0.1229999999999727
 30
0.0
 11
-8.854862199725599
 21
0.0729999999999738
 31
0.0
  0
ARC
  5
291
330
2
100
AcDbEntity
  8
0
  6
HIDDEN2
100
AcDbCircle
 10
-8.354862199725577
 20
2.197999999999954
 30
0.0
 40
0.09375
100
AcDbArc
 50
0.000000000000007
 51
180.0
  0
LINE
  5
292
330
2
100
AcDbEntity
  8
0
100
AcDbLine
 10
-8.944834057691654
 20
1.871493129617244
 30
0.0
 11
-9.104862199725464
 21
2.100037001685447
 31
0.0
  0
ARC
  5
293
330
2
100
AcDbEntity
  8
0
100
AcDbCircle
 10
-8.252815884569134
 20
4.430288371134697
 30
0.0
 40
0.03125
100
AcDbArc
 50
179.9999999999976
 51
299.9999999999993
  0
ARC
  5
294
330
2
100
AcDbEntity
  8
0
100
AcDbCircle
 10
-8.252815884569134
 20
4.618215883755905
 30
0.0
 40
0.03125
100
AcDbArc
 50
60.00000000000071
 51
180.0000000000026
  0
LINE
  5
295
330
2
100
AcDbEntity
  8
0
100
AcDbLine
 10
-8.2840621997256
 20
4.430768255661487
 30
0.0
 11
-8.284062199725614
 21
4.618695768264548
 31
0.0
  0
LINE
  5
296
330
2
100
AcDbEntity
  8
0
100
AcDbLine
 10
-9.054862199725609
 20
5.246506350946083
 30
0.0
 11
-9.104862199725606
 21
5.246506350946083
 31
0.0
  0
LINE
  5
297
330
2
100
AcDbEntity
  8
0
100
AcDbLine
 10
-9.054862199725609
 20
5.029999999999975
 30
0.0
 11
-9.104862199725606
 21
5.029999999999975
 31
0.0
  0
LINE
  5
298
330
2
100
AcDbEntity
  8
0
100
AcDbLine
 10
-8.989757699932472
 20
11.52519722692674
 30
0.0
 11
-8.989757699932472
 21
11.21872651447523
 31
0.0
  0
LINE
  5
299
330
2
100
AcDbEntity
  8
0
100
AcDbLine
 10
-8.229862199725599
 20
11.27519722692673
 30
0.0
 11
-8.479862199725606
 21
11.52519722692674
 31
0.0
  0
LINE
  5
29A
330
2
100
AcDbEntity
  8
0
  6
Continuous
100
AcDbLine
 10
-9.054862199725605
 20
10.26899235226182
 30
0.0
 11
-8.789542827848099
 21
10.00367298038432
 31
0.0
  0
LINE
  5
29B
330
2
100
AcDbEntity
  8
0
  6
Continuous
100
AcDbLine
 10
-9.045389111660175
 20
10.32457308806556
 30
0.0
 11
-8.757015915913517
 21
10.0361998923189
 31
0.0
  0
LINE
  5
29C
330
2
100
AcDbEntity
  8
0
  6
Continuous
100
AcDbLine
 10
-8.811957214652299
 20
9.92002135001054
 30
0.0
 11
-9.053438671224573
 21
9.855316588734905
 31
0.0
  0
LINE
  5
29D
330
2
100
AcDbEntity
  8
0
  6
Continuous
100
AcDbLine
 10
-8.800051538577581
 20
9.875588762001247
 30
0.0
 11
-9.041532995149854
 21
9.810884000725604
 31
0.0
  0
ARC
  5
29E
330
2
100
AcDbEntity
  8
0
  6
Continuous
100
AcDbCircle
 10
-8.824898166907435
 20
9.96831764132499
 30
0.0
 40
0.05
100
AcDbArc
 50
284.9999999999996
 51
44.99999999999809
  0
ARC
  5
29F
330
2
100
AcDbEntity
  8
0
  6
Continuous
100
AcDbCircle
 10
-8.824898166907435
 20
9.96831764132499
 30
0.0
 40
0.096
100
AcDbArc
 50
285.0000000000007
 51
44.99999999999809
  0
LINE
  5
2A0
330
2
100
AcDbEntity
  8
0
  6
Continuous
100
AcDbLine
 10
-9.053438671224573
 20
9.855316588734933
 30
0.0
 11
-9.041532995149868
 21
9.81088400072564
 31
0.0
  0
LINE
  5
2A1
330
2
100
AcDbEntity
  8
0
100
AcDbLine
 10
-8.229862199725599
 20
11.09099999999997
 30
0.0
 11
-8.923507699932483
 21
11.09099999999998
 31
0.0
  0
ARC
  5
2A2
330
2
100
AcDbEntity
  8
0
  6
Continuous
100
AcDbCircle
 10
-9.012862199725593
 20
10.35710000000014
 30
0.0
 40
0.046
100
AcDbArc
 50
204.0706146225166
 51
224.9999999999999
  0
ARC
  5
2A3
330
2
100
AcDbEntity
  8
0
  6
Continuous
100
AcDbCircle
 10
-8.990126639229366
 20
10.36350162342253
 30
0.0
 40
0.1148432675996877
100
AcDbArc
 50
188.4365649615204
 51
224.8347775975267
  0
ARC
  5
2A4
330
2
100
AcDbEntity
  8
0
100
AcDbCircle
 10
-9.079757699932483
 20
11.09099999999998
 30
0.0
 40
0.15625
100
AcDbArc
 50
279.168078897781
 51
54.83030707613973
  0
LINE
  5
2A5
330
2
100
AcDbEntity
  8
0
100
AcDbLine
 10
-9.154862199725603
 20
11.96599999999998
 30
0.0
 11
-9.729862199725606
 21
11.96599999999998
 31
0.0
  0
LINE
  5
2A6
330
2
100
AcDbEntity
  8
0
100
AcDbLine
 10
-9.15486219972561
 20
12.01599999999997
 30
0.0
 11
-9.729862199725606
 21
12.01599999999997
 31
0.0
  0
LINE
  5
2A7
330
2
100
AcDbEntity
  8
0
100
AcDbLine
 10
-8.479862199725606
 20
11.52519722692674
 30
0.0
 11
-8.989757699932472
 21
11.52519722692674
 31
0.0
  0
LINE
  5
2A8
330
2
100
AcDbEntity
  8
0
100
AcDbLine
 10
-8.429862199725609
 20
11.47519722692674
 30
0.0
 11
-8.989757699932472
 21
11.47519722692674
 31
0.0
  0
ARC
  5
2A9
330
2
100
AcDbEntity
  8
0
100
AcDbCircle
 10
-9.154862199725603
 20
11.91599999999997
 30
0.0
 40
0.05
100
AcDbArc
 50
0.000000000000007
 51
90.0
  0
ARC
  5
2AA
330
2
100
AcDbEntity
  8
0
100
AcDbCircle
 10
-9.15486219972561
 20
11.91599999999998
 30
0.0
 40
0.1
100
AcDbArc
 50
0.000000000000007
 51
90.0
  0
LINE
  5
2AB
330
2
100
AcDbEntity
  8
0
100
AcDbLine
 10
-9.729862199725606
 20
12.01599999999997
 30
0.0
 11
-9.729862199725606
 21
11.96599999999998
 31
0.0
  0
LINE
  5
2AC
330
2
100
AcDbEntity
  8
0
  6
Continuous
100
AcDbLine
 10
-1.615256426651637
 20
11.71599999999995
 30
0.0
 11
-1.4847435733484
 21
11.71599999999995
 31
0.0
  0
LINE
  5
2AD
330
2
100
AcDbEntity
  8
0
  6
Continuous
100
AcDbLine
 10
-1.4847435733484
 20
11.71599999999995
 30
0.0
 11
-1.4847435733484
 21
11.46599999999995
 31
0.0
  0
LINE
  5
2AE
330
2
100
AcDbEntity
  8
0
  6
Continuous
100
AcDbLine
 10
-1.4847435733484
 20
11.46599999999995
 30
0.0
 11
-1.615256426651637
 21
11.46599999999995
 31
0.0
  0
LINE
  5
2AF
330
2
100
AcDbEntity
  8
0
  6
Continuous
100
AcDbLine
 10
-1.615256426651637
 20
11.46599999999995
 30
0.0
 11
-1.615256426651637
 21
11.71599999999995
 31
0.0
  0
LINE
  5
2B0
330
2
100
AcDbEntity
  8
0
  6
Continuous
100
AcDbLine
 10
1.4847435733484
 20
11.71599999999999
 30
0.0
 11
1.615256426651637
 21
11.71599999999999
 31
0.0
  0
LINE
  5
2B1
330
2
100
AcDbEntity
  8
0
  6
Continuous
100
AcDbLine
 10
1.615256426651637
 20
11.71599999999999
 30
0.0
 11
1.615256426651637
 21
11.46599999999999
 31
0.0
  0
LINE
  5
2B2
330
2
100
AcDbEntity
  8
0
  6
Continuous
100
AcDbLine
 10
1.615256426651637
 20
11.46599999999999
 30
0.0
 11
1.4847435733484
 21
11.46599999999999
 31
0.0
  0
LINE
  5
2B3
330
2
100
AcDbEntity
  8
0
  6
Continuous
100
AcDbLine
 10
1.4847435733484
 20
11.46599999999999
 30
0.0
 11
1.4847435733484
 21
11.71599999999999
 31
0.0
  0
LINE
  5
2B4
330
2
100
AcDbEntity
  8
0
100
AcDbLine
 10
8.776549286252433
 20
4.403225077265663
 30
0.0
 11
8.613799286219667
 21
4.497188833332501
 31
0.0
  0
LINE
  5
2B5
330
2
100
AcDbEntity
  8
0
100
AcDbLine
 10
8.776549286219684
 20
4.645279177624172
 30
0.0
 11
8.613799286219667
 21
4.551315421069031
 31
0.0
  0
ARC
  5
2B6
330
2
100
AcDbEntity
  8
0
100
AcDbCircle
 10
8.267452834423231
 20
5.206874548139506
 30
0.0
 40
0.5025
100
AcDbArc
 50
314.9999999999999
 51
0.0
  0
LINE
  5
2B8
330
2
100
AcDbEntity
  8
0
100
AcDbLine
 10
8.594220601376172
 20
1.020260584575221
 30
0.0
 11
8.744220601376149
 21
1.043000000000001
 31
0.0
  0
ARC
  5
2B9
330
2
100
AcDbEntity
  8
0
100
AcDbCircle
 10
8.594220601376115
 20
1.155499999999956
 30
0.0
 40
0.1875
100
AcDbArc
 50
216.8698976458378
 51
323.130102354154
  0
LINE
  5
2BA
330
2
100
AcDbEntity
  8
0
100
AcDbLine
 10
8.744220601376036
 20
1.042999999999887
 30
0.0
 11
8.594220601376058
 21
1.217999999999842
 31
0.0
  0
ARC
  5
2BB
330
2
100
AcDbEntity
  8
0
100
AcDbCircle
 10
8.394220601376155
 20
1.442328618174591
 30
0.0
 40
0.1874999999999982
100
AcDbArc
 50
0.0
 51
180.0
  0
ARC
  5
2BC
330
2
100
AcDbEntity
  8
0
100
AcDbCircle
 10
7.891720601376242
 20
1.586138852532367
 30
0.0
 40
0.4975
100
AcDbArc
 50
144.9999999999964
 51
180.0
1001
_DIE112SSJYHX
1002
{
1000
comp_type
1000
DBL24
1000
material
1000
D-2
1000
thickness
1040
1.25
1000
mount
1000
SBP10
1000
mntlay
1000
DIE_SUB_PLATE
1002
}
  0
LINE
  5
2BE
330
2
100
AcDbEntity
  8
0
  6
HIDDEN2
100
AcDbLine
 10
7.800470601376155
 20
0.0729999999999738
 30
0.0
 11
7.800470601376127
 21
1.635499999999952
 31
0.0
  0
LINE
  5
2BF
330
2
100
AcDbEntity
  8
0
  6
HIDDEN2
100
AcDbLine
 10
7.987970601376148
 20
0.0729999999999738
 30
0.0
 11
7.987970601376127
 21
1.635499999999952
 31
0.0
  0
ARC
  5
2C0
330
2
100
AcDbEntity
  8
0
100
AcDbCircle
 10
8.394220601376155
 20
1.442328618174591
 30
0.0
 40
0.1874999999999982
100
AcDbArc
 50
0.0
 51
180.0
  0
LINE
  5
2C1
330
2
100
AcDbEntity
  8
0
100
AcDbLine
 10
7.394220601376013
 20
0.2034999999999325
 30
0.0
 11
7.39422060137624
 21
1.586138852532367
 31
0.0
  0
LINE
  5
2C5
330
2
100
AcDbEntity
  8
0
100
AcDbLine
 10
8.194220601376195
 20
0.7452605845752434
 30
0.0
 11
8.344220601376172
 21
0.7680000000000238
 31
0.0
  0
ARC
  5
2C6
330
2
100
AcDbEntity
  8
0
100
AcDbCircle
 10
8.194220601376138
 20
0.8804999999999783
 30
0.0
 40
0.1875
100
AcDbArc
 50
216.8698976458378
 51
323.130102354154
  0
LINE
  5
2C7
330
2
100
AcDbEntity
  8
0
100
AcDbLine
 10
8.344220601376058
 20
0.7679999999999101
 30
0.0
 11
8.194220601376081
 21
0.9429999999999783
 31
0.0
  0
LINE
  5
2C8
330
2
100
AcDbEntity
  8
0
100
AcDbLine
 10
8.194220601376195
 20
0.7452605845752434
 30
0.0
 11
8.044220601376161
 21
0.7679999999999101
 31
0.0
  0
LINE
  5
2C9
330
2
100
AcDbEntity
  8
0
100
AcDbLine
 10
8.194220601376195
 20
0.7452605845752434
 30
0.0
 11
8.194220601376081
 21
0.9429999999998646
 31
0.0
  0
LINE
  5
2CA
330
2
100
AcDbEntity
  8
0
100
AcDbLine
 10
8.194220601376081
 20
0.9429999999999783
 30
0.0
 11
8.044220601376104
 21
0.7679999999999101
 31
0.0
  0
LINE
  5
2CB
330
2
100
AcDbEntity
  8
0
100
AcDbLine
 10
8.521720601376153
 20
1.317328618174583
 30
0.0
 11
8.266720601376157
 21
1.317328618174583
 31
0.0
  0
ARC
  5
2CC
330
2
100
AcDbEntity
  8
0
100
AcDbCircle
 10
8.266720601376157
 20
1.377328618174586
 30
0.0
 40
0.06
100
AcDbArc
 50
180.0000000000001
 51
269.9999999999996
  0
POINT
  5
2CD
330
2
100
AcDbEntity
  8
0
  6
ByBlock
100
AcDbPoint
 10
8.521720601376153
 20
1.317328618174583
 30
0.0
  0
ARC
  5
2CE
330
2
100
AcDbEntity
  8
0
100
AcDbCircle
 10
8.521720601376153
 20
1.377328618174586
 30
0.0
 40
0.06
100
AcDbArc
 50
270.0000000000002
 51
359.9999999999999
  0
LINE
  5
2CF
330
2
100
AcDbEntity
  8
0
100
AcDbLine
 10
8.594220601376172
 20
1.020260584575221
 30
0.0
 11
8.444220601376138
 21
1.042999999999887
 31
0.0
  0
LINE
  5
2D0
330
2
100
AcDbEntity
  8
0
100
AcDbLine
 10
8.594220601376058
 20
1.217999999999842
 30
0.0
 11
8.444220601376081
 21
1.042999999999887
 31
0.0
  0
LINE
  5
2D1
330
2
100
AcDbEntity
  8
0
100
AcDbLine
 10
8.594220601376172
 20
1.020260584575221
 30
0.0
 11
8.594220601376058
 21
1.217999999999842
 31
0.0
  0
LINE
  5
2D2
330
2
100
AcDbEntity
  8
0
100
AcDbLine
 10
8.39422060137624
 20
3.487235042592939
 30
0.0
 11
8.394952834423457
 21
4.417660985765945
 31
0.0
  0
LINE
  5
2D3
330
2
100
AcDbEntity
  8
0
100
AcDbLine
 10
7.484192459342488
 20
1.871493129617038
 30
0.0
 11
8.212920525775978
 21
2.912224665151047
 31
0.0
  0
ARC
  5
2D4
330
2
100
AcDbEntity
  8
0
  6
HIDDEN2
100
AcDbCircle
 10
7.894220601376127
 20
1.635499999999952
 30
0.0
 40
0.09375
100
AcDbArc
 50
0.0
 51
180.0
  0
POINT
  5
2D5
330
2
100
AcDbEntity
  8
0
  6
ByBlock
100
AcDbPoint
 10
7.394220601376155
 20
1.747999999999969
 30
0.0
  0
POINT
  5
2D6
330
2
100
AcDbEntity
  8
0
  6
ByBlock
100
AcDbPoint
 10
8.394220601376155
 20
1.629828618174587
 30
0.0
  0
POINT
  5
2D7
330
2
100
AcDbEntity
  8
0
  6
ByBlock
100
AcDbPoint
 10
8.394220601376155
 20
1.629828618174587
 30
0.0
  0
POINT
  5
2D8
330
2
100
AcDbEntity
  8
0
  6
ByBlock
100
AcDbPoint
 10
8.394220601376155
 20
1.629828618174587
 30
0.0
  0
POINT
  5
2D9
330
2
100
AcDbEntity
  8
0
  6
ByBlock
100
AcDbPoint
 10
8.394220601376155
 20
1.629828618174587
 30
0.0
  0
ARC
  5
2DA
330
2
100
AcDbEntity
  8
0
100
AcDbCircle
 10
7.391720601376228
 20
3.487235042592939
 30
0.0
 40
1.002500000000012
100
AcDbArc
 50
325.0000000000025
 51
359.9999999999998
1001
_DIE112SSJYHX
1002
{
1000
comp_type
1000
DBL24
1000
material
1000
D-2
1000
thickness
1040
1.25
1000
mount
1000
SBP10
1000
mntlay
1000
DIE_SUB_PLATE
1002
}
  0
ARC
  5
2DB
330
2
100
AcDbEntity
  8
0
100
AcDbCircle
 10
8.892452834423459
 20
4.417660985765945
 30
0.0
 40
0.4975000000000007
100
AcDbArc
 50
135.0000000000189
 51
180.0
1001
_DIE112SSJYHX
1002
{
1000
comp_type
1000
DBL24
1000
material
1000
D-2
1000
thickness
1040
1.25
1000
mount
1000
SBP10
1000
mntlay
1000
DIE_SUB_PLATE
1002
}
  0
ARC
  5
2DC
330
2
100
AcDbEntity
  8
0
100
AcDbCircle
 10
8.629424286219667
 20
4.524252127200764
 30
0.0
 40
0.03125
100
AcDbArc
 50
119.9999999999971
 51
240.0
  0
LINE
  5
2DD
330
2
100
AcDbEntity
  8
0
100
AcDbLine
 10
8.540667210782821
 20
4.769446609406639
 30
0.0
 11
8.622773991969488
 21
4.851553390593306
 31
0.0
  0
LINE
  5
2DE
330
2
100
AcDbEntity
  8
0
100
AcDbLine
 10
9.644220601376155
 20
11.91599999999997
 30
0.0
 11
9.644220601376155
 21
2.105037001685483
 31
0.0
  0
LINE
  5
2DF
330
2
100
AcDbEntity
  8
0
100
AcDbLine
 10
9.594220601376158
 20
11.91599999999998
 30
0.0
 11
9.594220601376158
 21
2.033629601348386
 31
0.0
  0
LINE
  5
2E0
330
2
100
AcDbEntity
  8
0
100
AcDbLine
 10
8.769220601376155
 20
4.997999999999971
 30
0.0
 11
8.769220601376148
 21
11.27519722692673
 31
0.0
  0
ARC
  5
2E1
330
2
100
AcDbEntity
  8
0
100
AcDbCircle
 10
9.891720601376242
 20
1.586138852532367
 30
0.0
 40
0.4975
100
AcDbArc
 50
144.9999999999964
 51
180.0
1001
_DIE112SSJYHX
1002
{
1000
comp_type
1000
DBL24
1000
material
1000
D-2
1000
thickness
1040
1.25
1000
mount
1000
SBP10
1000
mntlay
1000
DIE_SUB_PLATE
1002
}
  0
LINE
  5
2E2
330
2
100
AcDbEntity
  8
0
  6
HIDDEN2
100
AcDbLine
 10
8.800470601376127
 20
2.197999999999954
 30
0.0
 11
8.800470601376155
 21
0.0729999999999738
 31
0.0
  0
LINE
  5
2E3
330
2
100
AcDbEntity
  8
0
  6
HIDDEN2
100
AcDbLine
 10
8.987970601376127
 20
2.197999999999954
 30
0.0
 11
8.987970601376155
 21
0.0729999999999738
 31
0.0
  0
LINE
  5
2E4
330
2
100
AcDbEntity
  8
0
100
AcDbLine
 10
9.39422060137624
 20
1.586138852532367
 30
0.0
 11
9.39422060137624
 21
0.2034999999999325
 31
0.0
  0
ARC
  5
2EC
330
2
100
AcDbEntity
  8
0
  6
HIDDEN2
100
AcDbCircle
 10
8.894220601376127
 20
2.197999999999954
 30
0.0
 40
0.09375
100
AcDbArc
 50
0.0
 51
180.0
  0
LINE
  5
2ED
330
2
100
AcDbEntity
  8
0
100
AcDbLine
 10
9.484192459342204
 20
1.871493129617244
 30
0.0
 11
9.644220601376013
 21
2.100037001685447
 31
0.0
  0
ARC
  5
2EE
330
2
100
AcDbEntity
  8
0
100
AcDbCircle
 10
8.792174286219684
 20
4.430288371134697
 30
0.0
 40
0.03125
100
AcDbArc
 50
240.0000000000007
 51
0.0000000000024427
  0
ARC
  5
2EF
330
2
100
AcDbEntity
  8
0
100
AcDbCircle
 10
8.792174286219684
 20
4.618215883755905
 30
0.0
 40
0.03125
100
AcDbArc
 50
359.9999999999974
 51
119.9999999999993
  0
LINE
  5
2F0
330
2
100
AcDbEntity
  8
0
100
AcDbLine
 10
8.823420601376149
 20
4.430768255661487
 30
0.0
 11
8.823420601376164
 21
4.618695768264548
 31
0.0
  0
LINE
  5
2F1
330
2
100
AcDbEntity
  8
0
100
AcDbLine
 10
9.594220601376158
 20
5.246506350946083
 30
0.0
 11
9.644220601376155
 21
5.246506350946083
 31
0.0
  0
LINE
  5
2F2
330
2
100
AcDbEntity
  8
0
100
AcDbLine
 10
9.594220601376158
 20
5.029999999999975
 30
0.0
 11
9.644220601376155
 21
5.029999999999975
 31
0.0
  0
LINE
  5
2F3
330
2
100
AcDbEntity
  8
0
100
AcDbLine
 10
9.529116101583021
 20
11.52519722692674
 30
0.0
 11
9.529116101583021
 21
11.21872651447523
 31
0.0
  0
LINE
  5
2F4
330
2
100
AcDbEntity
  8
0
100
AcDbLine
 10
8.769220601376148
 20
11.27519722692673
 30
0.0
 11
9.019220601376155
 21
11.52519722692674
 31
0.0
  0
LINE
  5
2F5
330
2
100
AcDbEntity
  8
0
  6
Continuous
100
AcDbLine
 10
9.594220601376154
 20
10.26899235226182
 30
0.0
 11
9.328901229498648
 21
10.00367298038432
 31
0.0
  0
LINE
  5
2F6
330
2
100
AcDbEntity
  8
0
  6
Continuous
100
AcDbLine
 10
9.584747513310724
 20
10.32457308806556
 30
0.0
 11
9.296374317564066
 21
10.0361998923189
 31
0.0
  0
LINE
  5
2F7
330
2
100
AcDbEntity
  8
0
  6
Continuous
100
AcDbLine
 10
9.351315616302848
 20
9.92002135001054
 30
0.0
 11
9.592797072875122
 21
9.855316588734905
 31
0.0
  0
LINE
  5
2F8
330
2
100
AcDbEntity
  8
0
  6
Continuous
100
AcDbLine
 10
9.33940994022813
 20
9.875588762001247
 30
0.0
 11
9.580891396800404
 21
9.810884000725604
 31
0.0
  0
ARC
  5
2F9
330
2
100
AcDbEntity
  8
0
  6
Continuous
100
AcDbCircle
 10
9.364256568557984
 20
9.96831764132499
 30
0.0
 40
0.05
100
AcDbArc
 50
135.0000000000019
 51
255.0000000000004
  0
ARC
  5
2FA
330
2
100
AcDbEntity
  8
0
  6
Continuous
100
AcDbCircle
 10
9.364256568557984
 20
9.96831764132499
 30
0.0
 40
0.096
100
AcDbArc
 50
135.0000000000019
 51
254.9999999999993
  0
LINE
  5
2FB
330
2
100
AcDbEntity
  8
0
  6
Continuous
100
AcDbLine
 10
9.592797072875122
 20
9.855316588734933
 30
0.0
 11
9.580891396800418
 21
9.81088400072564
 31
0.0
  0
LINE
  5
2FC
330
2
100
AcDbEntity
  8
0
100
AcDbLine
 10
8.769220601376148
 20
11.09099999999997
 30
0.0
 11
9.462866101583032
 21
11.09099999999998
 31
0.0
  0
ARC
  5
2FD
330
2
100
AcDbEntity
  8
0
  6
Continuous
100
AcDbCircle
 10
9.552220601376142
 20
10.35710000000014
 30
0.0
 40
0.046
100
AcDbArc
 50
315.0000000000002
 51
335.9293853774835
  0
ARC
  5
2FE
330
2
100
AcDbEntity
  8
0
  6
Continuous
100
AcDbCircle
 10
9.529485040879916
 20
10.36350162342253
 30
0.0
 40
0.1148432675996877
100
AcDbArc
 50
315.1652224024733
 51
351.5634350384797
  0
ARC
  5
2FF
330
2
100
AcDbEntity
  8
0
100
AcDbCircle
 10
9.619116101583032
 20
11.09099999999998
 30
0.0
 40
0.15625
100
AcDbArc
 50
125.1696929238603
 51
260.831921102219
  0
LINE
  5
300
330
2
100
AcDbEntity
  8
0
100
AcDbLine
 10
9.694220601376152
 20
11.96599999999998
 30
0.0
 11
10.26922060137616
 21
11.96599999999998
 31
0.0
  0
LINE
  5
301
330
2
100
AcDbEntity
  8
0
100
AcDbLine
 10
9.694220601376159
 20
12.01599999999997
 30
0.0
 11
10.26922060137616
 21
12.01599999999997
 31
0.0
  0
LINE
  5
302
330
2
100
AcDbEntity
  8
0
100
AcDbLine
 10
9.019220601376155
 20
11.52519722692674
 30
0.0
 11
9.529116101583021
 21
11.52519722692674
 31
0.0
  0
LINE
  5
303
330
2
100
AcDbEntity
  8
0
100
AcDbLine
 10
8.969220601376158
 20
11.47519722692674
 30
0.0
 11
9.529116101583021
 21
11.47519722692674
 31
0.0
  0
ARC
  5
304
330
2
100
AcDbEntity
  8
0
100
AcDbCircle
 10
9.694220601376152
 20
11.91599999999997
 30
0.0
 40
0.05
100
AcDbArc
 50
90.0
 51
180.0
  0
ARC
  5
305
330
2
100
AcDbEntity
  8
0
100
AcDbCircle
 10
9.694220601376159
 20
11.91599999999998
 30
0.0
 40
0.1
100
AcDbArc
 50
90.0
 51
180.0
  0
LINE
  5
306
330
2
100
AcDbEntity
  8
0
100
AcDbLine
 10
10.26922060137616
 20
12.01599999999997
 30
0.0
 11
10.26922060137616
 21
11.96599999999998
 31
0.0
  0
LINE
  5
307
330
2
100
AcDbEntity
  8
0
100
AcDbLine
 10
-8.042362199725606
 20
1.377328618174586
 30
0.0
 11
-8.041110002775046
 21
1.74347841297651
 31
0.0
  0
LINE
  5
308
330
2
100
AcDbEntity
  8
0
100
AcDbLine
 10
-8.041110002775046
 20
1.74347841297651
 30
0.0
 11
-8.03824357507489
 21
1.831155638876561
 31
0.0
  0
LINE
  5
309
330
2
100
AcDbEntity
  8
0
100
AcDbLine
 10
-8.03824357507489
 20
1.831155638876561
 30
0.0
 11
-8.033974005274846
 21
1.911230283776487
 31
0.0
  0
LINE
  5
30A
330
2
100
AcDbEntity
  8
0
100
AcDbLine
 10
-8.033974005274846
 20
1.911230283776487
 30
0.0
 11
-8.028594350275004
 21
1.984392941076404
 31
0.0
  0
LINE
  5
30B
330
2
100
AcDbEntity
  8
0
100
AcDbLine
 10
-8.028594350275004
 20
1.984392941076404
 30
0.0
 11
-8.02232515477505
 21
2.05125784047652
 31
0.0
  0
LINE
  5
30C
330
2
100
AcDbEntity
  8
0
100
AcDbLine
 10
-8.02232515477505
 20
2.05125784047652
 30
0.0
 11
-8.015332187174924
 21
2.11238556737646
 31
0.0
  0
LINE
  5
30D
330
2
100
AcDbEntity
  8
0
100
AcDbLine
 10
-8.015332187174924
 20
2.11238556737646
 30
0.0
 11
-8.007742276774994
 21
2.168260034176566
 31
0.0
  0
LINE
  5
30E
330
2
100
AcDbEntity
  8
0
100
AcDbLine
 10
-8.007742276774994
 20
2.168260034176566
 30
0.0
 11
-7.999650839075063
 21
2.219311956276552
 31
0.0
  0
LINE
  5
30F
330
2
100
AcDbEntity
  8
0
100
AcDbLine
 10
-7.999650839075063
 20
2.219311956276552
 30
0.0
 11
-7.991131305075047
 21
2.26590559817657
 31
0.0
  0
LINE
  5
310
330
2
100
AcDbEntity
  8
0
100
AcDbLine
 10
-7.991131305075047
 20
2.26590559817657
 30
0.0
 11
-7.982230426074981
 21
2.308392250376411
 31
0.0
  0
LINE
  5
311
330
2
100
AcDbEntity
  8
0
100
AcDbLine
 10
-7.982230426074981
 20
2.308392250376411
 30
0.0
 11
-7.972978236375017
 21
2.347066008976409
 31
0.0
  0
LINE
  5
312
330
2
100
AcDbEntity
  8
0
100
AcDbLine
 10
-7.972978236375017
 20
2.347066008976409
 30
0.0
 11
-7.963388810475014
 21
2.382173799276526
 31
0.0
  0
LINE
  5
313
330
2
100
AcDbEntity
  8
0
100
AcDbLine
 10
-7.963388810475014
 20
2.382173799276526
 30
0.0
 11
-7.953458047075007
 21
2.413925059676441
 31
0.0
  0
LINE
  5
314
330
2
100
AcDbEntity
  8
0
100
AcDbLine
 10
-7.953458047075007
 20
2.413925059676441
 30
0.0
 11
-7.943164252574949
 21
2.442481908776582
 31
0.0
  0
LINE
  5
315
330
2
100
AcDbEntity
  8
0
100
AcDbLine
 10
-7.943164252574949
 20
2.442481908776582
 30
0.0
 11
-7.932457900874912
 21
2.467970441876442
 31
0.0
  0
LINE
  5
316
330
2
100
AcDbEntity
  8
0
100
AcDbLine
 10
-7.932457900874912
 20
2.467970441876442
 30
0.0
 11
-7.92124652527497
 21
2.490474375976529
 31
0.0
  0
LINE
  5
317
330
2
100
AcDbEntity
  8
0
100
AcDbLine
 10
-7.92124652527497
 20
2.490474375976529
 30
0.0
 11
-7.909420880874965
 21
2.509932307376513
 31
0.0
  0
LINE
  5
318
330
2
100
AcDbEntity
  8
0
100
AcDbLine
 10
-7.909420880874965
 20
2.509932307376513
 30
0.0
 11
-7.896843031775067
 21
2.526126267376522
 31
0.0
  0
LINE
  5
319
330
2
100
AcDbEntity
  8
0
100
AcDbLine
 10
-7.896843031775067
 20
2.526126267376522
 30
0.0
 11
-7.88336796287496
 21
2.538605805476546
 31
0.0
  0
LINE
  5
31A
330
2
100
AcDbEntity
  8
0
100
AcDbLine
 10
-7.88336796287496
 20
2.538605805476546
 30
0.0
 11
-7.86921624107487
 21
2.546510903376539
 31
0.0
  0
LINE
  5
31B
330
2
100
AcDbEntity
  8
0
100
AcDbLine
 10
-7.86921624107487
 20
2.546510903376539
 30
0.0
 11
-7.855093311674924
 21
2.549224003176615
 31
0.0
  0
LINE
  5
31C
330
2
100
AcDbEntity
  8
0
100
AcDbLine
 10
-7.855093311674924
 20
2.549224003176615
 30
0.0
 11
-7.840895780374982
 21
2.546786956776597
 31
0.0
  0
LINE
  5
31D
330
2
100
AcDbEntity
  8
0
100
AcDbLine
 10
-7.840895780374982
 20
2.546786956776597
 30
0.0
 11
-7.826653654274939
 21
2.539096936376492
 31
0.0
  0
LINE
  5
31E
330
2
100
AcDbEntity
  8
0
100
AcDbLine
 10
-7.826653654274939
 20
2.539096936376492
 30
0.0
 11
-7.81310756837485
 21
2.526783372976407
 31
0.0
  0
LINE
  5
31F
330
2
100
AcDbEntity
  8
0
100
AcDbLine
 10
-7.81310756837485
 20
2.526783372976407
 30
0.0
 11
-7.800445901775053
 21
2.510681044676513
 31
0.0
  0
LINE
  5
320
330
2
100
AcDbEntity
  8
0
100
AcDbLine
 10
-7.800445901775053
 20
2.510681044676513
 30
0.0
 11
-7.788549691875065
 21
2.491278693576415
 31
0.0
  0
LINE
  5
321
330
2
100
AcDbEntity
  8
0
100
AcDbLine
 10
-7.788549691875065
 20
2.491278693576415
 30
0.0
 11
-7.777276750974867
 21
2.468802209376573
 31
0.0
  0
LINE
  5
322
330
2
100
AcDbEntity
  8
0
100
AcDbLine
 10
-7.777276750974867
 20
2.468802209376573
 30
0.0
 11
-7.766516937975045
 21
2.443321751476443
 31
0.0
  0
LINE
  5
323
330
2
100
AcDbEntity
  8
0
100
AcDbLine
 10
-7.766516937975045
 20
2.443321751476443
 30
0.0
 11
-7.756177394675039
 21
2.414761808576596
 31
0.0
  0
LINE
  5
324
330
2
100
AcDbEntity
  8
0
100
AcDbLine
 10
-7.756177394675039
 20
2.414761808576596
 30
0.0
 11
-7.746205748274921
 21
2.382995059576498
 31
0.0
  0
LINE
  5
325
330
2
100
AcDbEntity
  8
0
100
AcDbLine
 10
-7.746205748274921
 20
2.382995059576498
 30
0.0
 11
-7.736579860274848
 21
2.347862359176471
 31
0.0
  0
LINE
  5
326
330
2
100
AcDbEntity
  8
0
100
AcDbLine
 10
-7.736579860274848
 20
2.347862359176471
 30
0.0
 11
-7.727294864574848
 21
2.309155018076464
 31
0.0
  0
LINE
  5
327
330
2
100
AcDbEntity
  8
0
100
AcDbLine
 10
-7.727294864574848
 20
2.309155018076464
 30
0.0
 11
-7.718364370274973
 21
2.266626791876544
 31
0.0
  0
LINE
  5
328
330
2
100
AcDbEntity
  8
0
100
AcDbLine
 10
-7.718364370274973
 20
2.266626791876544
 30
0.0
 11
-7.709818311274891
 21
2.219985305676456
 31
0.0
  0
LINE
  5
329
330
2
100
AcDbEntity
  8
0
100
AcDbLine
 10
-7.709818311274891
 20
2.219985305676456
 30
0.0
 11
-7.701702866874999
 21
2.168877662876522
 31
0.0
  0
LINE
  5
32A
330
2
100
AcDbEntity
  8
0
100
AcDbLine
 10
-7.701702866874999
 20
2.168877662876522
 30
0.0
 11
-7.694091526075059
 21
2.112940624576478
 31
0.0
  0
LINE
  5
32B
330
2
100
AcDbEntity
  8
0
100
AcDbLine
 10
-7.694091526075059
 20
2.112940624576478
 30
0.0
 11
-7.687079602174951
 21
2.051742866876449
 31
0.0
  0
LINE
  5
32C
330
2
100
AcDbEntity
  8
0
100
AcDbLine
 10
-7.687079602174951
 20
2.051742866876449
 30
0.0
 11
-7.680793965174932
 21
1.984799814376512
 31
0.0
  0
LINE
  5
32D
330
2
100
AcDbEntity
  8
0
100
AcDbLine
 10
-7.680793965174932
 20
1.984799814376512
 30
0.0
 11
-7.675400606974851
 21
1.911550791076589
 31
0.0
  0
LINE
  5
32E
330
2
100
AcDbEntity
  8
0
100
AcDbLine
 10
-7.675400606974851
 20
1.911550791076589
 30
0.0
 11
-7.671120355974896
 21
1.831380101876556
 31
0.0
  0
LINE
  5
32F
330
2
100
AcDbEntity
  8
0
100
AcDbLine
 10
-7.671120355974896
 20
1.831380101876556
 30
0.0
 11
-7.668246839575037
 21
1.743596414776556
 31
0.0
  0
LINE
  5
330
330
2
100
AcDbEntity
  8
0
100
AcDbLine
 10
-7.668246839575037
 20
1.743596414776556
 30
0.0
 11
-7.667362199725606
 21
1.377328618174586
 31
0.0
  0
LINE
  5
331
330
2
100
AcDbEntity
  8
0
100
AcDbLine
 10
8.581720601376155
 20
1.377328618174586
 30
0.0
 11
8.580468404425595
 21
1.74347841297651
 31
0.0
  0
LINE
  5
332
330
2
100
AcDbEntity
  8
0
100
AcDbLine
 10
8.580468404425595
 20
1.74347841297651
 30
0.0
 11
8.57760197672544
 21
1.831155638876561
 31
0.0
  0
LINE
  5
333
330
2
100
AcDbEntity
  8
0
100
AcDbLine
 10
8.57760197672544
 20
1.831155638876561
 30
0.0
 11
8.573332406925395
 21
1.911230283776487
 31
0.0
  0
LINE
  5
334
330
2
100
AcDbEntity
  8
0
100
AcDbLine
 10
8.573332406925395
 20
1.911230283776487
 30
0.0
 11
8.567952751925553
 21
1.984392941076404
 31
0.0
  0
LINE
  5
335
330
2
100
AcDbEntity
  8
0
100
AcDbLine
 10
8.567952751925553
 20
1.984392941076404
 30
0.0
 11
8.561683556425599
 21
2.05125784047652
 31
0.0
  0
LINE
  5
336
330
2
100
AcDbEntity
  8
0
100
AcDbLine
 10
8.561683556425599
 20
2.05125784047652
 30
0.0
 11
8.554690588825473
 21
2.11238556737646
 31
0.0
  0
LINE
  5
337
330
2
100
AcDbEntity
  8
0
100
AcDbLine
 10
8.554690588825473
 20
2.11238556737646
 30
0.0
 11
8.547100678425544
 21
2.168260034176566
 31
0.0
  0
LINE
  5
338
330
2
100
AcDbEntity
  8
0
100
AcDbLine
 10
8.547100678425544
 20
2.168260034176566
 30
0.0
 11
8.539009240725612
 21
2.219311956276552
 31
0.0
  0
LINE
  5
339
330
2
100
AcDbEntity
  8
0
100
AcDbLine
 10
8.539009240725612
 20
2.219311956276552
 30
0.0
 11
8.530489706725597
 21
2.26590559817657
 31
0.0
  0
LINE
  5
33A
330
2
100
AcDbEntity
  8
0
100
AcDbLine
 10
8.530489706725597
 20
2.26590559817657
 30
0.0
 11
8.52158882772553
 21
2.308392250376411
 31
0.0
  0
LINE
  5
33B
330
2
100
AcDbEntity
  8
0
100
AcDbLine
 10
8.52158882772553
 20
2.308392250376411
 30
0.0
 11
8.512336638025566
 21
2.347066008976409
 31
0.0
  0
LINE
  5
33C
330
2
100
AcDbEntity
  8
0
100
AcDbLine
 10
8.512336638025566
 20
2.347066008976409
 30
0.0
 11
8.502747212125563
 21
2.382173799276526
 31
0.0
  0
LINE
  5
33D
330
2
100
AcDbEntity
  8
0
100
AcDbLine
 10
8.502747212125563
 20
2.382173799276526
 30
0.0
 11
8.492816448725556
 21
2.413925059676441
 31
0.0
  0
LINE
  5
33E
330
2
100
AcDbEntity
  8
0
100
AcDbLine
 10
8.492816448725556
 20
2.413925059676441
 30
0.0
 11
8.482522654225498
 21
2.442481908776582
 31
0.0
  0
LINE
  5
33F
330
2
100
AcDbEntity
  8
0
100
AcDbLine
 10
8.482522654225498
 20
2.442481908776582
 30
0.0
 11
8.471816302525461
 21
2.467970441876442
 31
0.0
  0
LINE
  5
340
330
2
100
AcDbEntity
  8
0
100
AcDbLine
 10
8.471816302525461
 20
2.467970441876442
 30
0.0
 11
8.46060492692552
 21
2.490474375976529
 31
0.0
  0
LINE
  5
341
330
2
100
AcDbEntity
  8
0
100
AcDbLine
 10
8.46060492692552
 20
2.490474375976529
 30
0.0
 11
8.448779282525514
 21
2.509932307376513
 31
0.0
  0
LINE
  5
342
330
2
100
AcDbEntity
  8
0
100
AcDbLine
 10
8.448779282525514
 20
2.509932307376513
 30
0.0
 11
8.436201433425616
 21
2.526126267376522
 31
0.0
  0
LINE
  5
343
330
2
100
AcDbEntity
  8
0
100
AcDbLine
 10
8.436201433425616
 20
2.526126267376522
 30
0.0
 11
8.422726364525509
 21
2.538605805476546
 31
0.0
  0
LINE
  5
344
330
2
100
AcDbEntity
  8
0
100
AcDbLine
 10
8.422726364525509
 20
2.538605805476546
 30
0.0
 11
8.408574642725419
 21
2.546510903376539
 31
0.0
  0
LINE
  5
345
330
2
100
AcDbEntity
  8
0
100
AcDbLine
 10
8.408574642725419
 20
2.546510903376539
 30
0.0
 11
8.394451713325474
 21
2.549224003176615
 31
0.0
  0
LINE
  5
346
330
2
100
AcDbEntity
  8
0
100
AcDbLine
 10
8.394451713325474
 20
2.549224003176615
 30
0.0
 11
8.380254182025531
 21
2.546786956776597
 31
0.0
  0
LINE
  5
347
330
2
100
AcDbEntity
  8
0
100
AcDbLine
 10
8.380254182025531
 20
2.546786956776597
 30
0.0
 11
8.366012055925488
 21
2.539096936376492
 31
0.0
  0
LINE
  5
348
330
2
100
AcDbEntity
  8
0
100
AcDbLine
 10
8.366012055925488
 20
2.539096936376492
 30
0.0
 11
8.352465970025399
 21
2.526783372976407
 31
0.0
  0
LINE
  5
349
330
2
100
AcDbEntity
  8
0
100
AcDbLine
 10
8.352465970025399
 20
2.526783372976407
 30
0.0
 11
8.339804303425602
 21
2.510681044676513
 31
0.0
  0
LINE
  5
34A
330
2
100
AcDbEntity
  8
0
100
AcDbLine
 10
8.339804303425602
 20
2.510681044676513
 30
0.0
 11
8.327908093525615
 21
2.491278693576415
 31
0.0
  0
LINE
  5
34B
330
2
100
AcDbEntity
  8
0
100
AcDbLine
 10
8.327908093525615
 20
2.491278693576415
 30
0.0
 11
8.316635152625416
 21
2.468802209376573
 31
0.0
  0
LINE
  5
34C
330
2
100
AcDbEntity
  8
0
100
AcDbLine
 10
8.316635152625416
 20
2.468802209376573
 30
0.0
 11
8.305875339625594
 21
2.443321751476443
 31
0.0
  0
LINE
  5
34D
330
2
100
AcDbEntity
  8
0
100
AcDbLine
 10
8.305875339625594
 20
2.443321751476443
 30
0.0
 11
8.295535796325588
 21
2.414761808576596
 31
0.0
  0
LINE
  5
34E
330
2
100
AcDbEntity
  8
0
100
AcDbLine
 10
8.295535796325588
 20
2.414761808576596
 30
0.0
 11
8.28556414992547
 21
2.382995059576498
 31
0.0
  0
LINE
  5
34F
330
2
100
AcDbEntity
  8
0
100
AcDbLine
 10
8.28556414992547
 20
2.382995059576498
 30
0.0
 11
8.275938261925397
 21
2.347862359176471
 31
0.0
  0
LINE
  5
350
330
2
100
AcDbEntity
  8
0
100
AcDbLine
 10
8.275938261925397
 20
2.347862359176471
 30
0.0
 11
8.266653266225397
 21
2.309155018076464
 31
0.0
  0
LINE
  5
351
330
2
100
AcDbEntity
  8
0
100
AcDbLine
 10
8.266653266225397
 20
2.309155018076464
 30
0.0
 11
8.257722771925522
 21
2.266626791876544
 31
0.0
  0
LINE
  5
352
330
2
100
AcDbEntity
  8
0
100
AcDbLine
 10
8.257722771925522
 20
2.266626791876544
 30
0.0
 11
8.24917671292544
 21
2.219985305676456
 31
0.0
  0
LINE
  5
353
330
2
100
AcDbEntity
  8
0
100
AcDbLine
 10
8.24917671292544
 20
2.219985305676456
 30
0.0
 11
8.241061268525549
 21
2.168877662876522
 31
0.0
  0
LINE
  5
354
330
2
100
AcDbEntity
  8
0
100
AcDbLine
 10
8.241061268525549
 20
2.168877662876522
 30
0.0
 11
8.233449927725609
 21
2.112940624576478
 31
0.0
  0
LINE
  5
355
330
2
100
AcDbEntity
  8
0
100
AcDbLine
 10
8.233449927725609
 20
2.112940624576478
 30
0.0
 11
8.2264380038255
 21
2.051742866876449
 31
0.0
  0
LINE
  5
356
330
2
100
AcDbEntity
  8
0
100
AcDbLine
 10
8.2264380038255
 20
2.051742866876449
 30
0.0
 11
8.220152366825481
 21
1.984799814376512
 31
0.0
  0
LINE
  5
357
330
2
100
AcDbEntity
  8
0
100
AcDbLine
 10
8.220152366825481
 20
1.984799814376512
 30
0.0
 11
8.2147590086254
 21
1.911550791076589
 31
0.0
  0
LINE
  5
358
330
2
100
AcDbEntity
  8
0
100
AcDbLine
 10
8.2147590086254
 20
1.911550791076589
 30
0.0
 11
8.210478757625445
 21
1.831380101876556
 31
0.0
  0
LINE
  5
359
330
2
100
AcDbEntity
  8
0
100
AcDbLine
 10
8.210478757625445
 20
1.831380101876556
 30
0.0
 11
8.207605241225586
 21
1.743596414776556
 31
0.0
  0
LINE
  5
35A
330
2
100
AcDbEntity
  8
0
100
AcDbLine
 10
8.207605241225586
 20
1.743596414776556
 30
0.0
 11
8.206720601376155
 21
1.377328618174586
 31
0.0
  0
LINE
  5
366
330
2
100
AcDbEntity
  8
0
  6
HIDDEN
100
AcDbLine
 10
-8.769508523765015
 20
0.1229999999999709
 30
0.0
 11
-6.940215875686139
 21
0.1229999999999798
 31
0.0
  0
LINE
  5
368
330
2
100
AcDbEntity
  8
0
  6
HIDDEN
100
AcDbLine
 10
-1.899225413175458
 20
18.91798413167575
 30
0.0
 11
-1.524225413175437
 21
18.91798413167575
 31
0.0
  0
LINE
  5
369
330
2
100
AcDbEntity
  8
0
  6
HIDDEN
100
AcDbLine
 10
1.524225413175444
 20
18.91798413167575
 30
0.0
 11
1.899225413175465
 21
18.91798413167575
 31
0.0
  0
LINE
  5
36A
330
2
100
AcDbEntity
  8
0
  6
HIDDEN
100
AcDbLine
 10
-1.362499999999997
 20
11.96599999999998
 30
0.0
 11
-1.737500000000019
 21
11.96599999999998
 31
0.0
  0
LINE
  5
36B
330
2
100
AcDbEntity
  8
0
  6
HIDDEN
100
AcDbLine
 10
1.362500000000004
 20
11.96599999999998
 30
0.0
 11
1.737500000000011
 21
11.96599999999998
 31
0.0
  0
ARC
  5
36D
330
2
100
AcDbEntity
  8
0
100
AcDbCircle
 10
-8.354862199725577
 20
0.0853312589969537
 30
0.0
 40
0.09375
100
AcDbArc
 50
180.0
 51
0.0
  0
ARC
  5
36E
330
2
100
AcDbEntity
  8
0
100
AcDbCircle
 10
-7.355676724520759
 20
0.0853312589969537
 30
0.0
 40
0.09375
100
AcDbArc
 50
180.0
 51
0.0
  0
LINE
  5
36F
330
2
100
AcDbEntity
  8
0
100
AcDbLine
 10
-7.448612199725599
 20
0.0729999999999738
 30
0.0
 11
-8.261926724520738
 21
0.0729999999999738
 31
0.0
  0
LINE
  5
371
330
2
100
AcDbEntity
  8
0
100
AcDbLine
 10
-8.447797674930417
 20
0.0729999999999738
 30
0.0
 11
-8.854862199725599
 21
0.0729999999999738
 31
0.0
  0
LINE
  5
382
330
2
100
AcDbEntity
  8
0
100
AcDbLine
 10
7.394220601376148
 20
0.0729999999999733
 30
0.0
 11
7.802099650966468
 21
0.0729999999999733
 31
0.0
  0
LINE
  5
383
330
2
100
AcDbEntity
  8
0
100
AcDbLine
 10
7.987970601376148
 20
0.0729999999999733
 30
0.0
 11
8.801285126171287
 21
0.0729999999999733
 31
0.0
  0
LINE
  5
384
330
2
100
AcDbEntity
  8
0
100
AcDbLine
 10
8.987156076580966
 20
0.0729999999999733
 30
0.0
 11
9.394220601376148
 21
0.0729999999999733
 31
0.0
  0
LINE
  5
385
330
2
100
AcDbEntity
  8
0
100
AcDbLine
 10
7.394220601376148
 20
0.1229999999999776
 30
0.0
 11
7.394220601376148
 21
0.0729999999999733
 31
0.0
  0
LINE
  5
386
330
2
100
AcDbEntity
  8
0
  6
Continuous
100
AcDbLine
 10
7.394220601376148
 20
0.1229999999999776
 30
0.0
 11
7.479574277336688
 21
0.1229999999999794
 31
0.0
  0
ARC
  5
387
330
2
100
AcDbEntity
  8
0
100
AcDbCircle
 10
7.394220601376013
 20
0.1179999999999324
 30
0.0
 40
0.0855
100
AcDbArc
 50
328.2431361407126
 51
90.0
  0
LINE
  5
388
330
2
100
AcDbEntity
  8
0
  6
Continuous
100
AcDbLine
 10
9.308866925415565
 20
0.1229999999999705
 30
0.0
 11
9.394220601376155
 21
0.1229999999999722
 31
0.0
  0
ARC
  5
389
330
2
100
AcDbEntity
  8
0
100
AcDbCircle
 10
9.39422060137624
 20
0.1179999999999324
 30
0.0
 40
0.0855
100
AcDbArc
 50
90.0
 51
211.7568638592871
  0
POINT
  5
38A
330
2
100
AcDbEntity
  8
0
  6
ByBlock
100
AcDbPoint
 10
9.394220601376155
 20
0.1229999999999722
 30
0.0
 50
180.0
  0
POINT
  5
38B
330
2
100
AcDbEntity
  8
0
  6
ByBlock
100
AcDbPoint
 10
9.394220601376155
 20
0.1229999999999722
 30
0.0
 50
180.0
  0
POINT
  5
38C
330
2
100
AcDbEntity
  8
0
  6
ByBlock
100
AcDbPoint
 10
9.394220601376155
 20
0.1229999999999722
 30
0.0
 50
180.0
  0
POINT
  5
38D
330
2
100
AcDbEntity
  8
0
  6
ByBlock
100
AcDbPoint
 10
9.394220601376155
 20
0.1229999999999722
 30
0.0
 50
180.0
  0
LINE
  5
38E
330
2
100
AcDbEntity
  8
0
100
AcDbLine
 10
9.394220601376155
 20
0.1229999999999722
 30
0.0
 11
9.394220601376148
 21
0.0729999999999733
 31
0.0
  0
LINE
  5
38F
330
2
100
AcDbEntity
  8
0
  6
HIDDEN
100
AcDbLine
 10
9.308866925415565
 20
0.1229999999999705
 30
0.0
 11
7.479574277336688
 21
0.1229999999999794
 31
0.0
  0
ARC
  5
390
330
2
100
AcDbEntity
  8
0
100
AcDbCircle
 10
8.894220601376127
 20
0.0853312589969533
 30
0.0
 40
0.09375
100
AcDbArc
 50
180.0
 51
0.000000000000007
  0
ARC
  5
391
330
2
100
AcDbEntity
  8
0
100
AcDbCircle
 10
7.895035126171308
 20
0.0853312589969533
 30
0.0
 40
0.09375
100
AcDbArc
 50
180.0
 51
0.000000000000007
  0
ENDSEC
  0
SECTION
  2
OBJECTS
  0
DICTIONARY
  5
9
330
0
100
AcDbDictionary
281
     1
  3
ACAD_COLOR
350
35E
  3
ACAD_GROUP
350
24
  3
ACAD_LAYOUT
350
D
  3
ACAD_MATERIAL
350
35D
  3
ACAD_MLINESTYLE
350
25
  3
ACAD_PLOTSETTINGS
350
26
  3
ACAD_PLOTSTYLENAME
350
8
  3
ACAD_TABLESTYLE
350
35F
  3
ACDBHEADERROUNDTRIPXREC
350
3AB
  3
AcDbVariableDictionary
350
176
  0
DICTIONARY
  5
3
330
2
100
AcDbDictionary
280
     1
281
     1
  3
ACAD_SORTENTS
360
370
  0
DICTIONARY
  5
35E
102
{ACAD_REACTORS
330
9
102
}
330
9
100
AcDbDictionary
281
     1
  0
DICTIONARY
  5
24
102
{ACAD_REACTORS
330
9
102
}
330
9
100
AcDbDictionary
281
     1
  0
DICTIONARY
  5
D
102
{ACAD_REACTORS
330
9
102
}
330
9
100
AcDbDictionary
281
     1
  3
Layout1
350
13
  3
Model
350
C
  0
DICTIONARY
  5
35D
102
{ACAD_REACTORS
330
9
102
}
330
9
100
AcDbDictionary
281
     1
  0
DICTIONARY
  5
25
102
{ACAD_REACTORS
330
9
102
}
330
9
100
AcDbDictionary
281
     1
  3
STANDARD
350
28
  0
DICTIONARY
  5
26
102
{ACAD_REACTORS
330
9
102
}
330
9
100
AcDbDictionary
281
     1
  0
ACDBDICTIONARYWDFLT
  5
8
102
{ACAD_REACTORS
330
9
102
}
330
9
100
AcDbDictionary
281
     1
  3
Normal
350
7
100
AcDbDictionaryWithDefault
340
7
  0
DICTIONARY
  5
35F
102
{ACAD_REACTORS
330
9
102
}
330
9
100
AcDbDictionary
281
     1
  3
Standard
350
360
  0
DICTIONARY
  5
3AB
102
{ACAD_REACTORS
330
9
102
}
330
9
100
AcDbDictionary
281
     1
  3
COLORDICT
350
3AC
  3
MATERIALDICT
350
3AD
  0
DICTIONARY
  5
176
102
{ACAD_REACTORS
330
9
102
}
330
9
100
AcDbDictionary
281
     1
  3
CTABLESTYLE
350
3A8
  3
HIDETEXT
350
3AA
  0
SORTENTSTABLE
  5
370
102
{ACAD_REACTORS
330
3
102
}
330
3
100
AcDbSortentsTable
330
2
331
0
  5
2EC
331
2B6
  5
2B8
331
2CB
  5
2CD
331
341
  5
343
331
22F
  5
22F
331
32D
  5
32F
331
357
  5
359
331
298
  5
29A
331
326
  5
328
331
356
  5
358
331
34E
  5
350
331
214
  5
214
331
289
  5
28B
331
278
  5
27A
331
19A
  5
19A
331
232
  5
232
331
358
  5
35A
331
2F5
  5
2F7
331
2DA
  5
2DC
331
21A
  5
21A
331
1D0
  5
1D0
331
2D3
  5
2D5
331
1A7
  5
1A7
331
2D1
  5
2D3
331
1D5
  5
1D5
331
267
  5
269
331
22E
  5
22E
331
1A4
  5
1A4
331
187
  5
187
331
243
  5
243
331
250
  5
250
331
21E
  5
21E
331
1BA
  5
1BA
331
343
  5
345
331
1B8
  5
1B8
331
285
  5
287
331
2DF
  5
2E1
331
293
  5
295
331
1B3
  5
1B3
331
234
  5
234
331
28C
  5
28E
331
19D
  5
19D
331
1B6
  5
1B6
331
2A5
  5
2A7
331
230
  5
230
331
2DD
  5
2DF
331
331
  5
333
331
25D
  5
25F
331
201
  5
201
331
181
  5
181
331
1DD
  5
1DD
331
280
  5
282
331
20A
  5
20A
331
186
  5
186
331
2E0
  5
2E2
331
25F
  5
261
331
184
  5
184
331
316
  5
318
331
1B5
  5
1B5
331
346
  5
348
331
309
  5
30B
331
192
  5
192
331
325
  5
327
331
210
  5
210
331
290
  5
292
331
28F
  5
291
331
33A
  5
33C
331
2E3
  5
2E5
331
29E
  5
2A0
331
34D
  5
34F
331
211
  5
211
331
2D6
  5
2D8
331
1BC
  5
1BC
331
34C
  5
34E
331
324
  5
326
331
1C2
  5
1C2
331
332
  5
334
331
353
  5
355
331
282
  5
284
331
2A7
  5
2A9
331
1DA
  5
1DA
331
329
  5
32B
331
1BD
  5
1BD
331
1DC
  5
1DC
331
31F
  5
321
331
29F
  5
2A1
331
1EE
  5
1EE
331
26D
  5
26F
331
348
  5
34A
331
260
  5
263
331
255
  5
255
331
351
  5
353
331
2FD
  5
2FF
331
244
  5
244
331
216
  5
216
331
1DE
  5
1DE
331
335
  5
337
331
1C6
  5
1C6
331
299
  5
29B
331
182
  5
182
331
236
  5
236
331
223
  5
223
331
366
  5
368
331
1F0
  5
1F0
331
368
  5
36A
331
312
  5
314
331
33F
  5
341
331
268
  5
26A
331
1AC
  5
1AC
331
2C7
  5
2C9
331
21F
  5
21F
331
1CE
  5
1CE
331
36D
  5
36F
331
196
  5
196
331
25B
  5
25B
331
27F
  5
281
331
22D
  5
22D
331
231
  5
231
331
305
  5
307
331
18F
  5
18F
331
349
  5
34B
331
2DC
  5
2DE
331
1CC
  5
1CC
331
359
  5
366
331
345
  5
347
331
222
  5
222
331
333
  5
335
331
23F
  5
23F
331
36E
  5
371
331
27E
  5
280
331
1F2
  5
1F2
331
292
  5
294
331
1B1
  5
1B1
331
23D
  5
23D
331
1CF
  5
1CF
331
188
  5
188
331
1EF
  5
1EF
331
2D9
  5
2DB
331
229
  5
229
331
1F6
  5
1F6
331
29A
  5
29C
331
334
  5
336
331
22C
  5
22C
331
2E1
  5
2E3
331
2A1
  5
2A3
331
1C3
  5
1C3
331
193
  5
193
331
318
  5
31A
331
2D0
  5
2D2
331
1A1
  5
1A1
331
369
  5
36B
331
2CA
  5
2CC
331
26A
  5
26C
331
27D
  5
27F
331
27B
  5
27D
331
2D7
  5
2D9
331
321
  5
323
331
2EE
  5
2F0
331
1F4
  5
1F4
331
294
  5
296
331
198
  5
198
331
1A8
  5
1A8
331
320
  5
322
331
259
  5
259
331
204
  5
204
331
253
  5
253
331
2FF
  5
301
331
20C
  5
20C
331
354
  5
356
331
352
  5
354
331
33B
  5
33D
331
256
  5
256
331
242
  5
242
331
247
  5
247
331
206
  5
206
331
1FA
  5
1FA
331
32B
  5
32D
331
272
  5
274
331
36F
  5
25D
331
23E
  5
23E
331
2CD
  5
2CF
331
330
  5
332
331
33C
  5
33E
331
33D
  5
33F
331
317
  5
319
331
1C4
  5
1C4
331
336
  5
338
331
32F
  5
331
331
265
  5
267
331
217
  5
217
331
21C
  5
21C
331
248
  5
248
331
2F9
  5
2FB
331
28E
  5
290
331
2AB
  5
2AD
331
36B
  5
36E
331
218
  5
218
331
30B
  5
30D
331
25C
  5
25C
331
19B
  5
19B
331
1D1
  5
1D1
331
221
  5
221
331
31D
  5
31F
331
1C7
  5
1C7
331
322
  5
324
331
274
  5
276
331
2AD
  5
2AF
331
219
  5
219
331
1A5
  5
1A5
331
2FB
  5
2FD
331
307
  5
309
331
337
  5
339
331
277
  5
279
331
266
  5
268
331
21D
  5
21D
331
2B0
  5
2B2
331
233
  5
233
331
2F1
  5
2F3
331
306
  5
308
331
1AA
  5
1AA
331
1C1
  5
1C1
331
2D5
  5
2D7
331
1A6
  5
1A6
331
20B
  5
20B
331
28D
  5
28F
331
1DF
  5
1DF
331
303
  5
305
331
202
  5
202
331
18E
  5
18E
331
301
  5
303
331
339
  5
33B
331
24B
  5
24B
331
185
  5
185
331
27A
  5
27C
331
2A9
  5
2AB
331
1E2
  5
1E2
331
29B
  5
29D
331
347
  5
349
331
30F
  5
311
331
2C1
  5
2C3
331
2BB
  5
2BE
331
2ED
  5
2EF
331
200
  5
200
331
31C
  5
31E
331
287
  5
289
331
2C0
  5
2C2
331
1E7
  5
1E7
331
23A
  5
23A
331
28A
  5
28C
331
1CD
  5
1CD
331
25E
  5
260
331
189
  5
189
331
296
  5
298
331
1BF
  5
1BF
331
297
  5
299
331
1F5
  5
1F5
331
30A
  5
30C
331
2B3
  5
2B5
331
1ED
  5
1ED
331
27C
  5
27E
331
31A
  5
31C
331
19C
  5
19C
331
1FC
  5
1FC
331
2AC
  5
2AE
331
32E
  5
330
331
249
  5
249
331
238
  5
238
331
2B4
  5
2B6
331
313
  5
315
331
22A
  5
22A
331
2B5
  5
2B7
331
1AB
  5
1AB
331
2F8
  5
2FA
331
1D2
  5
1D2
331
1F8
  5
1F8
331
2BC
  5
2BF
331
1AD
  5
1AD
331
286
  5
288
331
2C8
  5
2CA
331
2BF
  5
2C1
331
342
  5
344
331
18B
  5
18B
331
2DB
  5
2DD
331
203
  5
203
331
2B2
  5
2B4
331
2D8
  5
2DA
331
350
  5
352
331
28B
  5
28D
331
2A2
  5
2A4
331
29C
  5
29E
331
1FB
  5
1FB
331
26C
  5
26E
331
241
  5
241
331
1AE
  5
1AE
331
2F3
  5
2F5
331
338
  5
33A
331
1FE
  5
1FE
331
30C
  5
30E
331
2BA
  5
2BC
331
1B0
  5
1B0
331
270
  5
272
331
2B1
  5
2B3
331
194
  5
194
331
327
  5
329
331
271
  5
273
331
23B
  5
23B
331
2DE
  5
2E0
331
1E3
  5
1E3
331
251
  5
251
331
24D
  5
24D
331
2FA
  5
2FC
331
237
  5
237
331
279
  5
27B
331
2D4
  5
2D6
331
263
  5
265
331
340
  5
342
331
257
  5
257
331
20F
  5
20F
331
2F2
  5
2F4
331
239
  5
239
331
344
  5
346
331
29D
  5
29F
331
2AE
  5
2B0
331
261
  5
264
331
291
  5
293
331
2EC
  5
2EE
331
1B4
  5
1B4
331
308
  5
30A
331
31B
  5
31D
331
1EA
  5
1EA
331
1A3
  5
1A3
331
33E
  5
340
331
1CA
  5
1CA
331
2FC
  5
2FE
331
2F7
  5
2F9
331
26B
  5
26D
331
275
  5
277
331
2FE
  5
300
331
26F
  5
271
331
1BB
  5
1BB
331
1E9
  5
1E9
331
1EC
  5
1EC
331
1E4
  5
1E4
331
235
  5
235
331
1D7
  5
1D7
331
2A0
  5
2A2
331
1E5
  5
1E5
331
209
  5
209
331
225
  5
225
331
220
  5
220
331
227
  5
227
331
19F
  5
19F
331
2E4
  5
2E6
331
18D
  5
18D
331
2F4
  5
2F6
331
281
  5
283
331
245
  5
245
331
1CB
  5
1CB
331
315
  5
317
331
1FD
  5
1FD
331
30E
  5
310
331
2C9
  5
2CB
331
276
  5
278
331
1C0
  5
1C0
331
224
  5
224
331
2AA
  5
2AC
331
24A
  5
24A
331
2A4
  5
2A6
331
1FF
  5
1FF
331
2A6
  5
2A8
331
355
  5
357
331
2B9
  5
2BB
331
1E6
  5
1E6
331
2A3
  5
2A5
331
2F0
  5
2F2
331
2A8
  5
2AA
331
2C6
  5
2C8
331
1F1
  5
1F1
331
1D3
  5
1D3
331
1E0
  5
1E0
331
25A
  5
25A
331
22B
  5
22B
331
2CF
  5
2D1
331
1EB
  5
1EB
331
1D4
  5
1D4
331
21B
  5
21B
331
212
  5
212
331
311
  5
313
331
264
  5
266
331
284
  5
286
331
1BE
  5
1BE
331
207
  5
207
331
1B7
  5
1B7
331
288
  5
28A
331
197
  5
197
331
252
  5
252
331
240
  5
240
331
246
  5
246
331
2CC
  5
2CE
331
1C9
  5
1C9
331
1D8
  5
1D8
331
1F3
  5
1F3
331
323
  5
325
331
1D6
  5
1D6
331
1AF
  5
1AF
331
2B8
  5
2BA
331
302
  5
304
331
1A9
  5
1A9
331
1C8
  5
1C8
331
34A
  5
34C
331
371
  5
25E
331
208
  5
208
331
19E
  5
19E
331
190
  5
190
331
24F
  5
24F
331
36A
  5
36D
331
26E
  5
270
331
24E
  5
24E
331
2D2
  5
2D4
331
1A2
  5
1A2
331
295
  5
297
331
215
  5
215
331
199
  5
199
331
31E
  5
320
331
228
  5
228
331
191
  5
191
331
1B2
  5
1B2
331
213
  5
213
331
328
  5
32A
331
18C
  5
18C
331
1F9
  5
1F9
331
183
  5
183
331
1A0
  5
1A0
331
2CE
  5
2D0
331
226
  5
226
331
18A
  5
18A
331
273
  5
275
331
20D
  5
20D
331
20E
  5
20E
331
2E2
  5
2E4
331
1DB
  5
1DB
331
319
  5
31B
331
32C
  5
32E
331
283
  5
285
331
205
  5
205
331
1E1
  5
1E1
331
1B9
  5
1B9
331
1E8
  5
1E8
331
304
  5
306
331
35A
  5
367
331
34B
  5
34D
331
254
  5
254
331
23C
  5
23C
331
195
  5
195
331
314
  5
316
331
32A
  5
32C
331
34F
  5
351
331
2F6
  5
2F8
331
30D
  5
30F
331
300
  5
302
331
310
  5
312
331
2EF
  5
2F1
331
269
  5
26B
331
24C
  5
24C
331
2BE
  5
2C0
331
1C5
  5
1C5
331
2AF
  5
2B1
331
2C5
  5
2C7
  0
LAYOUT
  5
13
102
{ACAD_REACTORS
330
D
102
}
102
{ACAD_XDICTIONARY
360
3AE
102
}
330
D
100
AcDbPlotSettings
  1

  2
HP LaserJet 2100 Series PS
  4

  6

 40
0.0
 41
0.0
 42
0.0
 43
0.0
 44
0.0
 45
0.0
 46
0.0
 47
0.0
 48
0.0
 49
0.0
140
0.0
141
0.0
142
1.0
143
1.0
 70
   688
 72
     0
 73
     0
 74
     5
  7

 75
    16
147
1.0
148
0.0
149
0.0
100
AcDbLayout
  1
Layout1
 70
     0
 71
     1
 10
0.0
 20
0.0
 11
12.0
 21
9.0
 12
0.0
 22
0.0
 32
0.0
 14
1.000000000000000E+20
 24
1.000000000000000E+20
 34
1.000000000000000E+20
 15
-1.000000000000000E+20
 25
-1.000000000000000E+20
 35
-1.000000000000000E+20
146
0.0
 13
0.0
 23
0.0
 33
0.0
 16
1.0
 26
0.0
 36
0.0
 17
0.0
 27
1.0
 37
0.0
 76
     0
330
E
  0
LAYOUT
  5
C
102
{ACAD_REACTORS
330
D
102
}
102
{ACAD_XDICTIONARY
360
3B0
102
}
330
D
100
AcDbPlotSettings
  1

  2
HP LaserJet 2100 Series PS
  4
Letter
  6

 40
5.365749835968018
 41
5.386905193328857
 42
5.386917114257813
 43
5.365753173828125
 44
215.8999938964844
 45
279.3999938964844
 46
0.0
 47
0.0
 48
0.0
 49
0.0
140
0.0
141
0.0
142
1.0
143
1.0
 70
 11952
 72
     0
 73
     1
 74
     0
  7

 75
     0
147
1.0
148
-109.2120479562036
149
4.761312409500627
100
AcDbLayout
  1
Model
 70
     1
 71
     0
 10
0.0
 20
0.0
 11
12.0
 21
9.0
 12
0.0
 22
0.0
 32
0.0
 14
0.0
 24
0.0
 34
0.0
 15
0.0
 25
0.0
 35
0.0
146
0.0
 13
0.0
 23
0.0
 33
0.0
 16
1.0
 26
0.0
 36
0.0
 17
0.0
 27
1.0
 37
0.0
 76
     0
330
2
  0
MLINESTYLE
  5
28
102
{ACAD_REACTORS
330
25
102
}
330
25
100
AcDbMlineStyle
  2
STANDARD
 70
     0
  3

 62
   256
 51
90.0
 52
90.0
 71
     2
 49
0.5
 62
   256
  6
BYLAYER
 49
-0.5
 62
   256
  6
BYLAYER
  0
ACDBPLACEHOLDER
  5
7
102
{ACAD_REACTORS
330
8
102
}
330
8
  0
ACAD_PROXY_OBJECT
  5
360
102
{ACAD_REACTORS
330
35F
102
}
330
35F
100
AcDbProxyObject
 90
      499
 91
      561
 95
   983063
 70
     0
 93
     1841
310
4214DD185B99185C9928B81E85EB51B8AE3F2E07A17AD46E2B8FC02B5E8DC0F42B1CFD028000000C1008070000C3001FDFF8000000C1003FBFF000000182007F7FE00000030400FEFFC00000060801FDFF8000000C1003FBFF00000018200000000000000681FA0B0000001820100E000186003FBFF000000182007F7FE000
310
00030400FEFFC00000060801FDFF8000000C1003FBFF000000182007F7FE000000304000AD7A3703D0AC73F4160000003040201C00030C007F7FE00000030400FEFFC00000060801FDFF8000000C1003FBFF000000182007F7FE00000030400FEFFC000000608000
340
16
340
16
340
16
 94
        0
  0
XRECORD
  5
3AC
102
{ACAD_REACTORS
330
3AB
102
}
330
3AB
100
AcDbXrecord
340
35E
  0
XRECORD
  5
3AD
102
{ACAD_REACTORS
330
3AB
102
}
330
3AB
100
AcDbXrecord
340
35D
  0
DICTIONARYVAR
  5
3A8
102
{ACAD_REACTORS
330
176
102
}
330
176
100
DictionaryVariables
280
     0
  1
STANDARD
  0
DICTIONARYVAR
  5
3AA
102
{ACAD_REACTORS
330
176
102
}
330
176
100
DictionaryVariables
280
     0
  1
1
  0
DICTIONARY
  5
3AE
330
13
100
AcDbDictionary
280
     1
281
     1
  3
ACAD_XREC_ROUNDTRIP
360
3AF
  0
DICTIONARY
  5
3B0
330
C
100
AcDbDictionary
280
     1
281
     1
  3
ACAD_XREC_ROUNDTRIP
360
3B1
  0
XRECORD
  5
3AF
102
{ACAD_REACTORS
330
3AE
102
}
330
3AE
100
AcDbXrecord
102
SHADEPLOT
 70
     0
102
SHADEPLOTRESLEVEL
 70
     2
102
SHADEPLOTCUSTOMDPI
 70
   300
  0
XRECORD
  5
3B1
102
{ACAD_REACTORS
330
3B0
102
}
330
3B0
100
AcDbXrecord
102
SHADEPLOT
 70
     0
102
SHADEPLOTRESLEVEL
 70
     2
102
SHADEPLOTCUSTOMDPI
 70
   300
  0
ENDSEC
  0
EOF
