  0
SECTION
  2
HEADER
  9
$ACADVER
  1
AC1015
  9
$ACADMAINTVER
 70
     6
  9
$DWGCODEPAGE
  3
ANSI_1252
  9
$INSBASE
 10
0.0
 20
0.0
 30
0.0
  9
$EXTMIN
 10
-2.27283888631393
 20
-0.027959415460193
 30
0.0
  9
$EXTMAX
 10
2.272838886313931
 20
14.08999999999998
 30
0.0
  9
$LIMMIN
 10
0.0
 20
0.0
  9
$LIMMAX
 10
24.0
 20
31.5
  9
$ORTHOMODE
 70
     1
  9
$REGENMODE
 70
     1
  9
$FILLMODE
 70
     1
  9
$QTEXTMODE
 70
     0
  9
$MIRRTEXT
 70
     0
  9
$LTSCALE
 40
0.6
  9
$ATTMODE
 70
     1
  9
$TEXTSIZE
 40
0.27
  9
$TRACEWID
 40
0.05
  9
$TEXTSTYLE
  7
STANDARD
  9
$CLAYER
  8
0
  9
$CELTYPE
  6
HIDDEN
  9
$CECOLOR
 62
   256
  9
$CELTSCALE
 40
1.0
  9
$DISPSILH
 70
     0
  9
$DIMSCALE
 40
3.0
  9
$DIMASZ
 40
0.125
  9
$DIMEXO
 40
0.062
  9
$DIMDLI
 40
0.375
  9
$DIMRND
 40
0.0
  9
$DIMDLE
 40
0.0
  9
$DIMEXE
 40
0.08
  9
$DIMTP
 40
0.0
  9
$DIMTM
 40
0.0
  9
$DIMTXT
 40
0.09
  9
$DIMCEN
 40
-0.03125
  9
$DIMTSZ
 40
0.0
  9
$DIMTOL
 70
     0
  9
$DIMLIM
 70
     0
  9
$DIMTIH
 70
     1
  9
$DIMTOH
 70
     1
  9
$DIMSE1
 70
     0
  9
$DIMSE2
 70
     0
  9
$DIMTAD
 70
     0
  9
$DIMZIN
 70
     0
  9
$DIMBLK
  1

  9
$DIMASO
 70
     1
  9
$DIMSHO
 70
     0
  9
$DIMPOST
  1

  9
$DIMAPOST
  1

  9
$DIMALT
 70
     0
  9
$DIMALTD
 70
     2
  9
$DIMALTF
 40
25.4
  9
$DIMLFAC
 40
1.0
  9
$DIMTOFL
 70
     0
  9
$DIMTVP
 40
0.0
  9
$DIMTIX
 70
     0
  9
$DIMSOXD
 70
     0
  9
$DIMSAH
 70
     0
  9
$DIMBLK1
  1

  9
$DIMBLK2
  1

  9
$DIMSTYLE
  2
STANDARD
  9
$DIMCLRD
 70
     0
  9
$DIMCLRE
 70
     0
  9
$DIMCLRT
 70
     0
  9
$DIMTFAC
 40
1.0
  9
$DIMGAP
 40
0.09
  9
$DIMJUST
 70
     0
  9
$DIMSD1
 70
     0
  9
$DIMSD2
 70
     0
  9
$DIMTOLJ
 70
     1
  9
$DIMTZIN
 70
     0
  9
$DIMALTZ
 70
     0
  9
$DIMALTTZ
 70
     0
  9
$DIMUPT
 70
     0
  9
$DIMDEC
 70
     5
  9
$DIMTDEC
 70
     4
  9
$DIMALTU
 70
     2
  9
$DIMALTTD
 70
     2
  9
$DIMTXSTY
  7
STANDARD
  9
$DIMAUNIT
 70
     0
  9
$DIMADEC
 70
     0
  9
$DIMALTRND
 40
0.0
  9
$DIMAZIN
 70
     0
  9
$DIMDSEP
 70
    46
  9
$DIMATFIT
 70
     3
  9
$DIMFRAC
 70
     2
  9
$DIMLDRBLK
  1

  9
$DIMLUNIT
 70
     5
  9
$DIMLWD
 70
    -2
  9
$DIMLWE
 70
    -2
  9
$DIMTMOVE
 70
     2
  9
$LUNITS
 70
     2
  9
$LUPREC
 70
     4
  9
$SKETCHINC
 40
0.1
  9
$FILLETRAD
 40
0.0
  9
$AUNITS
 70
     0
  9
$AUPREC
 70
     0
  9
$MENU
  1
ACAD
  9
$ELEVATION
 40
0.0
  9
$PELEVATION
 40
0.0
  9
$THICKNESS
 40
0.0
  9
$LIMCHECK
 70
     0
  9
$CHAMFERA
 40
0.0
  9
$CHAMFERB
 40
0.0
  9
$CHAMFERC
 40
0.0
  9
$CHAMFERD
 40
0.0
  9
$SKPOLY
 70
     0
  9
$TDCREATE
 40
2449436.829454167
  9
$TDUCREATE
 40
2449437.1627875
  9
$TDUPDATE
 40
2454166.859490729
  9
$TDUUPDATE
 40
2454167.192824062
  9
$TDINDWG
 40
0.6545777778
  9
$TDUSRTIMER
 40
0.6545777778
  9
$USRTIMER
 70
     1
  9
$ANGBASE
 50
0.0
  9
$ANGDIR
 70
     0
  9
$PDMODE
 70
     0
  9
$PDSIZE
 40
0.0
  9
$PLINEWID
 40
0.0
  9
$SPLFRAME
 70
     0
  9
$SPLINETYPE
 70
     6
  9
$SPLINESEGS
 70
     8
  9
$HANDSEED
  5
44D
  9
$SURFTAB1
 70
     6
  9
$SURFTAB2
 70
     6
  9
$SURFTYPE
 70
     6
  9
$SURFU
 70
     6
  9
$SURFV
 70
     6
  9
$UCSBASE
  2

  9
$UCSNAME
  2

  9
$UCSORG
 10
0.0
 20
0.0
 30
0.0
  9
$UCSXDIR
 10
1.0
 20
0.0
 30
0.0
  9
$UCSYDIR
 10
0.0
 20
1.0
 30
0.0
  9
$UCSORTHOREF
  2

  9
$UCSORTHOVIEW
 70
     0
  9
$UCSORGTOP
 10
0.0
 20
0.0
 30
0.0
  9
$UCSORGBOTTOM
 10
0.0
 20
0.0
 30
0.0
  9
$UCSORGLEFT
 10
0.0
 20
0.0
 30
0.0
  9
$UCSORGRIGHT
 10
0.0
 20
0.0
 30
0.0
  9
$UCSORGFRONT
 10
0.0
 20
0.0
 30
0.0
  9
$UCSORGBACK
 10
0.0
 20
0.0
 30
0.0
  9
$PUCSBASE
  2

  9
$PUCSNAME
  2

  9
$PUCSORG
 10
0.0
 20
0.0
 30
0.0
  9
$PUCSXDIR
 10
1.0
 20
0.0
 30
0.0
  9
$PUCSYDIR
 10
0.0
 20
1.0
 30
0.0
  9
$PUCSORTHOREF
  2

  9
$PUCSORTHOVIEW
 70
     0
  9
$PUCSORGTOP
 10
0.0
 20
0.0
 30
0.0
  9
$PUCSORGBOTTOM
 10
0.0
 20
0.0
 30
0.0
  9
$PUCSORGLEFT
 10
0.0
 20
0.0
 30
0.0
  9
$PUCSORGRIGHT
 10
0.0
 20
0.0
 30
0.0
  9
$PUCSORGFRONT
 10
0.0
 20
0.0
 30
0.0
  9
$PUCSORGBACK
 10
0.0
 20
0.0
 30
0.0
  9
$USERI1
 70
     0
  9
$USERI2
 70
     0
  9
$USERI3
 70
     0
  9
$USERI4
 70
     0
  9
$USERI5
 70
     0
  9
$USERR1
 40
0.0
  9
$USERR2
 40
0.0
  9
$USERR3
 40
0.0
  9
$USERR4
 40
0.0
  9
$USERR5
 40
0.0
  9
$WORLDVIEW
 70
     1
  9
$SHADEDGE
 70
     3
  9
$SHADEDIF
 70
    70
  9
$TILEMODE
 70
     1
  9
$MAXACTVP
 70
    16
  9
$PINSBASE
 10
0.0
 20
0.0
 30
0.0
  9
$PLIMCHECK
 70
     0
  9
$PEXTMIN
 10
1.000000000000000E+20
 20
1.000000000000000E+20
 30
1.000000000000000E+20
  9
$PEXTMAX
 10
-1.000000000000000E+20
 20
-1.000000000000000E+20
 30
-1.000000000000000E+20
  9
$PLIMMIN
 10
0.0
 20
0.0
  9
$PLIMMAX
 10
12.0
 20
9.0
  9
$UNITMODE
 70
     0
  9
$VISRETAIN
 70
     0
  9
$PLINEGEN
 70
     0
  9
$PSLTSCALE
 70
     0
  9
$TREEDEPTH
 70
  3020
  9
$CMLSTYLE
  2
STANDARD
  9
$CMLJUST
 70
     0
  9
$CMLSCALE
 40
1.0
  9
$PROXYGRAPHICS
 70
     1
  9
$MEASUREMENT
 70
     0
  9
$CELWEIGHT
370
    -1
  9
$ENDCAPS
280
     0
  9
$JOINSTYLE
280
     0
  9
$LWDISPLAY
290
     0
  9
$INSUNITS
 70
     0
  9
$HYPERLINKBASE
  1

  9
$STYLESHEET
  1

  9
$XEDIT
290
     1
  9
$CEPSNTYPE
380
     0
  9
$PSTYLEMODE
290
     1
  9
$FINGERPRINTGUID
  2
{7E1BADD1-439C-11D5-BE3F-00508B5FCD51}
  9
$VERSIONGUID
  2
{2727975F-66BC-4719-B47E-156E85CFAB95}
  9
$EXTNAMES
290
     1
  9
$PSVPSCALE
 40
0.0
  9
$OLESTARTUP
290
     0
  0
ENDSEC
  0
SECTION
  2
CLASSES
  0
CLASS
  1
DICTIONARYVAR
  2
AcDbDictionaryVar
  3
AutoCAD 2000
 90
        0
280
     0
281
     0
  0
CLASS
  1
LWPOLYLINE
  2
AcDbPolyline
  3
AutoCAD 2000
 90
        0
280
     0
281
     1
  0
CLASS
  1
ACDBDICTIONARYWDFLT
  2
AcDbDictionaryWithDefault
  3
AutoCAD 2000
 90
        0
280
     0
281
     0
  0
CLASS
  1
ACDBPLACEHOLDER
  2
AcDbPlaceHolder
  3
ObjectDBX Classes
 90
        0
280
     0
281
     0
  0
CLASS
  1
LAYOUT
  2
AcDbLayout
  3
ObjectDBX Classes
 90
        0
280
     0
281
     0
  0
CLASS
  1
LONG_TRANSACTION
  2
AcDbLongTransaction
  3
ObjectDBX Classes
 90
   -65536
280
     1
281
     0
  0
CLASS
  1
LWPOLYLINE
  2
AcDbPolyline
  3
AutoCAD 2000
 90
        0
280
     0
281
     1
  0
CLASS
  1
HATCH
  2
AcDbHatch
  3
AutoCAD 2000
 90
        0
280
     0
281
     1
  0
CLASS
  1
XRECORD
  2
AcDbXrecord
  3
AutoCAD 2000
 90
        0
280
     0
281
     0
  0
CLASS
  1
LONG_TRANSACTION
  2
AcDbLongTransaction
  3
ObjectDBX Classes
 90
   -65536
280
     1
281
     0
  0
CLASS
  1
LWPOLYLINE
  2
AcDbPolyline
  3
AutoCAD 2000
 90
        0
280
     0
281
     1
  0
CLASS
  1
HATCH
  2
AcDbHatch
  3
AutoCAD 2000
 90
        0
280
     0
281
     1
  0
CLASS
  1
XRECORD
  2
AcDbXrecord
  3
AutoCAD 2000
 90
        0
280
     0
281
     0
  0
CLASS
  1
LONG_TRANSACTION
  2
AcDbLongTransaction
  3
ObjectDBX Classes
 90
   -65536
280
     1
281
     0
  0
CLASS
  1
LWPOLYLINE
  2
AcDbPolyline
  3
AutoCAD 2000
 90
        0
280
     0
281
     1
  0
CLASS
  1
HATCH
  2
AcDbHatch
  3
AutoCAD 2000
 90
        0
280
     0
281
     1
  0
CLASS
  1
XRECORD
  2
AcDbXrecord
  3
AutoCAD 2000
 90
        0
280
     0
281
     0
  0
CLASS
  1
LONG_TRANSACTION
  2
AcDbLongTransaction
  3
ObjectDBX Classes
 90
   -65536
280
     1
281
     0
  0
CLASS
  1
LWPOLYLINE
  2
AcDbPolyline
  3
AutoCAD 2000
 90
        0
280
     0
281
     1
  0
CLASS
  1
HATCH
  2
AcDbHatch
  3
AutoCAD 2000
 90
        0
280
     0
281
     1
  0
CLASS
  1
XRECORD
  2
AcDbXrecord
  3
AutoCAD 2000
 90
        0
280
     0
281
     0
  0
CLASS
  1
LONG_TRANSACTION
  2
AcDbLongTransaction
  3
ObjectDBX Classes
 90
   -65536
280
     1
281
     0
  0
CLASS
  1
LWPOLYLINE
  2
AcDbPolyline
  3
AutoCAD 2000
 90
        0
280
     0
281
     1
  0
CLASS
  1
HATCH
  2
AcDbHatch
  3
AutoCAD 2000
 90
        0
280
     0
281
     1
  0
CLASS
  1
XRECORD
  2
AcDbXrecord
  3
AutoCAD 2000
 90
        0
280
     0
281
     0
  0
CLASS
  1
LONG_TRANSACTION
  2
AcDbLongTransaction
  3
ObjectDBX Classes
 90
   -65536
280
     1
281
     0
  0
CLASS
  1
LWPOLYLINE
  2
AcDbPolyline
  3
AutoCAD 2000
 90
        0
280
     0
281
     1
  0
CLASS
  1
HATCH
  2
AcDbHatch
  3
AutoCAD 2000
 90
        0
280
     0
281
     1
  0
CLASS
  1
XRECORD
  2
AcDbXrecord
  3
AutoCAD 2000
 90
        0
280
     0
281
     0
  0
CLASS
  1
LONG_TRANSACTION
  2
AcDbLongTransaction
  3
ObjectDBX Classes
 90
   -65536
280
     1
281
     0
  0
CLASS
  1
LWPOLYLINE
  2
AcDbPolyline
  3
AutoCAD 2000
 90
        0
280
     0
281
     1
  0
CLASS
  1
HATCH
  2
AcDbHatch
  3
AutoCAD 2000
 90
        0
280
     0
281
     1
  0
CLASS
  1
XRECORD
  2
AcDbXrecord
  3
AutoCAD 2000
 90
        0
280
     0
281
     0
  0
CLASS
  1
LONG_TRANSACTION
  2
AcDbLongTransaction
  3
ObjectDBX Classes
 90
   -65536
280
     1
281
     0
  0
CLASS
  1
LWPOLYLINE
  2
AcDbPolyline
  3
AutoCAD 2000
 90
        0
280
     0
281
     1
  0
CLASS
  1
HATCH
  2
AcDbHatch
  3
AutoCAD 2000
 90
        0
280
     0
281
     1
  0
CLASS
  1
XRECORD
  2
AcDbXrecord
  3
AutoCAD 2000
 90
        0
280
     0
281
     0
  0
CLASS
  1
LONG_TRANSACTION
  2
AcDbLongTransaction
  3
ObjectDBX Classes
 90
   -65536
280
     1
281
     0
  0
CLASS
  1
LWPOLYLINE
  2
AcDbPolyline
  3
AutoCAD 2000
 90
        0
280
     0
281
     1
  0
CLASS
  1
HATCH
  2
AcDbHatch
  3
AutoCAD 2000
 90
        0
280
     0
281
     1
  0
CLASS
  1
XRECORD
  2
AcDbXrecord
  3
AutoCAD 2000
 90
        0
280
     0
281
     0
  0
CLASS
  1
LONG_TRANSACTION
  2
AcDbLongTransaction
  3
ObjectDBX Classes
 90
   -65536
280
     1
281
     0
  0
CLASS
  1
LWPOLYLINE
  2
AcDbPolyline
  3
AutoCAD 2000
 90
        0
280
     0
281
     1
  0
CLASS
  1
HATCH
  2
AcDbHatch
  3
AutoCAD 2000
 90
        0
280
     0
281
     1
  0
CLASS
  1
XRECORD
  2
AcDbXrecord
  3
AutoCAD 2000
 90
        0
280
     0
281
     0
  0
CLASS
  1
LONG_TRANSACTION
  2
AcDbLongTransaction
  3
ObjectDBX Classes
 90
   -65536
280
     1
281
     0
  0
CLASS
  1
LWPOLYLINE
  2
AcDbPolyline
  3
AutoCAD 2000
 90
        0
280
     0
281
     1
  0
CLASS
  1
HATCH
  2
AcDbHatch
  3
AutoCAD 2000
 90
        0
280
     0
281
     1
  0
CLASS
  1
XRECORD
  2
AcDbXrecord
  3
AutoCAD 2000
 90
        0
280
     0
281
     0
  0
CLASS
  1
LONG_TRANSACTION
  2
AcDbLongTransaction
  3
ObjectDBX Classes
 90
   -65536
280
     1
281
     0
  0
CLASS
  1
LWPOLYLINE
  2
AcDbPolyline
  3
AutoCAD 2000
 90
        0
280
     0
281
     1
  0
CLASS
  1
HATCH
  2
AcDbHatch
  3
AutoCAD 2000
 90
        0
280
     0
281
     1
  0
CLASS
  1
XRECORD
  2
AcDbXrecord
  3
AutoCAD 2000
 90
        0
280
     0
281
     0
  0
CLASS
  1
LONG_TRANSACTION
  2
AcDbLongTransaction
  3
ObjectDBX Classes
 90
   -65536
280
     1
281
     0
  0
CLASS
  1
LWPOLYLINE
  2
AcDbPolyline
  3
AutoCAD 2000
 90
        0
280
     0
281
     1
  0
CLASS
  1
HATCH
  2
AcDbHatch
  3
AutoCAD 2000
 90
        0
280
     0
281
     1
  0
CLASS
  1
XRECORD
  2
AcDbXrecord
  3
AutoCAD 2000
 90
        0
280
     0
281
     0
  0
CLASS
  1
LONG_TRANSACTION
  2
AcDbLongTransaction
  3
ObjectDBX Classes
 90
   -65536
280
     1
281
     0
  0
CLASS
  1
LWPOLYLINE
  2
AcDbPolyline
  3
AutoCAD 2000
 90
        0
280
     0
281
     1
  0
CLASS
  1
HATCH
  2
AcDbHatch
  3
AutoCAD 2000
 90
        0
280
     0
281
     1
  0
CLASS
  1
XRECORD
  2
AcDbXrecord
  3
AutoCAD 2000
 90
        0
280
     0
281
     0
  0
CLASS
  1
TABLESTYLE
  2
AcDbTableStyle
  3
ObjectDBX Classes
 90
     2047
280
     1
281
     0
  0
CLASS
  1
SORTENTSTABLE
  2
AcDbSortentsTable
  3
AutoCAD 2000
 90
        0
280
     0
281
     0
  0
ENDSEC
  0
SECTION
  2
TABLES
  0
TABLE
  2
VPORT
  5
1D
330
0
100
AcDbSymbolTable
 70
     2
  0
VPORT
  5
43F
330
1D
100
AcDbSymbolTableRecord
100
AcDbViewportTableRecord
  2
*Active
 70
     0
 10
0.0
 20
0.0
 11
1.0
 21
1.0
 12
5.787425665030256
 22
13.93991471694717
 13
0.0
 23
0.0
 14
0.063
 24
0.063
 15
0.25
 25
0.25
 16
0.0
 26
0.0
 36
1.0
 17
0.0
 27
0.0
 37
0.0
 40
31.92221369259777
 41
1.814583333333333
 42
50.0
 43
0.0
 44
0.0
 50
0.0
 51
0.0
 71
     0
 72
   100
 73
     1
 74
     0
 75
     0
 76
     0
 77
     0
 78
     1
281
     0
 65
     1
110
0.0
120
0.0
130
0.0
111
1.0
121
0.0
131
0.0
112
0.0
122
1.0
132
0.0
 79
     0
146
0.0
  0
ENDTAB
  0
TABLE
  2
LTYPE
  5
18
330
0
100
AcDbSymbolTable
 70
     3
  0
LTYPE
  5
19
330
18
100
AcDbSymbolTableRecord
100
AcDbLinetypeTableRecord
  2
BYBLOCK
 70
     0
  3

 72
    65
 73
     0
 40
0.0
  0
LTYPE
  5
1A
330
18
100
AcDbSymbolTableRecord
100
AcDbLinetypeTableRecord
  2
BYLAYER
 70
     0
  3

 72
    65
 73
     0
 40
0.0
  0
LTYPE
  5
A
330
18
100
AcDbSymbolTableRecord
100
AcDbLinetypeTableRecord
  2
CONTINUOUS
 70
     0
  3
Solid line
 72
    65
 73
     0
 40
0.0
  0
LTYPE
  5
54
330
18
100
AcDbSymbolTableRecord
100
AcDbLinetypeTableRecord
  2
HIDDEN2
 70
     0
  3
Hidden (.5x) _ _ _ _ _ _ _ _ _ _ _ _ _ _ _ _ _
 72
    65
 73
     2
 40
0.1875
 49
0.125
 74
     0
 49
-0.0625
 74
     0
  0
LTYPE
  5
3C3
330
18
100
AcDbSymbolTableRecord
100
AcDbLinetypeTableRecord
  2
HIDDEN
 70
     0
  3
Hidden __ __ __ __ __ __ __ __ __ __ __ __ __ _
 72
    65
 73
     2
 40
0.375
 49
0.25
 74
     0
 49
-0.125
 74
     0
  0
ENDTAB
  0
TABLE
  2
LAYER
  5
14
330
0
100
AcDbSymbolTable
 70
     2
  0
LAYER
  5
6
330
14
100
AcDbSymbolTableRecord
100
AcDbLayerTableRecord
  2
0
 70
     0
 62
     7
  6
CONTINUOUS
370
    -3
390
7
  0
ENDTAB
  0
TABLE
  2
STYLE
  5
15
330
0
100
AcDbSymbolTable
 70
     1
  0
STYLE
  5
16
330
15
100
AcDbSymbolTableRecord
100
AcDbTextStyleTableRecord
  2
STANDARD
 70
     0
 40
0.0
 41
1.0
 50
0.0
 71
     0
 42
0.27
  3
TXT
  4

  0
ENDTAB
  0
TABLE
  2
VIEW
  5
1B
330
0
100
AcDbSymbolTable
 70
     0
  0
ENDTAB
  0
TABLE
  2
UCS
  5
1C
330
0
100
AcDbSymbolTable
 70
     0
  0
ENDTAB
  0
TABLE
  2
APPID
  5
1F
330
0
100
AcDbSymbolTable
 70
     2
  0
APPID
  5
20
330
1F
100
AcDbSymbolTableRecord
100
AcDbRegAppTableRecord
  2
ACAD
 70
     0
  0
APPID
  5
31
330
1F
100
AcDbSymbolTableRecord
100
AcDbRegAppTableRecord
  2
_DIE112SSJYHX
 70
     0
  0
ENDTAB
  0
TABLE
  2
DIMSTYLE
  5
21
330
0
100
AcDbSymbolTable
 70
     1
100
AcDbDimStyleTable
  0
DIMSTYLE
105
22
330
21
100
AcDbSymbolTableRecord
100
AcDbDimStyleTableRecord
  2
STANDARD
 70
     0
  3

  4

340
16
  0
ENDTAB
  0
TABLE
  2
BLOCK_RECORD
  5
1
330
0
100
AcDbSymbolTable
 70
     0
  0
BLOCK_RECORD
  5
2
330
1
100
AcDbSymbolTableRecord
100
AcDbBlockTableRecord
  2
*MODEL_SPACE
340
C
  0
BLOCK_RECORD
  5
E
330
1
100
AcDbSymbolTableRecord
100
AcDbBlockTableRecord
  2
*PAPER_SPACE
340
13
  0
ENDTAB
  0
ENDSEC
  0
SECTION
  2
BLOCKS
  0
BLOCK
  5
5
330
2
100
AcDbEntity
  8
0
100
AcDbBlockBegin
  2
*MODEL_SPACE
 70
     0
 10
0.0
 20
0.0
 30
0.0
  3
*MODEL_SPACE
  1

  4

  0
ENDBLK
  5
B
330
2
100
AcDbEntity
  8
0
100
AcDbBlockEnd
  0
BLOCK
  5
11
330
E
100
AcDbEntity
 67
     1
  8
0
100
AcDbBlockBegin
  2
*PAPER_SPACE
 70
     0
 10
0.0
 20
0.0
 30
0.0
  3
*PAPER_SPACE
  1

  4

  0
ENDBLK
  5
12
330
E
100
AcDbEntity
 67
     1
  8
0
100
AcDbBlockEnd
  0
ENDSEC
  0
SECTION
  2
ENTITIES
  0
LINE
  5
1D5
330
2
100
AcDbEntity
  8
0
100
AcDbLine
 10
2.237500000000019
 20
13.41499999999999
 30
0.0
 11
2.237500000000157
 21
5.173142315092321
 31
0.0
  0
LINE
  5
1D6
330
2
100
AcDbEntity
  8
0
100
AcDbLine
 10
1.112500000000004
 20
13.16499999999997
 30
0.0
 11
1.107500000000012
 21
0.1349999999999909
 31
0.0
  0
LINE
  5
1D7
330
2
100
AcDbEntity
  8
0
100
AcDbLine
 10
1.062500000000007
 20
13.17866374223517
 30
0.0
 11
1.062500000000012
 21
0.1349999999999909
 31
0.0
  0
LINE
  5
1D8
330
2
100
AcDbEntity
  8
0
100
AcDbLine
 10
-2.237500000000019
 20
13.41499999999999
 30
0.0
 11
-2.237500000000019
 21
5.248786682236712
 31
0.0
  0
LINE
  5
1D9
330
2
100
AcDbEntity
  8
0
100
AcDbLine
 10
-1.107500000000012
 20
0.1349999999999909
 30
0.0
 11
-1.112499999999997
 21
13.16499999999998
 31
0.0
  0
LINE
  5
1DA
330
2
100
AcDbEntity
  8
0
100
AcDbLine
 10
-1.062500000000012
 20
0.1349999999999909
 30
0.0
 11
-1.0625
 21
13.17866374223517
 31
0.0
  0
LINE
  5
1DB
330
2
100
AcDbEntity
  8
0
100
AcDbLine
 10
-1.107499999999966
 20
2.095896261652163
 30
0.0
 11
-1.676199924399612
 21
2.908083925117913
 31
0.0
  0
LINE
  5
1DC
330
2
100
AcDbEntity
  8
0
100
AcDbLine
 10
-1.86250000000021
 20
3.458235042593001
 30
0.0
 11
-1.862500000000157
 21
4.383928752719099
 31
0.0
  0
ARC
  5
1DD
330
2
100
AcDbEntity
  8
0
100
AcDbCircle
 10
-0.8600000000000065
 20
3.49023504259331
 30
0.0
 40
1.002500000000003
100
AcDbArc
 50
180.0
 51
214.9999999999976
1001
_DIE112SSJYHX
1002
{
1000
comp_type
1000
DBL24
1000
material
1000
D-2
1000
thickness
1040
1.25
1000
mount
1000
SBP10
1000
mntlay
1000
DIE_SUB_PLATE
1002
}
  0
ARC
  5
1DE
330
2
100
AcDbEntity
  8
0
100
AcDbCircle
 10
-2.360000000000156
 20
4.383928752719099
 30
0.0
 40
0.4975
100
AcDbArc
 50
0.0
 51
44.99999999998114
1001
_DIE112SSJYHX
1002
{
1000
comp_type
1000
DBL24
1000
material
1000
D-2
1000
thickness
1040
1.25
1000
mount
1000
SBP10
1000
mntlay
1000
DIE_SUB_PLATE
1002
}
  0
ARC
  5
1DF
330
2
100
AcDbEntity
  8
0
100
AcDbCircle
 10
-1.735000000000156
 20
5.173142315092319
 30
0.0
 40
0.5025000000000001
100
AcDbArc
 50
180.0
 51
224.999999999981
1001
_DIE112SSJYHX
1002
{
1000
comp_type
1000
DBL24
1000
material
1000
D-2
1000
thickness
1040
1.25
1000
mount
1000
SBP10
1000
mntlay
1000
DIE_SUB_PLATE
1002
}
  0
LINE
  5
1E0
330
2
100
AcDbEntity
  8
0
100
AcDbLine
 10
-1.989965093079992
 20
4.716465093079949
 30
0.0
 11
-2.113732546540007
 21
4.84023254653996
 31
0.0
  0
CIRCLE
  5
1E1
330
2
100
AcDbEntity
  8
0
  6
Continuous
100
AcDbCircle
 10
-1.987500000000019
 20
5.089999999999973
 30
0.0
 40
0.0855
  0
LINE
  5
1E2
330
2
100
AcDbEntity
  8
0
100
AcDbLine
 10
-1.152500000000003
 20
0.1349999999999909
 30
0.0
 11
-1.152500000000003
 21
2.280544494717217
 31
0.0
  0
LINE
  5
1E3
330
2
100
AcDbEntity
  8
0
100
AcDbLine
 10
-0.8338716692542203
 20
1.600360522024729
 30
0.0
 11
-1.029469837705163
 21
2.560306871569878
 31
0.0
  0
LINE
  5
1E4
330
2
100
AcDbEntity
  8
0
100
AcDbLine
 10
1.152499999999947
 20
2.280544494717217
 30
0.0
 11
1.152499999999947
 21
0.1349999999999909
 31
0.0
  0
LINE
  5
1E5
330
2
100
AcDbEntity
  8
0
100
AcDbLine
 10
0.8338716692541635
 20
1.600360522024729
 30
0.0
 11
1.029469837705106
 21
2.560306871569878
 31
0.0
  0
LINE
  5
1E6
330
2
100
AcDbEntity
  8
0
100
AcDbLine
 10
1.012500000000003
 20
0.089999999999975
 30
0.0
 11
-1.012500000000003
 21
0.089999999999975
 31
0.0
  0
LINE
  5
1E7
330
2
100
AcDbEntity
  8
0
100
AcDbLine
 10
1.017500000000013
 20
0.089999999999975
 30
0.0
 11
-1.017500000000013
 21
0.089999999999975
 31
0.0
  0
LINE
  5
1E8
330
2
100
AcDbEntity
  8
0
100
AcDbLine
 10
1.017500000000013
 20
0.0450000000000159
 30
0.0
 11
-1.017500000000013
 21
0.0450000000000159
 31
0.0
  0
LINE
  5
1E9
330
2
100
AcDbEntity
  8
0
100
AcDbLine
 10
1.017500000000013
 20
0.0
 30
0.0
 11
-1.017500000000013
 21
0.0
 31
0.0
  0
ARC
  5
1EA
330
2
100
AcDbEntity
  8
0
100
AcDbCircle
 10
-1.017500000000013
 20
0.1349999999999909
 30
0.0
 40
0.045
100
AcDbArc
 50
180.0
 51
270.0
  0
ARC
  5
1EB
330
2
100
AcDbEntity
  8
0
100
AcDbCircle
 10
-1.017500000000013
 20
0.1349999999999909
 30
0.0
 40
0.09
100
AcDbArc
 50
180.0
 51
270.0
  0
ARC
  5
1EC
330
2
100
AcDbEntity
  8
0
100
AcDbCircle
 10
-1.017500000000013
 20
0.1349999999999909
 30
0.0
 40
0.135
100
AcDbArc
 50
180.0
 51
270.0
  0
LINE
  5
1ED
330
2
100
AcDbEntity
  8
0
100
AcDbLine
 10
-1.062500000000226
 20
1.343316936683891
 30
0.0
 11
-0.8338716692542203
 21
1.600360522024729
 31
0.0
  0
ARC
  5
1EE
330
2
100
AcDbEntity
  8
0
100
AcDbCircle
 10
-1.076342116257173
 20
1.171102700793993
 30
0.0
 40
0.2315168730279693
100
AcDbArc
 50
273.4276901945818
 51
309.4228987337907
  0
ARC
  5
1EF
330
2
100
AcDbEntity
  8
0
100
AcDbCircle
 10
-1.076342116257212
 20
0.8961027007940157
 30
0.0
 40
0.2315168730281418
100
AcDbArc
 50
273.4276901945888
 51
309.422898733768
  0
LINE
  5
1F0
330
2
100
AcDbEntity
  8
0
100
AcDbLine
 10
-1.049319805149249
 20
0.9009001948424285
 30
0.0
 11
-0.9293198051493619
 21
0.7172605845762892
 31
0.0
  0
LINE
  5
1F1
330
2
100
AcDbEntity
  8
0
100
AcDbLine
 10
-1.049319805149251
 20
1.175900194842598
 30
0.0
 11
-0.9293198051493619
 21
0.9922605845764583
 31
0.0
  0
ARC
  5
1F2
330
2
100
AcDbEntity
  8
0
100
AcDbCircle
 10
-1.017499999999924
 20
0.9327200000001099
 30
0.0
 40
0.045
100
AcDbArc
 50
180.0
 51
225.0000000076272
  0
ARC
  5
1F3
330
2
100
AcDbEntity
  8
0
100
AcDbCircle
 10
-1.017499999999926
 20
1.207720000000279
 30
0.0
 40
0.045
100
AcDbArc
 50
180.0
 51
225.0000000076272
  0
LINE
  5
1F4
330
2
100
AcDbEntity
  8
0
100
AcDbLine
 10
-0.0005911934305232
 20
0.1899999999992019
 30
0.0
 11
-0.0547177811671418
 21
0.089999999999975
 31
0.0
  0
LINE
  5
1F5
330
2
100
AcDbEntity
  8
0
100
AcDbLine
 10
-0.0005911934305232
 20
0.1899999999992019
 30
0.0
 11
-0.0547177811671418
 21
0.089999999999975
 31
0.0
  0
LINE
  5
1F6
330
2
100
AcDbEntity
  8
0
100
AcDbLine
 10
-0.0940992144763868
 20
0.1898307366423637
 30
0.0
 11
-0.0263380834893496
 21
0.1424320834995001
 31
0.0
  0
LINE
  5
1F7
330
2
100
AcDbEntity
  8
0
100
AcDbLine
 10
-0.0940992144763868
 20
0.1898307366423637
 30
0.0
 11
-0.0263380834893994
 21
0.1424320834995339
 31
0.0
  0
LINE
  5
1F8
330
2
100
AcDbEntity
  8
0
100
AcDbLine
 10
-0.0940992144768416
 20
0.0899999999997476
 30
0.0
 11
-0.0940992144763868
 21
0.1898307366423637
 31
0.0
  0
LINE
  5
1F9
330
2
100
AcDbEntity
  8
0
100
AcDbLine
 10
-0.0940992144768416
 20
0.089999999999975
 30
0.0
 11
-0.0940992144763868
 21
0.1898307366423637
 31
0.0
  0
LINE
  5
1FA
330
2
100
AcDbEntity
  8
0
100
AcDbLine
 10
0.0929168276155679
 20
0.089999999999975
 30
0.0
 11
0.0929168276155679
 21
0.1898307366428185
 31
0.0
  0
LINE
  5
1FB
330
2
100
AcDbEntity
  8
0
100
AcDbLine
 10
0.092916827615575
 20
0.089999999999975
 30
0.0
 11
0.0929168276155679
 21
0.1898307366428185
 31
0.0
  0
LINE
  5
1FC
330
2
100
AcDbEntity
  8
0
100
AcDbLine
 10
-0.0005911934305232
 20
0.1899999999992019
 30
0.0
 11
0.0535353943060954
 21
0.089999999999975
 31
0.0
  0
LINE
  5
1FD
330
2
100
AcDbEntity
  8
0
100
AcDbLine
 10
-0.0005911934305232
 20
0.1899999999992019
 30
0.0
 11
0.0535353943060954
 21
0.089999999999975
 31
0.0
  0
LINE
  5
1FE
330
2
100
AcDbEntity
  8
0
100
AcDbLine
 10
0.0929168276155679
 20
0.1898307366428185
 30
0.0
 11
0.0251556966289854
 21
0.1424320834992727
 31
0.0
  0
LINE
  5
1FF
330
2
100
AcDbEntity
  8
0
100
AcDbLine
 10
0.0929168276155679
 20
0.1898307366428185
 30
0.0
 11
0.0251556966286266
 21
0.1424320834990223
 31
0.0
  0
ARC
  5
200
330
2
100
AcDbEntity
  8
0
100
AcDbCircle
 10
1.017500000000013
 20
0.1349999999999909
 30
0.0
 40
0.135
100
AcDbArc
 50
270.0
 51
0.0
  0
ARC
  5
201
330
2
100
AcDbEntity
  8
0
100
AcDbCircle
 10
1.017500000000013
 20
0.1349999999999909
 30
0.0
 40
0.045
100
AcDbArc
 50
270.0
 51
0.0
  0
ARC
  5
202
330
2
100
AcDbEntity
  8
0
100
AcDbCircle
 10
1.017500000000013
 20
0.1349999999999909
 30
0.0
 40
0.09
100
AcDbArc
 50
270.0
 51
0.0
  0
POINT
  5
203
330
2
100
AcDbEntity
  8
0
  6
ByBlock
100
AcDbPoint
 10
1.012499999999996
 20
0.089999999999975
 30
0.0
  0
POINT
  5
204
330
2
100
AcDbEntity
  8
0
  6
ByBlock
100
AcDbPoint
 10
1.012500000000003
 20
0.089999999999975
 30
0.0
  0
POINT
  5
205
330
2
100
AcDbEntity
  8
0
  6
ByBlock
100
AcDbPoint
 10
1.062500000000007
 20
0.1399999999999757
 30
0.0
  0
LINE
  5
206
330
2
100
AcDbEntity
  8
0
100
AcDbLine
 10
1.062500000000169
 20
1.343316936683891
 30
0.0
 11
0.8338716692541635
 21
1.600360522024729
 31
0.0
  0
ARC
  5
207
330
2
100
AcDbEntity
  8
0
100
AcDbCircle
 10
1.076342116257116
 20
1.171102700793993
 30
0.0
 40
0.2315168730279693
100
AcDbArc
 50
230.5771012662091
 51
266.5723098054182
  0
LINE
  5
208
330
2
100
AcDbEntity
  8
0
100
AcDbLine
 10
1.049319805149192
 20
0.9009001948424285
 30
0.0
 11
0.929319805149305
 21
0.7172605845762892
 31
0.0
  0
ARC
  5
209
330
2
100
AcDbEntity
  8
0
100
AcDbCircle
 10
1.076342116257155
 20
0.8961027007940157
 30
0.0
 40
0.2315168730281418
100
AcDbArc
 50
230.577101266232
 51
266.5723098054112
  0
LINE
  5
20A
330
2
100
AcDbEntity
  8
0
100
AcDbLine
 10
1.049319805149194
 20
1.175900194842598
 30
0.0
 11
0.929319805149305
 21
0.9922605845764583
 31
0.0
  0
ARC
  5
20B
330
2
100
AcDbEntity
  8
0
100
AcDbCircle
 10
1.017499999999869
 20
1.207720000000279
 30
0.0
 40
0.045
100
AcDbArc
 50
314.9999999923728
 51
0.0
  0
ARC
  5
20C
330
2
100
AcDbEntity
  8
0
100
AcDbCircle
 10
-1.107499999999703
 20
1.696250000000077
 30
0.0
 40
0.05
100
AcDbArc
 50
90.0
 51
154.158067238145
  0
LINE
  5
20D
330
2
100
AcDbEntity
  8
0
100
AcDbLine
 10
-1.0625
 20
2.614029400264514
 30
0.0
 11
-1.041700559444735
 21
2.585754971612374
 31
0.0
  0
ARC
  5
20E
330
2
100
AcDbEntity
  8
0
100
AcDbCircle
 10
-1.103121681959692
 20
2.540571919380767
 30
0.0
 40
0.07625
100
AcDbArc
 50
15.00000000003474
 51
36.3392133744043
  0
ARC
  5
20F
330
2
100
AcDbEntity
  8
0
100
AcDbCircle
 10
-1.107499999999703
 20
2.258750000000076
 30
0.0
 40
0.05
100
AcDbArc
 50
90.0
 51
154.158067238145
  0
LINE
  5
210
330
2
100
AcDbEntity
  8
0
100
AcDbLine
 10
-1.112499999999997
 20
5.246506350946083
 30
0.0
 11
-1.0625
 21
5.246506350946083
 31
0.0
  0
LINE
  5
211
330
2
100
AcDbEntity
  8
0
100
AcDbLine
 10
-1.112499999999997
 20
5.029999999999975
 30
0.0
 11
-1.0625
 21
5.029999999999975
 31
0.0
  0
LINE
  5
212
330
2
100
AcDbEntity
  8
0
100
AcDbLine
 10
1.862500000000036
 20
3.458235042592873
 30
0.0
 11
1.862500000000154
 21
4.383928752719099
 31
0.0
  0
LINE
  5
213
330
2
100
AcDbEntity
  8
0
100
AcDbLine
 10
1.107499999999909
 20
2.095896261652163
 30
0.0
 11
1.676199924399555
 21
2.908083925117913
 31
0.0
  0
ARC
  5
214
330
2
100
AcDbEntity
  8
0
100
AcDbCircle
 10
1.107499999999448
 20
1.696250000000489
 30
0.0
 40
0.05
100
AcDbArc
 50
25.84193276185503
 51
90.0
  0
ARC
  5
215
330
2
100
AcDbEntity
  8
0
100
AcDbCircle
 10
1.107499999999646
 20
2.258750000000076
 30
0.0
 40
0.05
100
AcDbArc
 50
25.84193276185503
 51
90.0
  0
LINE
  5
216
330
2
100
AcDbEntity
  8
0
100
AcDbLine
 10
1.062499999999943
 20
2.614029400264514
 30
0.0
 11
1.041700559444678
 21
2.585754971612374
 31
0.0
  0
ARC
  5
217
330
2
100
AcDbEntity
  8
0
100
AcDbCircle
 10
1.103121681959635
 20
2.540571919380767
 30
0.0
 40
0.07625
100
AcDbArc
 50
143.6607866255957
 51
164.9999999999652
  0
ARC
  5
218
330
2
100
AcDbEntity
  8
0
100
AcDbCircle
 10
0.8599999999999426
 20
3.49023504259331
 30
0.0
 40
1.002500000000009
100
AcDbArc
 50
325.0000000000027
 51
0.0
1001
_DIE112SSJYHX
1002
{
1000
comp_type
1000
DBL24
1000
material
1000
D-2
1000
thickness
1040
1.25
1000
mount
1000
SBP10
1000
mntlay
1000
DIE_SUB_PLATE
1002
}
  0
LINE
  5
219
330
2
100
AcDbEntity
  8
0
100
AcDbLine
 10
1.062500000000007
 20
5.246506350946083
 30
0.0
 11
1.112500000000011
 21
5.246506350946083
 31
0.0
  0
LINE
  5
21A
330
2
100
AcDbEntity
  8
0
100
AcDbLine
 10
1.062500000000007
 20
5.029999999999975
 30
0.0
 11
1.112500000000011
 21
5.029999999999975
 31
0.0
  0
ARC
  5
21B
330
2
100
AcDbEntity
  8
0
100
AcDbCircle
 10
2.360000000000156
 20
4.383928752719099
 30
0.0
 40
0.4975
100
AcDbArc
 50
135.0000000000188
 51
180.0
1001
_DIE112SSJYHX
1002
{
1000
comp_type
1000
DBL24
1000
material
1000
D-2
1000
thickness
1040
1.25
1000
mount
1000
SBP10
1000
mntlay
1000
DIE_SUB_PLATE
1002
}
  0
LINE
  5
21C
330
2
100
AcDbEntity
  8
0
100
AcDbLine
 10
2.008214376359732
 20
4.735714376359292
 30
0.0
 11
2.090321157546477
 21
4.817821157546243
 31
0.0
  0
CIRCLE
  5
21D
330
2
100
AcDbEntity
  8
0
  6
Continuous
100
AcDbCircle
 10
1.987500000000019
 20
5.089999999999973
 30
0.0
 40
0.0855
  0
ARC
  5
21E
330
2
100
AcDbEntity
  8
0
100
AcDbCircle
 10
1.735000000000149
 20
5.173142315092322
 30
0.0
 40
0.5025000000000081
100
AcDbArc
 50
315.0000000000194
 51
359.9999999999998
1001
_DIE112SSJYHX
1002
{
1000
comp_type
1000
DBL24
1000
material
1000
D-2
1000
thickness
1040
1.25
1000
mount
1000
SBP10
1000
mntlay
1000
DIE_SUB_PLATE
1002
}
  0
LINE
  5
21F
330
2
100
AcDbEntity
  8
0
100
AcDbLine
 10
-1.362499999999997
 20
14.08999999999998
 30
0.0
 11
-1.737500000000019
 21
14.08999999999998
 31
0.0
  0
CIRCLE
  5
220
330
2
100
AcDbEntity
  8
0
  6
Continuous
100
AcDbCircle
 10
-1.987500000000019
 20
9.477499999999978
 30
0.0
 40
0.0855
  0
CIRCLE
  5
221
330
2
100
AcDbEntity
  8
0
  6
Continuous
100
AcDbCircle
 10
-1.726746538668365
 20
10.49807179664009
 30
0.0
 40
0.0855
  0
LINE
  5
222
330
2
100
AcDbEntity
  8
0
100
AcDbLine
 10
-1.737500000000004
 20
13.66499999999997
 30
0.0
 11
-1.737500000000019
 21
14.08999999999998
 31
0.0
  0
LINE
  5
223
330
2
100
AcDbEntity
  8
0
100
AcDbLine
 10
-1.625250000000165
 20
12.72749999999998
 30
0.0
 11
-1.625250000000165
 21
11.9723883476483
 31
0.0
  0
LINE
  5
224
330
2
100
AcDbEntity
  8
0
100
AcDbLine
 10
-1.437250000000169
 20
11.97238834764796
 30
0.0
 11
-1.437250000000162
 21
12.72749999999998
 31
0.0
  0
CIRCLE
  5
225
330
2
100
AcDbEntity
  8
0
  6
Continuous
100
AcDbCircle
 10
-1.987500000000019
 20
11.78999999999998
 30
0.0
 40
0.0855
  0
ARC
  5
226
330
2
100
AcDbEntity
  8
0
100
AcDbCircle
 10
-1.499750000000169
 20
11.97238834764796
 30
0.0
 40
0.0625
100
AcDbArc
 50
314.9999999999995
 51
359.9999999999998
  0
ARC
  5
227
330
2
100
AcDbEntity
  8
0
100
AcDbCircle
 10
-1.562750000000172
 20
11.9723883476483
 30
0.0
 40
0.0625
100
AcDbArc
 50
180.0
 51
224.9999999999999
  0
LINE
  5
228
330
2
100
AcDbEntity
  8
0
100
AcDbLine
 10
-1.531250000000163
 20
11.85249999999998
 30
0.0
 11
-1.606944173824324
 21
11.92819417382414
 31
0.0
  0
LINE
  5
229
330
2
100
AcDbEntity
  8
0
100
AcDbLine
 10
-1.531249999999837
 20
11.85249999999998
 30
0.0
 11
-1.45555582617601
 21
11.92819417382381
 31
0.0
  0
LINE
  5
22A
330
2
100
AcDbEntity
  8
0
100
AcDbLine
 10
-1.737500000000019
 20
13.66499999999999
 30
0.0
 11
-1.987500000000019
 21
13.66499999999999
 31
0.0
  0
CIRCLE
  5
22B
330
2
100
AcDbEntity
  8
0
  6
Continuous
100
AcDbCircle
 10
-1.987500000000019
 20
12.91499999999997
 30
0.0
 40
0.0855
  0
LINE
  5
22C
330
2
100
AcDbEntity
  8
0
100
AcDbLine
 10
-2.237500000000019
 20
13.41499999999999
 30
0.0
 11
-1.987500000000019
 21
13.66499999999999
 31
0.0
  0
CIRCLE
  5
22E
330
2
100
AcDbEntity
  8
0
  6
Continuous
100
AcDbCircle
 10
1.987500000000019
 20
9.477499999999978
 30
0.0
 40
0.0855
  0
CIRCLE
  5
22F
330
2
100
AcDbEntity
  8
0
  6
Continuous
100
AcDbCircle
 10
1.726746538668373
 20
10.49807179664009
 30
0.0
 40
0.0855
  0
LINE
  5
230
330
2
100
AcDbEntity
  8
0
100
AcDbLine
 10
-1.362499999999997
 20
13.66499999999998
 30
0.0
 11
-1.362499999999997
 21
14.08999999999998
 31
0.0
  0
LINE
  5
231
330
2
100
AcDbEntity
  8
0
100
AcDbLine
 10
-1.0625
 20
13.17866374223517
 30
0.0
 11
-1.319864720043654
 21
13.59919722692674
 31
0.0
  0
LINE
  5
232
330
2
100
AcDbEntity
  8
0
100
AcDbLine
 10
-1.112499999999997
 20
13.16499999999998
 30
0.0
 11
-1.362499999999997
 21
13.57307763843374
 31
0.0
  0
ARC
  5
233
330
2
100
AcDbEntity
  8
0
100
AcDbCircle
 10
-1.062499999999993
 20
13.16499999999998
 30
0.0
 40
0.15625
100
AcDbArc
 50
137.3276934388401
 51
251.3370751150561
  0
LINE
  5
234
330
2
100
AcDbEntity
  8
0
100
AcDbLine
 10
-1.112499999999997
 20
13.66499999999998
 30
0.0
 11
-1.362499999999997
 21
13.66499999999998
 31
0.0
  0
LINE
  5
235
330
2
100
AcDbEntity
  8
0
100
AcDbLine
 10
-1.362499999999997
 20
13.57307763843374
 30
0.0
 11
-1.319864720043654
 21
13.59919722692674
 31
0.0
  0
ARC
  5
236
330
2
100
AcDbEntity
  8
0
100
AcDbCircle
 10
-1.062499999999993
 20
13.16499999999998
 30
0.0
 40
0.15625
100
AcDbArc
 50
108.6629248849441
 51
118.8501228964894
  0
LINE
  5
237
330
2
100
AcDbEntity
  8
0
100
AcDbLine
 10
-1.112499999999997
 20
13.31303399102906
 30
0.0
 11
-1.112499999999997
 21
13.66499999999998
 31
0.0
  0
LINE
  5
238
330
2
100
AcDbEntity
  8
0
100
AcDbLine
 10
1.737500000000019
 20
13.66499999999999
 30
0.0
 11
1.737500000000019
 21
14.08999999999998
 31
0.0
  0
LINE
  5
239
330
2
100
AcDbEntity
  8
0
100
AcDbLine
 10
1.362500000000011
 20
13.66499999999998
 30
0.0
 11
1.362500000000011
 21
14.08999999999998
 31
0.0
  0
LINE
  5
23A
330
2
100
AcDbEntity
  8
0
100
AcDbLine
 10
1.112500000000011
 20
13.16499999999998
 30
0.0
 11
1.362500000000011
 21
13.57307763843374
 31
0.0
  0
LINE
  5
23B
330
2
100
AcDbEntity
  8
0
100
AcDbLine
 10
1.062500000000007
 20
13.17866374223517
 30
0.0
 11
1.319864720043661
 21
13.59919722692674
 31
0.0
  0
ARC
  5
23C
330
2
100
AcDbEntity
  8
0
100
AcDbCircle
 10
1.062500000000007
 20
13.16499999999998
 30
0.0
 40
0.15625
100
AcDbArc
 50
288.6629248849412
 51
42.67230656116108
  0
LINE
  5
23D
330
2
100
AcDbEntity
  8
0
100
AcDbLine
 10
1.112500000000011
 20
13.66499999999998
 30
0.0
 11
1.362500000000011
 21
13.66499999999998
 31
0.0
  0
ARC
  5
23E
330
2
100
AcDbEntity
  8
0
100
AcDbCircle
 10
1.062500000000007
 20
13.16499999999998
 30
0.0
 40
0.15625
100
AcDbArc
 50
61.14987710351321
 51
71.33707511505588
  0
LINE
  5
23F
330
2
100
AcDbEntity
  8
0
100
AcDbLine
 10
1.112500000000011
 20
13.31303399102906
 30
0.0
 11
1.112500000000011
 21
13.66499999999998
 31
0.0
  0
LINE
  5
240
330
2
100
AcDbEntity
  8
0
100
AcDbLine
 10
1.362500000000011
 20
13.57307763843374
 30
0.0
 11
1.319864720043661
 21
13.59919722692674
 31
0.0
  0
LINE
  5
241
330
2
100
AcDbEntity
  8
0
100
AcDbLine
 10
1.625250000000172
 20
12.72749999999998
 30
0.0
 11
1.625250000000172
 21
11.9723883476483
 31
0.0
  0
LINE
  5
242
330
2
100
AcDbEntity
  8
0
100
AcDbLine
 10
1.437250000000176
 20
11.97238834764796
 30
0.0
 11
1.437250000000169
 21
12.72749999999998
 31
0.0
  0
ARC
  5
243
330
2
100
AcDbEntity
  8
0
100
AcDbCircle
 10
1.562750000000172
 20
11.9723883476483
 30
0.0
 40
0.0625
100
AcDbArc
 50
315.0000000000001
 51
0.000000000000007
  0
LINE
  5
244
330
2
100
AcDbEntity
  8
0
100
AcDbLine
 10
1.531250000000171
 20
11.85249999999998
 30
0.0
 11
1.606944173824331
 21
11.92819417382414
 31
0.0
  0
ARC
  5
245
330
2
100
AcDbEntity
  8
0
100
AcDbCircle
 10
1.499750000000176
 20
11.97238834764796
 30
0.0
 40
0.0625
100
AcDbArc
 50
180.0000000000002
 51
225.0000000000005
  0
LINE
  5
246
330
2
100
AcDbEntity
  8
0
100
AcDbLine
 10
1.531249999999844
 20
11.85249999999998
 30
0.0
 11
1.455555826176017
 21
11.92819417382381
 31
0.0
  0
CIRCLE
  5
247
330
2
100
AcDbEntity
  8
0
  6
Continuous
100
AcDbCircle
 10
1.987500000000019
 20
11.78999999999998
 30
0.0
 40
0.0855
  0
LINE
  5
248
330
2
100
AcDbEntity
  8
0
100
AcDbLine
 10
1.737500000000019
 20
13.66499999999999
 30
0.0
 11
1.987500000000019
 21
13.66499999999999
 31
0.0
  0
CIRCLE
  5
24A
330
2
100
AcDbEntity
  8
0
  6
Continuous
100
AcDbCircle
 10
1.987500000000019
 20
12.91499999999997
 30
0.0
 40
0.0855
  0
LINE
  5
24B
330
2
100
AcDbEntity
  8
0
100
AcDbLine
 10
2.237500000000019
 20
13.41499999999999
 30
0.0
 11
1.987500000000019
 21
13.66499999999999
 31
0.0
  0
LINE
  5
24C
330
2
100
AcDbEntity
  8
0
100
AcDbLine
 10
1.362500000000004
 20
14.08999999999998
 30
0.0
 11
1.737500000000011
 21
14.08999999999998
 31
0.0
  0
LINE
  5
354
330
2
100
AcDbEntity
  8
0
  6
Continuous
100
AcDbLine
 10
-1.615256426651637
 20
13.78999999999995
 30
0.0
 11
-1.4847435733484
 21
13.78999999999995
 31
0.0
  0
LINE
  5
355
330
2
100
AcDbEntity
  8
0
  6
Continuous
100
AcDbLine
 10
-1.4847435733484
 20
13.78999999999995
 30
0.0
 11
-1.4847435733484
 21
13.53999999999995
 31
0.0
  0
LINE
  5
356
330
2
100
AcDbEntity
  8
0
  6
Continuous
100
AcDbLine
 10
-1.4847435733484
 20
13.53999999999995
 30
0.0
 11
-1.615256426651637
 21
13.53999999999995
 31
0.0
  0
LINE
  5
357
330
2
100
AcDbEntity
  8
0
  6
Continuous
100
AcDbLine
 10
-1.615256426651637
 20
13.53999999999995
 30
0.0
 11
-1.615256426651637
 21
13.78999999999995
 31
0.0
  0
LINE
  5
358
330
2
100
AcDbEntity
  8
0
  6
Continuous
100
AcDbLine
 10
1.4847435733484
 20
13.78999999999999
 30
0.0
 11
1.615256426651637
 21
13.78999999999999
 31
0.0
  0
LINE
  5
359
330
2
100
AcDbEntity
  8
0
  6
Continuous
100
AcDbLine
 10
1.615256426651637
 20
13.78999999999999
 30
0.0
 11
1.615256426651637
 21
13.53999999999999
 31
0.0
  0
LINE
  5
35A
330
2
100
AcDbEntity
  8
0
  6
Continuous
100
AcDbLine
 10
1.615256426651637
 20
13.53999999999999
 30
0.0
 11
1.4847435733484
 21
13.53999999999999
 31
0.0
  0
LINE
  5
35B
330
2
100
AcDbEntity
  8
0
  6
Continuous
100
AcDbLine
 10
1.4847435733484
 20
13.53999999999999
 30
0.0
 11
1.4847435733484
 21
13.78999999999999
 31
0.0
  0
LINE
  5
422
330
2
100
AcDbEntity
  8
0
  6
HIDDEN
100
AcDbLine
 10
-1.362499999999997
 20
14.03999999999998
 30
0.0
 11
-1.737500000000019
 21
14.03999999999998
 31
0.0
  0
LINE
  5
423
330
2
100
AcDbEntity
  8
0
  6
HIDDEN
100
AcDbLine
 10
1.362500000000004
 20
14.03999999999998
 30
0.0
 11
1.737500000000011
 21
14.03999999999999
 31
0.0
  0
ENDSEC
  0
SECTION
  2
OBJECTS
  0
DICTIONARY
  5
9
330
0
100
AcDbDictionary
281
     1
  3
ACAD_COLOR
350
3B3
  3
ACAD_GROUP
350
24
  3
ACAD_LAYOUT
350
D
  3
ACAD_MATERIAL
350
3B2
  3
ACAD_MLINESTYLE
350
25
  3
ACAD_PLOTSETTINGS
350
26
  3
ACAD_PLOTSTYLENAME
350
8
  3
ACAD_TABLESTYLE
350
3B4
  3
ACDBHEADERROUNDTRIPXREC
350
446
  3
AcDbVariableDictionary
350
1CC
  0
DICTIONARY
  5
3B3
102
{ACAD_REACTORS
330
9
102
}
330
9
100
AcDbDictionary
281
     1
  0
DICTIONARY
  5
24
102
{ACAD_REACTORS
330
9
102
}
330
9
100
AcDbDictionary
281
     1
  0
DICTIONARY
  5
D
102
{ACAD_REACTORS
330
9
102
}
330
9
100
AcDbDictionary
281
     1
  3
Layout1
350
13
  3
Model
350
C
  0
DICTIONARY
  5
3B2
102
{ACAD_REACTORS
330
9
102
}
330
9
100
AcDbDictionary
281
     1
  0
DICTIONARY
  5
25
102
{ACAD_REACTORS
330
9
102
}
330
9
100
AcDbDictionary
281
     1
  3
STANDARD
350
28
  0
DICTIONARY
  5
26
102
{ACAD_REACTORS
330
9
102
}
330
9
100
AcDbDictionary
281
     1
  0
ACDBDICTIONARYWDFLT
  5
8
102
{ACAD_REACTORS
330
9
102
}
330
9
100
AcDbDictionary
281
     1
  3
Normal
350
7
100
AcDbDictionaryWithDefault
340
7
  0
DICTIONARY
  5
3B4
102
{ACAD_REACTORS
330
9
102
}
330
9
100
AcDbDictionary
281
     1
  3
Standard
350
3B5
  0
DICTIONARY
  5
446
102
{ACAD_REACTORS
330
9
102
}
330
9
100
AcDbDictionary
281
     1
  3
COLORDICT
350
447
  3
MATERIALDICT
350
448
  0
DICTIONARY
  5
1CC
102
{ACAD_REACTORS
330
9
102
}
330
9
100
AcDbDictionary
281
     1
  3
CTABLESTYLE
350
3BE
  3
HIDETEXT
350
445
  0
LAYOUT
  5
13
102
{ACAD_REACTORS
330
D
102
}
102
{ACAD_XDICTIONARY
360
449
102
}
330
D
100
AcDbPlotSettings
  1

  2
HP LaserJet 2100 Series PS
  4

  6

 40
0.0
 41
0.0
 42
0.0
 43
0.0
 44
0.0
 45
0.0
 46
0.0
 47
0.0
 48
0.0
 49
0.0
140
0.0
141
0.0
142
1.0
143
1.0
 70
   688
 72
     0
 73
     0
 74
     5
  7

 75
    16
147
1.0
148
0.0
149
0.0
100
AcDbLayout
  1
Layout1
 70
     0
 71
     1
 10
0.0
 20
0.0
 11
12.0
 21
9.0
 12
0.0
 22
0.0
 32
0.0
 14
1.000000000000000E+20
 24
1.000000000000000E+20
 34
1.000000000000000E+20
 15
-1.000000000000000E+20
 25
-1.000000000000000E+20
 35
-1.000000000000000E+20
146
0.0
 13
0.0
 23
0.0
 33
0.0
 16
1.0
 26
0.0
 36
0.0
 17
0.0
 27
1.0
 37
0.0
 76
     0
330
E
  0
LAYOUT
  5
C
102
{ACAD_REACTORS
330
D
102
}
102
{ACAD_XDICTIONARY
360
44B
102
}
330
D
100
AcDbPlotSettings
  1

  2
HP LaserJet 2100 Series PS
  4
Letter
  6

 40
5.365749835968018
 41
5.386905193328857
 42
5.386917114257813
 43
5.365753173828125
 44
215.8999938964844
 45
279.3999938964844
 46
0.0
 47
0.0
 48
0.0
 49
0.0
140
0.0
141
0.0
142
1.0
143
1.0
 70
 11952
 72
     0
 73
     1
 74
     0
  7

 75
     0
147
1.0
148
-109.2120479562036
149
4.761312409500627
100
AcDbLayout
  1
Model
 70
     1
 71
     0
 10
0.0
 20
0.0
 11
12.0
 21
9.0
 12
0.0
 22
0.0
 32
0.0
 14
0.0
 24
0.0
 34
0.0
 15
0.0
 25
0.0
 35
0.0
146
0.0
 13
0.0
 23
0.0
 33
0.0
 16
1.0
 26
0.0
 36
0.0
 17
0.0
 27
1.0
 37
0.0
 76
     0
330
2
  0
MLINESTYLE
  5
28
102
{ACAD_REACTORS
330
25
102
}
330
25
100
AcDbMlineStyle
  2
STANDARD
 70
     0
  3

 62
   256
 51
90.0
 52
90.0
 71
     2
 49
0.5
 62
   256
  6
BYLAYER
 49
-0.5
 62
   256
  6
BYLAYER
  0
ACDBPLACEHOLDER
  5
7
102
{ACAD_REACTORS
330
8
102
}
330
8
  0
ACAD_PROXY_OBJECT
  5
3B5
102
{ACAD_REACTORS
330
3B4
102
}
330
3B4
100
AcDbProxyObject
 90
      499
 91
      561
 95
   983063
 70
     0
 93
     1841
310
4214DD185B99185C9928B81E85EB51B8AE3F2E07A17AD46E2B8FC02B5E8DC0F42B1CFD028000000C1008070000C3001FDFF8000000C1003FBFF000000182007F7FE00000030400FEFFC00000060801FDFF8000000C1003FBFF00000018200000000000000681FA0B0000001820100E000186003FBFF000000182007F7FE000
310
00030400FEFFC00000060801FDFF8000000C1003FBFF000000182007F7FE000000304000AD7A3703D0AC73F4160000003040201C00030C007F7FE00000030400FEFFC00000060801FDFF8000000C1003FBFF000000182007F7FE00000030400FEFFC000000608000
340
16
340
16
340
16
 94
        0
  0
XRECORD
  5
447
102
{ACAD_REACTORS
330
446
102
}
330
446
100
AcDbXrecord
340
3B3
  0
XRECORD
  5
448
102
{ACAD_REACTORS
330
446
102
}
330
446
100
AcDbXrecord
340
3B2
  0
DICTIONARYVAR
  5
3BE
102
{ACAD_REACTORS
330
1CC
102
}
330
1CC
100
DictionaryVariables
280
     0
  1
STANDARD
  0
DICTIONARYVAR
  5
445
102
{ACAD_REACTORS
330
1CC
102
}
330
1CC
100
DictionaryVariables
280
     0
  1
1
  0
DICTIONARY
  5
449
330
13
100
AcDbDictionary
280
     1
281
     1
  3
ACAD_XREC_ROUNDTRIP
360
44A
  0
DICTIONARY
  5
44B
330
C
100
AcDbDictionary
280
     1
281
     1
  3
ACAD_XREC_ROUNDTRIP
360
44C
  0
XRECORD
  5
44A
102
{ACAD_REACTORS
330
449
102
}
330
449
100
AcDbXrecord
102
SHADEPLOT
 70
     0
102
SHADEPLOTRESLEVEL
 70
     2
102
SHADEPLOTCUSTOMDPI
 70
   300
  0
XRECORD
  5
44C
102
{ACAD_REACTORS
330
44B
102
}
330
44B
100
AcDbXrecord
102
SHADEPLOT
 70
     0
102
SHADEPLOTRESLEVEL
 70
     2
102
SHADEPLOTCUSTOMDPI
 70
   300
  0
ENDSEC
  0
EOF
