  0
SECTION
  2
HEADER
  9
$ACADVER
  1
AC1015
  9
$ACADMAINTVER
 70
     6
  9
$DWGCODEPAGE
  3
ANSI_1252
  9
$INSBASE
 10
0.0
 20
0.0
 30
0.0
  9
$EXTMIN
 10
-11.89201652557449
 20
-0.027959415460193
 30
0.0
  9
$EXTMAX
 10
13.62428769339535
 20
19.60548413167573
 30
0.0
  9
$LIMMIN
 10
0.0
 20
0.0
  9
$LIMMAX
 10
24.0
 20
31.5
  9
$ORTHOMODE
 70
     1
  9
$REGENMODE
 70
     1
  9
$FILLMODE
 70
     1
  9
$QTEXTMODE
 70
     0
  9
$MIRRTEXT
 70
     0
  9
$LTSCALE
 40
0.6
  9
$ATTMODE
 70
     1
  9
$TEXTSIZE
 40
0.27
  9
$TRACEWID
 40
0.05
  9
$TEXTSTYLE
  7
STANDARD
  9
$CLAYER
  8
0
  9
$CELTYPE
  6
HIDDEN
  9
$CECOLOR
 62
   256
  9
$CELTSCALE
 40
1.0
  9
$DISPSILH
 70
     0
  9
$DIMSCALE
 40
3.0
  9
$DIMASZ
 40
0.125
  9
$DIMEXO
 40
0.062
  9
$DIMDLI
 40
0.375
  9
$DIMRND
 40
0.0
  9
$DIMDLE
 40
0.0
  9
$DIMEXE
 40
0.08
  9
$DIMTP
 40
0.0
  9
$DIMTM
 40
0.0
  9
$DIMTXT
 40
0.09
  9
$DIMCEN
 40
-0.03125
  9
$DIMTSZ
 40
0.0
  9
$DIMTOL
 70
     0
  9
$DIMLIM
 70
     0
  9
$DIMTIH
 70
     1
  9
$DIMTOH
 70
     1
  9
$DIMSE1
 70
     0
  9
$DIMSE2
 70
     0
  9
$DIMTAD
 70
     0
  9
$DIMZIN
 70
     0
  9
$DIMBLK
  1

  9
$DIMASO
 70
     1
  9
$DIMSHO
 70
     0
  9
$DIMPOST
  1

  9
$DIMAPOST
  1

  9
$DIMALT
 70
     0
  9
$DIMALTD
 70
     2
  9
$DIMALTF
 40
25.4
  9
$DIMLFAC
 40
1.0
  9
$DIMTOFL
 70
     0
  9
$DIMTVP
 40
0.0
  9
$DIMTIX
 70
     0
  9
$DIMSOXD
 70
     0
  9
$DIMSAH
 70
     0
  9
$DIMBLK1
  1

  9
$DIMBLK2
  1

  9
$DIMSTYLE
  2
STANDARD
  9
$DIMCLRD
 70
     0
  9
$DIMCLRE
 70
     0
  9
$DIMCLRT
 70
     0
  9
$DIMTFAC
 40
1.0
  9
$DIMGAP
 40
0.09
  9
$DIMJUST
 70
     0
  9
$DIMSD1
 70
     0
  9
$DIMSD2
 70
     0
  9
$DIMTOLJ
 70
     1
  9
$DIMTZIN
 70
     0
  9
$DIMALTZ
 70
     0
  9
$DIMALTTZ
 70
     0
  9
$DIMUPT
 70
     0
  9
$DIMDEC
 70
     5
  9
$DIMTDEC
 70
     4
  9
$DIMALTU
 70
     2
  9
$DIMALTTD
 70
     2
  9
$DIMTXSTY
  7
STANDARD
  9
$DIMAUNIT
 70
     0
  9
$DIMADEC
 70
     0
  9
$DIMALTRND
 40
0.0
  9
$DIMAZIN
 70
     0
  9
$DIMDSEP
 70
    46
  9
$DIMATFIT
 70
     3
  9
$DIMFRAC
 70
     2
  9
$DIMLDRBLK
  1

  9
$DIMLUNIT
 70
     5
  9
$DIMLWD
 70
    -2
  9
$DIMLWE
 70
    -2
  9
$DIMTMOVE
 70
     2
  9
$LUNITS
 70
     2
  9
$LUPREC
 70
     4
  9
$SKETCHINC
 40
0.1
  9
$FILLETRAD
 40
0.0
  9
$AUNITS
 70
     0
  9
$AUPREC
 70
     0
  9
$MENU
  1
ACAD
  9
$ELEVATION
 40
0.0
  9
$PELEVATION
 40
0.0
  9
$THICKNESS
 40
0.0
  9
$LIMCHECK
 70
     0
  9
$CHAMFERA
 40
0.0
  9
$CHAMFERB
 40
0.0
  9
$CHAMFERC
 40
0.0
  9
$CHAMFERD
 40
0.0
  9
$SKPOLY
 70
     0
  9
$TDCREATE
 40
2449436.829454167
  9
$TDUCREATE
 40
2449437.1627875
  9
$TDUPDATE
 40
2454166.859342257
  9
$TDUUPDATE
 40
2454167.19267559
  9
$TDINDWG
 40
0.6546224421
  9
$TDUSRTIMER
 40
0.6546224421
  9
$USRTIMER
 70
     1
  9
$ANGBASE
 50
0.0
  9
$ANGDIR
 70
     0
  9
$PDMODE
 70
     0
  9
$PDSIZE
 40
0.0
  9
$PLINEWID
 40
0.0
  9
$SPLFRAME
 70
     0
  9
$SPLINETYPE
 70
     6
  9
$SPLINESEGS
 70
     8
  9
$HANDSEED
  5
447
  9
$SURFTAB1
 70
     6
  9
$SURFTAB2
 70
     6
  9
$SURFTYPE
 70
     6
  9
$SURFU
 70
     6
  9
$SURFV
 70
     6
  9
$UCSBASE
  2

  9
$UCSNAME
  2

  9
$UCSORG
 10
0.0
 20
0.0
 30
0.0
  9
$UCSXDIR
 10
1.0
 20
0.0
 30
0.0
  9
$UCSYDIR
 10
0.0
 20
1.0
 30
0.0
  9
$UCSORTHOREF
  2

  9
$UCSORTHOVIEW
 70
     0
  9
$UCSORGTOP
 10
0.0
 20
0.0
 30
0.0
  9
$UCSORGBOTTOM
 10
0.0
 20
0.0
 30
0.0
  9
$UCSORGLEFT
 10
0.0
 20
0.0
 30
0.0
  9
$UCSORGRIGHT
 10
0.0
 20
0.0
 30
0.0
  9
$UCSORGFRONT
 10
0.0
 20
0.0
 30
0.0
  9
$UCSORGBACK
 10
0.0
 20
0.0
 30
0.0
  9
$PUCSBASE
  2

  9
$PUCSNAME
  2

  9
$PUCSORG
 10
0.0
 20
0.0
 30
0.0
  9
$PUCSXDIR
 10
1.0
 20
0.0
 30
0.0
  9
$PUCSYDIR
 10
0.0
 20
1.0
 30
0.0
  9
$PUCSORTHOREF
  2

  9
$PUCSORTHOVIEW
 70
     0
  9
$PUCSORGTOP
 10
0.0
 20
0.0
 30
0.0
  9
$PUCSORGBOTTOM
 10
0.0
 20
0.0
 30
0.0
  9
$PUCSORGLEFT
 10
0.0
 20
0.0
 30
0.0
  9
$PUCSORGRIGHT
 10
0.0
 20
0.0
 30
0.0
  9
$PUCSORGFRONT
 10
0.0
 20
0.0
 30
0.0
  9
$PUCSORGBACK
 10
0.0
 20
0.0
 30
0.0
  9
$USERI1
 70
     0
  9
$USERI2
 70
     0
  9
$USERI3
 70
     0
  9
$USERI4
 70
     0
  9
$USERI5
 70
     0
  9
$USERR1
 40
0.0
  9
$USERR2
 40
0.0
  9
$USERR3
 40
0.0
  9
$USERR4
 40
0.0
  9
$USERR5
 40
0.0
  9
$WORLDVIEW
 70
     1
  9
$SHADEDGE
 70
     3
  9
$SHADEDIF
 70
    70
  9
$TILEMODE
 70
     1
  9
$MAXACTVP
 70
    16
  9
$PINSBASE
 10
0.0
 20
0.0
 30
0.0
  9
$PLIMCHECK
 70
     0
  9
$PEXTMIN
 10
1.000000000000000E+20
 20
1.000000000000000E+20
 30
1.000000000000000E+20
  9
$PEXTMAX
 10
-1.000000000000000E+20
 20
-1.000000000000000E+20
 30
-1.000000000000000E+20
  9
$PLIMMIN
 10
0.0
 20
0.0
  9
$PLIMMAX
 10
12.0
 20
9.0
  9
$UNITMODE
 70
     0
  9
$VISRETAIN
 70
     0
  9
$PLINEGEN
 70
     0
  9
$PSLTSCALE
 70
     0
  9
$TREEDEPTH
 70
  3020
  9
$CMLSTYLE
  2
STANDARD
  9
$CMLJUST
 70
     0
  9
$CMLSCALE
 40
1.0
  9
$PROXYGRAPHICS
 70
     1
  9
$MEASUREMENT
 70
     0
  9
$CELWEIGHT
370
    -1
  9
$ENDCAPS
280
     0
  9
$JOINSTYLE
280
     0
  9
$LWDISPLAY
290
     0
  9
$INSUNITS
 70
     0
  9
$HYPERLINKBASE
  1

  9
$STYLESHEET
  1

  9
$XEDIT
290
     1
  9
$CEPSNTYPE
380
     0
  9
$PSTYLEMODE
290
     1
  9
$FINGERPRINTGUID
  2
{7E1BADD1-439C-11D5-BE3F-00508B5FCD51}
  9
$VERSIONGUID
  2
{8C14B9F6-2840-425B-8CEE-5BF454DCC143}
  9
$EXTNAMES
290
     1
  9
$PSVPSCALE
 40
0.0
  9
$OLESTARTUP
290
     0
  0
ENDSEC
  0
SECTION
  2
CLASSES
  0
CLASS
  1
DICTIONARYVAR
  2
AcDbDictionaryVar
  3
AutoCAD 2000
 90
        0
280
     0
281
     0
  0
CLASS
  1
LWPOLYLINE
  2
AcDbPolyline
  3
AutoCAD 2000
 90
        0
280
     0
281
     1
  0
CLASS
  1
ACDBDICTIONARYWDFLT
  2
AcDbDictionaryWithDefault
  3
AutoCAD 2000
 90
        0
280
     0
281
     0
  0
CLASS
  1
ACDBPLACEHOLDER
  2
AcDbPlaceHolder
  3
ObjectDBX Classes
 90
        0
280
     0
281
     0
  0
CLASS
  1
LAYOUT
  2
AcDbLayout
  3
ObjectDBX Classes
 90
        0
280
     0
281
     0
  0
CLASS
  1
LONG_TRANSACTION
  2
AcDbLongTransaction
  3
ObjectDBX Classes
 90
   -65536
280
     1
281
     0
  0
CLASS
  1
LWPOLYLINE
  2
AcDbPolyline
  3
AutoCAD 2000
 90
        0
280
     0
281
     1
  0
CLASS
  1
HATCH
  2
AcDbHatch
  3
AutoCAD 2000
 90
        0
280
     0
281
     1
  0
CLASS
  1
XRECORD
  2
AcDbXrecord
  3
AutoCAD 2000
 90
        0
280
     0
281
     0
  0
CLASS
  1
LONG_TRANSACTION
  2
AcDbLongTransaction
  3
ObjectDBX Classes
 90
   -65536
280
     1
281
     0
  0
CLASS
  1
LWPOLYLINE
  2
AcDbPolyline
  3
AutoCAD 2000
 90
        0
280
     0
281
     1
  0
CLASS
  1
HATCH
  2
AcDbHatch
  3
AutoCAD 2000
 90
        0
280
     0
281
     1
  0
CLASS
  1
XRECORD
  2
AcDbXrecord
  3
AutoCAD 2000
 90
        0
280
     0
281
     0
  0
CLASS
  1
LONG_TRANSACTION
  2
AcDbLongTransaction
  3
ObjectDBX Classes
 90
   -65536
280
     1
281
     0
  0
CLASS
  1
LWPOLYLINE
  2
AcDbPolyline
  3
AutoCAD 2000
 90
        0
280
     0
281
     1
  0
CLASS
  1
HATCH
  2
AcDbHatch
  3
AutoCAD 2000
 90
        0
280
     0
281
     1
  0
CLASS
  1
XRECORD
  2
AcDbXrecord
  3
AutoCAD 2000
 90
        0
280
     0
281
     0
  0
CLASS
  1
LONG_TRANSACTION
  2
AcDbLongTransaction
  3
ObjectDBX Classes
 90
   -65536
280
     1
281
     0
  0
CLASS
  1
LWPOLYLINE
  2
AcDbPolyline
  3
AutoCAD 2000
 90
        0
280
     0
281
     1
  0
CLASS
  1
HATCH
  2
AcDbHatch
  3
AutoCAD 2000
 90
        0
280
     0
281
     1
  0
CLASS
  1
XRECORD
  2
AcDbXrecord
  3
AutoCAD 2000
 90
        0
280
     0
281
     0
  0
CLASS
  1
LONG_TRANSACTION
  2
AcDbLongTransaction
  3
ObjectDBX Classes
 90
   -65536
280
     1
281
     0
  0
CLASS
  1
LWPOLYLINE
  2
AcDbPolyline
  3
AutoCAD 2000
 90
        0
280
     0
281
     1
  0
CLASS
  1
HATCH
  2
AcDbHatch
  3
AutoCAD 2000
 90
        0
280
     0
281
     1
  0
CLASS
  1
XRECORD
  2
AcDbXrecord
  3
AutoCAD 2000
 90
        0
280
     0
281
     0
  0
CLASS
  1
LONG_TRANSACTION
  2
AcDbLongTransaction
  3
ObjectDBX Classes
 90
   -65536
280
     1
281
     0
  0
CLASS
  1
LWPOLYLINE
  2
AcDbPolyline
  3
AutoCAD 2000
 90
        0
280
     0
281
     1
  0
CLASS
  1
HATCH
  2
AcDbHatch
  3
AutoCAD 2000
 90
        0
280
     0
281
     1
  0
CLASS
  1
XRECORD
  2
AcDbXrecord
  3
AutoCAD 2000
 90
        0
280
     0
281
     0
  0
CLASS
  1
LONG_TRANSACTION
  2
AcDbLongTransaction
  3
ObjectDBX Classes
 90
   -65536
280
     1
281
     0
  0
CLASS
  1
LWPOLYLINE
  2
AcDbPolyline
  3
AutoCAD 2000
 90
        0
280
     0
281
     1
  0
CLASS
  1
HATCH
  2
AcDbHatch
  3
AutoCAD 2000
 90
        0
280
     0
281
     1
  0
CLASS
  1
XRECORD
  2
AcDbXrecord
  3
AutoCAD 2000
 90
        0
280
     0
281
     0
  0
CLASS
  1
LONG_TRANSACTION
  2
AcDbLongTransaction
  3
ObjectDBX Classes
 90
   -65536
280
     1
281
     0
  0
CLASS
  1
LWPOLYLINE
  2
AcDbPolyline
  3
AutoCAD 2000
 90
        0
280
     0
281
     1
  0
CLASS
  1
HATCH
  2
AcDbHatch
  3
AutoCAD 2000
 90
        0
280
     0
281
     1
  0
CLASS
  1
XRECORD
  2
AcDbXrecord
  3
AutoCAD 2000
 90
        0
280
     0
281
     0
  0
CLASS
  1
LONG_TRANSACTION
  2
AcDbLongTransaction
  3
ObjectDBX Classes
 90
   -65536
280
     1
281
     0
  0
CLASS
  1
LWPOLYLINE
  2
AcDbPolyline
  3
AutoCAD 2000
 90
        0
280
     0
281
     1
  0
CLASS
  1
HATCH
  2
AcDbHatch
  3
AutoCAD 2000
 90
        0
280
     0
281
     1
  0
CLASS
  1
XRECORD
  2
AcDbXrecord
  3
AutoCAD 2000
 90
        0
280
     0
281
     0
  0
CLASS
  1
LONG_TRANSACTION
  2
AcDbLongTransaction
  3
ObjectDBX Classes
 90
   -65536
280
     1
281
     0
  0
CLASS
  1
LWPOLYLINE
  2
AcDbPolyline
  3
AutoCAD 2000
 90
        0
280
     0
281
     1
  0
CLASS
  1
HATCH
  2
AcDbHatch
  3
AutoCAD 2000
 90
        0
280
     0
281
     1
  0
CLASS
  1
XRECORD
  2
AcDbXrecord
  3
AutoCAD 2000
 90
        0
280
     0
281
     0
  0
CLASS
  1
LONG_TRANSACTION
  2
AcDbLongTransaction
  3
ObjectDBX Classes
 90
   -65536
280
     1
281
     0
  0
CLASS
  1
LWPOLYLINE
  2
AcDbPolyline
  3
AutoCAD 2000
 90
        0
280
     0
281
     1
  0
CLASS
  1
HATCH
  2
AcDbHatch
  3
AutoCAD 2000
 90
        0
280
     0
281
     1
  0
CLASS
  1
XRECORD
  2
AcDbXrecord
  3
AutoCAD 2000
 90
        0
280
     0
281
     0
  0
CLASS
  1
LONG_TRANSACTION
  2
AcDbLongTransaction
  3
ObjectDBX Classes
 90
   -65536
280
     1
281
     0
  0
CLASS
  1
LWPOLYLINE
  2
AcDbPolyline
  3
AutoCAD 2000
 90
        0
280
     0
281
     1
  0
CLASS
  1
HATCH
  2
AcDbHatch
  3
AutoCAD 2000
 90
        0
280
     0
281
     1
  0
CLASS
  1
XRECORD
  2
AcDbXrecord
  3
AutoCAD 2000
 90
        0
280
     0
281
     0
  0
CLASS
  1
LONG_TRANSACTION
  2
AcDbLongTransaction
  3
ObjectDBX Classes
 90
   -65536
280
     1
281
     0
  0
CLASS
  1
LWPOLYLINE
  2
AcDbPolyline
  3
AutoCAD 2000
 90
        0
280
     0
281
     1
  0
CLASS
  1
HATCH
  2
AcDbHatch
  3
AutoCAD 2000
 90
        0
280
     0
281
     1
  0
CLASS
  1
XRECORD
  2
AcDbXrecord
  3
AutoCAD 2000
 90
        0
280
     0
281
     0
  0
CLASS
  1
LONG_TRANSACTION
  2
AcDbLongTransaction
  3
ObjectDBX Classes
 90
   -65536
280
     1
281
     0
  0
CLASS
  1
LWPOLYLINE
  2
AcDbPolyline
  3
AutoCAD 2000
 90
        0
280
     0
281
     1
  0
CLASS
  1
HATCH
  2
AcDbHatch
  3
AutoCAD 2000
 90
        0
280
     0
281
     1
  0
CLASS
  1
XRECORD
  2
AcDbXrecord
  3
AutoCAD 2000
 90
        0
280
     0
281
     0
  0
CLASS
  1
TABLESTYLE
  2
AcDbTableStyle
  3
ObjectDBX Classes
 90
     2047
280
     1
281
     0
  0
CLASS
  1
SORTENTSTABLE
  2
AcDbSortentsTable
  3
AutoCAD 2000
 90
        0
280
     0
281
     0
  0
ENDSEC
  0
SECTION
  2
TABLES
  0
TABLE
  2
VPORT
  5
1D
330
0
100
AcDbSymbolTable
 70
     3
  0
VPORT
  5
439
330
1D
100
AcDbSymbolTableRecord
100
AcDbViewportTableRecord
  2
*Active
 70
     0
 10
0.0
 20
0.0
 11
1.0
 21
1.0
 12
5.920434916653839
 22
12.87584091807404
 13
0.0
 23
0.0
 14
0.063
 24
0.063
 15
0.25
 25
0.25
 16
0.0
 26
0.0
 36
1.0
 17
0.0
 27
0.0
 37
0.0
 40
31.92221364422526
 41
1.814583333333333
 42
50.0
 43
0.0
 44
0.0
 50
0.0
 51
0.0
 71
     0
 72
   100
 73
     1
 74
     0
 75
     0
 76
     0
 77
     0
 78
     1
281
     0
 65
     1
110
0.0
120
0.0
130
0.0
111
1.0
121
0.0
131
0.0
112
0.0
122
1.0
132
0.0
 79
     0
146
0.0
  0
ENDTAB
  0
TABLE
  2
LTYPE
  5
18
330
0
100
AcDbSymbolTable
 70
     3
  0
LTYPE
  5
19
330
18
100
AcDbSymbolTableRecord
100
AcDbLinetypeTableRecord
  2
BYBLOCK
 70
     0
  3

 72
    65
 73
     0
 40
0.0
  0
LTYPE
  5
1A
330
18
100
AcDbSymbolTableRecord
100
AcDbLinetypeTableRecord
  2
BYLAYER
 70
     0
  3

 72
    65
 73
     0
 40
0.0
  0
LTYPE
  5
A
330
18
100
AcDbSymbolTableRecord
100
AcDbLinetypeTableRecord
  2
CONTINUOUS
 70
     0
  3
Solid line
 72
    65
 73
     0
 40
0.0
  0
LTYPE
  5
54
330
18
100
AcDbSymbolTableRecord
100
AcDbLinetypeTableRecord
  2
HIDDEN2
 70
     0
  3
Hidden (.5x) _ _ _ _ _ _ _ _ _ _ _ _ _ _ _ _ _
 72
    65
 73
     2
 40
0.1875
 49
0.125
 74
     0
 49
-0.0625
 74
     0
  0
LTYPE
  5
3C3
330
18
100
AcDbSymbolTableRecord
100
AcDbLinetypeTableRecord
  2
HIDDEN
 70
     0
  3
Hidden __ __ __ __ __ __ __ __ __ __ __ __ __ _
 72
    65
 73
     2
 40
0.375
 49
0.25
 74
     0
 49
-0.125
 74
     0
  0
ENDTAB
  0
TABLE
  2
LAYER
  5
14
330
0
100
AcDbSymbolTable
 70
     2
  0
LAYER
  5
6
330
14
100
AcDbSymbolTableRecord
100
AcDbLayerTableRecord
  2
0
 70
     0
 62
     7
  6
CONTINUOUS
370
    -3
390
7
  0
ENDTAB
  0
TABLE
  2
STYLE
  5
15
330
0
100
AcDbSymbolTable
 70
     1
  0
STYLE
  5
16
330
15
100
AcDbSymbolTableRecord
100
AcDbTextStyleTableRecord
  2
STANDARD
 70
     0
 40
0.0
 41
1.0
 50
0.0
 71
     0
 42
0.27
  3
TXT
  4

  0
ENDTAB
  0
TABLE
  2
VIEW
  5
1B
330
0
100
AcDbSymbolTable
 70
     0
  0
ENDTAB
  0
TABLE
  2
UCS
  5
1C
330
0
100
AcDbSymbolTable
 70
     0
  0
ENDTAB
  0
TABLE
  2
APPID
  5
1F
330
0
100
AcDbSymbolTable
 70
     2
  0
APPID
  5
20
330
1F
100
AcDbSymbolTableRecord
100
AcDbRegAppTableRecord
  2
ACAD
 70
     0
  0
APPID
  5
31
330
1F
100
AcDbSymbolTableRecord
100
AcDbRegAppTableRecord
  2
_DIE112SSJYHX
 70
     0
  0
ENDTAB
  0
TABLE
  2
DIMSTYLE
  5
21
330
0
100
AcDbSymbolTable
 70
     1
100
AcDbDimStyleTable
  0
DIMSTYLE
105
22
330
21
100
AcDbSymbolTableRecord
100
AcDbDimStyleTableRecord
  2
STANDARD
 70
     0
  3

  4

340
16
  0
ENDTAB
  0
TABLE
  2
BLOCK_RECORD
  5
1
330
0
100
AcDbSymbolTable
 70
     0
  0
BLOCK_RECORD
  5
2
330
1
100
AcDbSymbolTableRecord
100
AcDbBlockTableRecord
  2
*MODEL_SPACE
340
C
  0
BLOCK_RECORD
  5
E
330
1
100
AcDbSymbolTableRecord
100
AcDbBlockTableRecord
  2
*PAPER_SPACE
340
13
  0
ENDTAB
  0
ENDSEC
  0
SECTION
  2
BLOCKS
  0
BLOCK
  5
5
330
2
100
AcDbEntity
  8
0
100
AcDbBlockBegin
  2
*MODEL_SPACE
 70
     0
 10
0.0
 20
0.0
 30
0.0
  3
*MODEL_SPACE
  1

  4

  0
ENDBLK
  5
B
330
2
100
AcDbEntity
  8
0
100
AcDbBlockEnd
  0
BLOCK
  5
11
330
E
100
AcDbEntity
 67
     1
  8
0
100
AcDbBlockBegin
  2
*PAPER_SPACE
 70
     0
 10
0.0
 20
0.0
 30
0.0
  3
*PAPER_SPACE
  1

  4

  0
ENDBLK
  5
12
330
E
100
AcDbEntity
 67
     1
  8
0
100
AcDbBlockEnd
  0
ENDSEC
  0
SECTION
  2
ENTITIES
  0
LINE
  5
2A2
330
2
100
AcDbEntity
  8
0
100
AcDbLine
 10
-0.4391962399498404
 20
13.98999999999997
 30
0.0
 11
-0.4391962399498404
 21
2.105037001685483
 31
0.0
  0
LINE
  5
2A3
330
2
100
AcDbEntity
  8
0
100
AcDbLine
 10
-0.3891962399498432
 20
13.98999999999998
 30
0.0
 11
-0.3891962399498432
 21
2.033629601348386
 31
0.0
  0
LINE
  5
2A4
330
2
100
AcDbEntity
  8
0
100
AcDbLine
 10
0.4358037600501596
 20
4.997999999999971
 30
0.0
 11
0.4358037600501667
 21
13.34919722692673
 31
0.0
  0
ARC
  5
2A5
330
2
100
AcDbEntity
  8
0
100
AcDbCircle
 10
-0.6866962399499279
 20
1.586138852532367
 30
0.0
 40
0.4975
100
AcDbArc
 50
0.000000000000007
 51
35.00000000000365
1001
_DIE112SSJYHX
1002
{
1000
comp_type
1000
DBL24
1000
material
1000
D-2
1000
thickness
1040
1.25
1000
mount
1000
SBP10
1000
mntlay
1000
DIE_SUB_PLATE
1002
}
  0
ARC
  5
2A6
330
2
100
AcDbEntity
  8
0
100
AcDbCircle
 10
0.8108037600501596
 20
1.442328618174591
 30
0.0
 40
0.1874999999999982
100
AcDbArc
 50
0.000000000000007
 51
180.0
  0
ARC
  5
2A8
330
2
100
AcDbEntity
  8
0
100
AcDbCircle
 10
1.313303760050072
 20
1.586138852532367
 30
0.0
 40
0.4975
100
AcDbArc
 50
0.000000000000007
 51
35.00000000000365
1001
_DIE112SSJYHX
1002
{
1000
comp_type
1000
DBL24
1000
material
1000
D-2
1000
thickness
1040
1.25
1000
mount
1000
SBP10
1000
mntlay
1000
DIE_SUB_PLATE
1002
}
  0
ARC
  5
2A9
330
2
100
AcDbEntity
  8
0
100
AcDbCircle
 10
0.8108037600501596
 20
1.442328618174591
 30
0.0
 40
0.1874999999999982
100
AcDbArc
 50
0.000000000000007
 51
180.0
  0
LINE
  5
2AA
330
2
100
AcDbEntity
  8
0
100
AcDbLine
 10
-0.1891962399499256
 20
1.586138852532367
 30
0.0
 11
-0.1891962399499256
 21
0.2034999999999325
 31
0.0
  0
ARC
  5
2B0
330
2
100
AcDbEntity
  8
0
100
AcDbCircle
 10
0.9383037600501574
 20
1.377328618174586
 30
0.0
 40
0.06
100
AcDbArc
 50
270.0000000000004
 51
359.9999999999999
  0
LINE
  5
2B1
330
2
100
AcDbEntity
  8
0
100
AcDbLine
 10
0.8608037600502563
 20
0.7679999999999101
 30
0.0
 11
1.010803760050234
 21
0.9429999999999783
 31
0.0
  0
ARC
  5
2B2
330
2
100
AcDbEntity
  8
0
100
AcDbCircle
 10
1.010803760050177
 20
0.8804999999999783
 30
0.0
 40
0.1875
100
AcDbArc
 50
216.869897645846
 51
323.1301023541622
  0
LINE
  5
2B3
330
2
100
AcDbEntity
  8
0
100
AcDbLine
 10
1.01080376005012
 20
0.7452605845752434
 30
0.0
 11
0.8608037600501426
 21
0.7680000000000238
 31
0.0
  0
LINE
  5
2B4
330
2
100
AcDbEntity
  8
0
100
AcDbLine
 10
0.460803760050279
 20
1.042999999999887
 30
0.0
 11
0.6108037600502563
 21
1.217999999999842
 31
0.0
  0
ARC
  5
2B5
330
2
100
AcDbEntity
  8
0
100
AcDbCircle
 10
0.6108037600501994
 20
1.155499999999956
 30
0.0
 40
0.1875
100
AcDbArc
 50
216.869897645846
 51
323.1301023541622
  0
LINE
  5
2B6
330
2
100
AcDbEntity
  8
0
100
AcDbLine
 10
0.6108037600501426
 20
1.020260584575221
 30
0.0
 11
0.4608037600501653
 21
1.043000000000001
 31
0.0
  0
LINE
  5
2B7
330
2
100
AcDbEntity
  8
0
100
AcDbLine
 10
0.6108037600502563
 20
1.217999999999842
 30
0.0
 11
0.7608037600502335
 21
1.042999999999887
 31
0.0
  0
LINE
  5
2B8
330
2
100
AcDbEntity
  8
0
100
AcDbLine
 10
0.6108037600501426
 20
1.020260584575221
 30
0.0
 11
0.7608037600501767
 21
1.042999999999887
 31
0.0
  0
LINE
  5
2B9
330
2
100
AcDbEntity
  8
0
100
AcDbLine
 10
0.6833037600501619
 20
1.317328618174583
 30
0.0
 11
0.9383037600501574
 21
1.317328618174583
 31
0.0
  0
LINE
  5
2BA
330
2
100
AcDbEntity
  8
0
100
AcDbLine
 10
0.6108037600501426
 20
1.020260584575221
 30
0.0
 11
0.6108037600502563
 21
1.217999999999842
 31
0.0
  0
ARC
  5
2BB
330
2
100
AcDbEntity
  8
0
100
AcDbCircle
 10
0.6833037600501619
 20
1.377328618174586
 30
0.0
 40
0.06
100
AcDbArc
 50
180.0000000000001
 51
269.9999999999998
  0
POINT
  5
2BC
330
2
100
AcDbEntity
  8
0
  6
ByBlock
100
AcDbPoint
 10
0.6833037600501619
 20
1.317328618174583
 30
0.0
 50
180.0
  0
LINE
  5
2BD
330
2
100
AcDbEntity
  8
0
100
AcDbLine
 10
1.810803760050302
 20
0.2034999999999325
 30
0.0
 11
1.810803760050074
 21
1.586138852532367
 31
0.0
  0
LINE
  5
2BF
330
2
100
AcDbEntity
  8
0
100
AcDbLine
 10
1.010803760050234
 20
0.9429999999999783
 30
0.0
 11
1.160803760050211
 21
0.7679999999999101
 31
0.0
  0
LINE
  5
2C0
330
2
100
AcDbEntity
  8
0
100
AcDbLine
 10
1.01080376005012
 20
0.7452605845752434
 30
0.0
 11
1.010803760050234
 21
0.9429999999998646
 31
0.0
  0
LINE
  5
2C1
330
2
100
AcDbEntity
  8
0
100
AcDbLine
 10
1.01080376005012
 20
0.7452605845752434
 30
0.0
 11
1.160803760050154
 21
0.7679999999999101
 31
0.0
  0
LINE
  5
2C2
330
2
100
AcDbEntity
  8
0
100
AcDbLine
 10
-0.279168097915889
 20
1.871493129617244
 30
0.0
 11
-0.4391962399496983
 21
2.100037001685447
 31
0.0
  0
LINE
  5
2C3
330
2
100
AcDbEntity
  8
0
100
AcDbLine
 10
-0.3891962399498432
 20
5.029999999999975
 30
0.0
 11
-0.4391962399498404
 21
5.029999999999975
 31
0.0
  0
LINE
  5
2C4
330
2
100
AcDbEntity
  8
0
100
AcDbLine
 10
-0.3891962399498432
 20
5.246506350946083
 30
0.0
 11
-0.4391962399498404
 21
5.246506350946083
 31
0.0
  0
LINE
  5
2C5
330
2
100
AcDbEntity
  8
0
100
AcDbLine
 10
0.8108037600500744
 20
3.487235042592939
 30
0.0
 11
0.810071527002858
 21
4.417660985765945
 31
0.0
  0
ARC
  5
2C6
330
2
100
AcDbEntity
  8
0
100
AcDbCircle
 10
1.813303760050086
 20
3.487235042592939
 30
0.0
 40
1.002500000000012
100
AcDbArc
 50
180.0000000000002
 51
214.9999999999976
1001
_DIE112SSJYHX
1002
{
1000
comp_type
1000
DBL24
1000
material
1000
D-2
1000
thickness
1040
1.25
1000
mount
1000
SBP10
1000
mntlay
1000
DIE_SUB_PLATE
1002
}
  0
ARC
  5
2C7
330
2
100
AcDbEntity
  8
0
  6
HIDDEN2
100
AcDbCircle
 10
0.3108037600501881
 20
2.197999999999954
 30
0.0
 40
0.09375
100
AcDbArc
 50
0.000000000000007
 51
180.0
  0
POINT
  5
2C8
330
2
100
AcDbEntity
  8
0
  6
ByBlock
100
AcDbPoint
 10
0.8108037600501596
 20
1.629828618174587
 30
0.0
 50
180.0
  0
POINT
  5
2C9
330
2
100
AcDbEntity
  8
0
  6
ByBlock
100
AcDbPoint
 10
0.8108037600501596
 20
1.629828618174587
 30
0.0
 50
180.0
  0
POINT
  5
2CA
330
2
100
AcDbEntity
  8
0
  6
ByBlock
100
AcDbPoint
 10
0.8108037600501596
 20
1.629828618174587
 30
0.0
 50
180.0
  0
POINT
  5
2CB
330
2
100
AcDbEntity
  8
0
  6
ByBlock
100
AcDbPoint
 10
0.8108037600501596
 20
1.629828618174587
 30
0.0
 50
180.0
  0
LINE
  5
2CC
330
2
100
AcDbEntity
  8
0
100
AcDbLine
 10
1.720831902083827
 20
1.871493129617038
 30
0.0
 11
0.9921038356503367
 21
2.912224665151047
 31
0.0
  0
ARC
  5
2CD
330
2
100
AcDbEntity
  8
0
  6
HIDDEN2
100
AcDbCircle
 10
1.310803760050188
 20
1.635499999999952
 30
0.0
 40
0.09375
100
AcDbArc
 50
0.000000000000007
 51
180.0
  0
POINT
  5
2CE
330
2
100
AcDbEntity
  8
0
  6
ByBlock
100
AcDbPoint
 10
1.81080376005016
 20
1.747999999999969
 30
0.0
 50
180.0
  0
ARC
  5
2CF
330
2
100
AcDbEntity
  8
0
100
AcDbCircle
 10
0.9375715270030831
 20
5.206874548139506
 30
0.0
 40
0.5025
100
AcDbArc
 50
180.0
 51
225.0000000000001
  0
LINE
  5
2D0
330
2
100
AcDbEntity
  8
0
100
AcDbLine
 10
0.4284750752066309
 20
4.645279177624172
 30
0.0
 11
0.5912250752066477
 21
4.551315421069031
 31
0.0
  0
LINE
  5
2D1
330
2
100
AcDbEntity
  8
0
100
AcDbLine
 10
0.428475075173882
 20
4.403225077265663
 30
0.0
 11
0.5912250752066477
 21
4.497188833332501
 31
0.0
  0
LINE
  5
2D2
330
2
100
AcDbEntity
  8
0
100
AcDbLine
 10
0.3816037600501652
 20
4.430768255661487
 30
0.0
 11
0.381603760050151
 21
4.618695768264548
 31
0.0
  0
ARC
  5
2D3
330
2
100
AcDbEntity
  8
0
100
AcDbCircle
 10
0.4128500752066309
 20
4.618215883755905
 30
0.0
 40
0.03125
100
AcDbArc
 50
60.00000000000071
 51
180.0000000000026
  0
ARC
  5
2D4
330
2
100
AcDbEntity
  8
0
100
AcDbCircle
 10
0.4128500752066309
 20
4.430288371134697
 30
0.0
 40
0.03125
100
AcDbArc
 50
179.9999999999976
 51
299.9999999999993
  0
ARC
  5
2D5
330
2
100
AcDbEntity
  8
0
100
AcDbCircle
 10
0.3125715270028557
 20
4.417660985765945
 30
0.0
 40
0.4975000000000007
100
AcDbArc
 50
0.000000000000007
 51
44.99999999998109
1001
_DIE112SSJYHX
1002
{
1000
comp_type
1000
DBL24
1000
material
1000
D-2
1000
thickness
1040
1.25
1000
mount
1000
SBP10
1000
mntlay
1000
DIE_SUB_PLATE
1002
}
  0
ARC
  5
2D6
330
2
100
AcDbEntity
  8
0
100
AcDbCircle
 10
0.5756000752066477
 20
4.524252127200764
 30
0.0
 40
0.03125
100
AcDbArc
 50
299.9999999999999
 51
60.00000000000284
  0
LINE
  5
2D7
330
2
100
AcDbEntity
  8
0
100
AcDbLine
 10
0.6643571506434931
 20
4.769446609406639
 30
0.0
 11
0.5822503694568262
 21
4.851553390593306
 31
0.0
  0
LINE
  5
2D8
330
2
100
AcDbEntity
  8
0
100
AcDbLine
 10
0.1858037600501596
 20
13.59919722692674
 30
0.0
 11
-0.3240917401567067
 21
13.59919722692674
 31
0.0
  0
LINE
  5
2D9
330
2
100
AcDbEntity
  8
0
100
AcDbLine
 10
0.2358037600501568
 20
13.54919722692674
 30
0.0
 11
-0.3240917401567067
 21
13.54919722692674
 31
0.0
  0
LINE
  5
2DA
330
2
100
AcDbEntity
  8
0
100
AcDbLine
 10
0.4358037600501667
 20
13.16499999999997
 30
0.0
 11
-0.2578417401567172
 21
13.16499999999998
 31
0.0
  0
ARC
  5
2DB
330
2
100
AcDbEntity
  8
0
  6
Continuous
100
AcDbCircle
 10
-0.1592322071316694
 20
12.04231764132499
 30
0.0
 40
0.05
100
AcDbArc
 50
284.9999999999996
 51
44.99999999999809
  0
ARC
  5
2DC
330
2
100
AcDbEntity
  8
0
  6
Continuous
100
AcDbCircle
 10
-0.1592322071316694
 20
12.04231764132499
 30
0.0
 40
0.096
100
AcDbArc
 50
285.0000000000007
 51
44.99999999999809
  0
LINE
  5
2DD
330
2
100
AcDbEntity
  8
0
  6
Continuous
100
AcDbLine
 10
-0.1462912548765338
 20
11.99402135001054
 30
0.0
 11
-0.3877727114488074
 21
11.92931658873491
 31
0.0
  0
LINE
  5
2DE
330
2
100
AcDbEntity
  8
0
  6
Continuous
100
AcDbLine
 10
-0.1343855788018153
 20
11.94958876200125
 30
0.0
 11
-0.3758670353740889
 21
11.88488400072561
 31
0.0
  0
LINE
  5
2DF
330
2
100
AcDbEntity
  8
0
  6
Continuous
100
AcDbLine
 10
-0.3877727114488074
 20
11.92931658873494
 30
0.0
 11
-0.3758670353741032
 21
11.88488400072564
 31
0.0
  0
LINE
  5
2E0
330
2
100
AcDbEntity
  8
0
  6
Continuous
100
AcDbLine
 10
-0.3891962399498397
 20
12.34299235226182
 30
0.0
 11
-0.1238768680723332
 21
12.07767298038432
 31
0.0
  0
LINE
  5
2E1
330
2
100
AcDbEntity
  8
0
  6
Continuous
100
AcDbLine
 10
-0.3797231518844093
 20
12.39857308806556
 30
0.0
 11
-0.0913499561377513
 21
12.1101998923189
 31
0.0
  0
ARC
  5
2E2
330
2
100
AcDbEntity
  8
0
  6
Continuous
100
AcDbCircle
 10
-0.3471962399498274
 20
12.43110000000014
 30
0.0
 40
0.046
100
AcDbArc
 50
204.0706146225166
 51
224.9999999999999
  0
ARC
  5
2E3
330
2
100
AcDbEntity
  8
0
  6
Continuous
100
AcDbCircle
 10
-0.3244606794536011
 20
12.43750162342253
 30
0.0
 40
0.1148432675996877
100
AcDbArc
 50
188.4365649615204
 51
224.8347775975267
  0
LINE
  5
2E4
330
2
100
AcDbEntity
  8
0
100
AcDbLine
 10
-0.3240917401567067
 20
13.59919722692674
 30
0.0
 11
-0.3240917401567067
 21
13.29272651447523
 31
0.0
  0
ARC
  5
2E5
330
2
100
AcDbEntity
  8
0
100
AcDbCircle
 10
-0.4140917401567172
 20
13.16499999999998
 30
0.0
 40
0.15625
100
AcDbArc
 50
279.168078897781
 51
54.83030707613973
  0
LINE
  5
2E6
330
2
100
AcDbEntity
  8
0
100
AcDbLine
 10
-0.4891962399498375
 20
14.03999999999998
 30
0.0
 11
-1.06419623994984
 21
14.03999999999998
 31
0.0
  0
LINE
  5
2E7
330
2
100
AcDbEntity
  8
0
100
AcDbLine
 10
-0.4891962399498446
 20
14.08999999999998
 30
0.0
 11
-1.06419623994984
 21
14.08999999999998
 31
0.0
  0
LINE
  5
2E8
330
2
100
AcDbEntity
  8
0
100
AcDbLine
 10
-1.06419623994984
 20
14.08999999999998
 30
0.0
 11
-1.06419623994984
 21
14.03999999999998
 31
0.0
  0
ARC
  5
2E9
330
2
100
AcDbEntity
  8
0
100
AcDbCircle
 10
-0.4891962399498375
 20
13.98999999999997
 30
0.0
 40
0.05
100
AcDbArc
 50
0.000000000000007
 51
90.0
  0
ARC
  5
2EA
330
2
100
AcDbEntity
  8
0
100
AcDbCircle
 10
-0.4891962399498446
 20
13.98999999999998
 30
0.0
 40
0.1
100
AcDbArc
 50
0.000000000000007
 51
90.0
  0
LINE
  5
2EB
330
2
100
AcDbEntity
  8
0
100
AcDbLine
 10
0.4358037600501667
 20
13.34919722692673
 30
0.0
 11
0.1858037600501596
 21
13.59919722692674
 31
0.0
  0
LINE
  5
2EC
330
2
100
AcDbEntity
  8
0
  6
HIDDEN2
100
AcDbLine
 10
0.2170537600501881
 20
2.197999999999954
 30
0.0
 11
0.2170537600501596
 21
0.0729999999999738
 31
0.0
  0
LINE
  5
2ED
330
2
100
AcDbEntity
  8
0
  6
HIDDEN2
100
AcDbLine
 10
0.4045537600501881
 20
2.197999999999954
 30
0.0
 11
0.4045537600501596
 21
0.0729999999999738
 31
0.0
  0
LINE
  5
2EE
330
2
100
AcDbEntity
  8
0
  6
HIDDEN2
100
AcDbLine
 10
1.217053760050167
 20
0.0729999999999738
 30
0.0
 11
1.217053760050188
 21
1.635499999999952
 31
0.0
  0
LINE
  5
2EF
330
2
100
AcDbEntity
  8
0
  6
HIDDEN2
100
AcDbLine
 10
1.40455376005016
 20
0.0729999999999738
 30
0.0
 11
1.404553760050188
 21
1.635499999999952
 31
0.0
  0
LINE
  5
386
330
2
100
AcDbEntity
  8
0
100
AcDbLine
 10
0.6233037600501596
 20
1.377328618174586
 30
0.0
 11
0.6245559570007195
 21
1.74347841297651
 31
0.0
  0
LINE
  5
387
330
2
100
AcDbEntity
  8
0
100
AcDbLine
 10
0.6245559570007195
 20
1.74347841297651
 30
0.0
 11
0.6274223847008749
 21
1.831155638876561
 31
0.0
  0
LINE
  5
388
330
2
100
AcDbEntity
  8
0
100
AcDbLine
 10
0.6274223847008749
 20
1.831155638876561
 30
0.0
 11
0.6316919545009192
 21
1.911230283776487
 31
0.0
  0
LINE
  5
389
330
2
100
AcDbEntity
  8
0
100
AcDbLine
 10
0.6316919545009192
 20
1.911230283776487
 30
0.0
 11
0.6370716095007616
 21
1.984392941076404
 31
0.0
  0
LINE
  5
38A
330
2
100
AcDbEntity
  8
0
100
AcDbLine
 10
0.6370716095007616
 20
1.984392941076404
 30
0.0
 11
0.6433408050007152
 21
2.05125784047652
 31
0.0
  0
LINE
  5
38B
330
2
100
AcDbEntity
  8
0
100
AcDbLine
 10
0.6433408050007152
 20
2.05125784047652
 30
0.0
 11
0.6503337726008418
 21
2.11238556737646
 31
0.0
  0
LINE
  5
38C
330
2
100
AcDbEntity
  8
0
100
AcDbLine
 10
0.6503337726008418
 20
2.11238556737646
 30
0.0
 11
0.6579236830007709
 21
2.168260034176566
 31
0.0
  0
LINE
  5
38D
330
2
100
AcDbEntity
  8
0
100
AcDbLine
 10
0.6579236830007709
 20
2.168260034176566
 30
0.0
 11
0.6660151207007026
 21
2.219311956276552
 31
0.0
  0
LINE
  5
38E
330
2
100
AcDbEntity
  8
0
100
AcDbLine
 10
0.6660151207007026
 20
2.219311956276552
 30
0.0
 11
0.6745346547007181
 21
2.26590559817657
 31
0.0
  0
LINE
  5
38F
330
2
100
AcDbEntity
  8
0
100
AcDbLine
 10
0.6745346547007181
 20
2.26590559817657
 30
0.0
 11
0.6834355337007843
 21
2.308392250376411
 31
0.0
  0
LINE
  5
390
330
2
100
AcDbEntity
  8
0
100
AcDbLine
 10
0.6834355337007843
 20
2.308392250376411
 30
0.0
 11
0.6926877234007485
 21
2.347066008976409
 31
0.0
  0
LINE
  5
391
330
2
100
AcDbEntity
  8
0
100
AcDbLine
 10
0.6926877234007485
 20
2.347066008976409
 30
0.0
 11
0.7022771493007518
 21
2.382173799276526
 31
0.0
  0
LINE
  5
392
330
2
100
AcDbEntity
  8
0
100
AcDbLine
 10
0.7022771493007518
 20
2.382173799276526
 30
0.0
 11
0.7122079127007588
 21
2.413925059676441
 31
0.0
  0
LINE
  5
393
330
2
100
AcDbEntity
  8
0
100
AcDbLine
 10
0.7122079127007588
 20
2.413925059676441
 30
0.0
 11
0.7225017072008164
 21
2.442481908776582
 31
0.0
  0
LINE
  5
394
330
2
100
AcDbEntity
  8
0
100
AcDbLine
 10
0.7225017072008164
 20
2.442481908776582
 30
0.0
 11
0.7332080589008534
 21
2.467970441876442
 31
0.0
  0
LINE
  5
395
330
2
100
AcDbEntity
  8
0
100
AcDbLine
 10
0.7332080589008534
 20
2.467970441876442
 30
0.0
 11
0.7444194345007951
 21
2.490474375976529
 31
0.0
  0
LINE
  5
396
330
2
100
AcDbEntity
  8
0
100
AcDbLine
 10
0.7444194345007951
 20
2.490474375976529
 30
0.0
 11
0.7562450789008004
 21
2.509932307376513
 31
0.0
  0
LINE
  5
397
330
2
100
AcDbEntity
  8
0
100
AcDbLine
 10
0.7562450789008004
 20
2.509932307376513
 30
0.0
 11
0.7688229280006986
 21
2.526126267376522
 31
0.0
  0
LINE
  5
398
330
2
100
AcDbEntity
  8
0
100
AcDbLine
 10
0.7688229280006986
 20
2.526126267376522
 30
0.0
 11
0.7822979969008053
 21
2.538605805476546
 31
0.0
  0
LINE
  5
399
330
2
100
AcDbEntity
  8
0
100
AcDbLine
 10
0.7822979969008053
 20
2.538605805476546
 30
0.0
 11
0.7964497187008952
 21
2.546510903376539
 31
0.0
  0
LINE
  5
39A
330
2
100
AcDbEntity
  8
0
100
AcDbLine
 10
0.7964497187008952
 20
2.546510903376539
 30
0.0
 11
0.8105726481008411
 21
2.549224003176615
 31
0.0
  0
LINE
  5
39B
330
2
100
AcDbEntity
  8
0
100
AcDbLine
 10
0.8105726481008411
 20
2.549224003176615
 30
0.0
 11
0.8247701794007831
 21
2.546786956776597
 31
0.0
  0
LINE
  5
39C
330
2
100
AcDbEntity
  8
0
100
AcDbLine
 10
0.8247701794007831
 20
2.546786956776597
 30
0.0
 11
0.8390123055008267
 21
2.539096936376492
 31
0.0
  0
LINE
  5
39D
330
2
100
AcDbEntity
  8
0
100
AcDbLine
 10
0.8390123055008267
 20
2.539096936376492
 30
0.0
 11
0.8525583914009154
 21
2.526783372976407
 31
0.0
  0
LINE
  5
39E
330
2
100
AcDbEntity
  8
0
100
AcDbLine
 10
0.8525583914009154
 20
2.526783372976407
 30
0.0
 11
0.8652200580007126
 21
2.510681044676513
 31
0.0
  0
LINE
  5
39F
330
2
100
AcDbEntity
  8
0
100
AcDbLine
 10
0.8652200580007126
 20
2.510681044676513
 30
0.0
 11
0.8771162679006999
 21
2.491278693576415
 31
0.0
  0
LINE
  5
3A0
330
2
100
AcDbEntity
  8
0
100
AcDbLine
 10
0.8771162679006999
 20
2.491278693576415
 30
0.0
 11
0.8883892088008984
 21
2.468802209376573
 31
0.0
  0
LINE
  5
3A1
330
2
100
AcDbEntity
  8
0
100
AcDbLine
 10
0.8883892088008984
 20
2.468802209376573
 30
0.0
 11
0.8991490218007208
 21
2.443321751476443
 31
0.0
  0
LINE
  5
3A2
330
2
100
AcDbEntity
  8
0
100
AcDbLine
 10
0.8991490218007208
 20
2.443321751476443
 30
0.0
 11
0.9094885651007267
 21
2.414761808576596
 31
0.0
  0
LINE
  5
3A3
330
2
100
AcDbEntity
  8
0
100
AcDbLine
 10
0.9094885651007267
 20
2.414761808576596
 30
0.0
 11
0.9194602115008443
 21
2.382995059576498
 31
0.0
  0
LINE
  5
3A4
330
2
100
AcDbEntity
  8
0
100
AcDbLine
 10
0.9194602115008443
 20
2.382995059576498
 30
0.0
 11
0.9290860995009176
 21
2.347862359176471
 31
0.0
  0
LINE
  5
3A5
330
2
100
AcDbEntity
  8
0
100
AcDbLine
 10
0.9290860995009176
 20
2.347862359176471
 30
0.0
 11
0.9383710952009174
 21
2.309155018076464
 31
0.0
  0
LINE
  5
3A6
330
2
100
AcDbEntity
  8
0
100
AcDbLine
 10
0.9383710952009174
 20
2.309155018076464
 30
0.0
 11
0.9473015895007926
 21
2.266626791876544
 31
0.0
  0
LINE
  5
3A7
330
2
100
AcDbEntity
  8
0
100
AcDbLine
 10
0.9473015895007926
 20
2.266626791876544
 30
0.0
 11
0.9558476485008747
 21
2.219985305676456
 31
0.0
  0
LINE
  5
3A8
330
2
100
AcDbEntity
  8
0
100
AcDbLine
 10
0.9558476485008747
 20
2.219985305676456
 30
0.0
 11
0.9639630929007659
 21
2.168877662876522
 31
0.0
  0
LINE
  5
3A9
330
2
100
AcDbEntity
  8
0
100
AcDbLine
 10
0.9639630929007659
 20
2.168877662876522
 30
0.0
 11
0.971574433700706
 21
2.112940624576478
 31
0.0
  0
LINE
  5
3AA
330
2
100
AcDbEntity
  8
0
100
AcDbLine
 10
0.971574433700706
 20
2.112940624576478
 30
0.0
 11
0.9785863576008147
 21
2.051742866876449
 31
0.0
  0
LINE
  5
3AB
330
2
100
AcDbEntity
  8
0
100
AcDbLine
 10
0.9785863576008147
 20
2.051742866876449
 30
0.0
 11
0.9848719946008337
 21
1.984799814376512
 31
0.0
  0
LINE
  5
3AC
330
2
100
AcDbEntity
  8
0
100
AcDbLine
 10
0.9848719946008337
 20
1.984799814376512
 30
0.0
 11
0.9902653528009147
 21
1.911550791076589
 31
0.0
  0
LINE
  5
3AD
330
2
100
AcDbEntity
  8
0
100
AcDbLine
 10
0.9902653528009147
 20
1.911550791076589
 30
0.0
 11
0.9945456038008693
 21
1.831380101876556
 31
0.0
  0
LINE
  5
3AE
330
2
100
AcDbEntity
  8
0
100
AcDbLine
 10
0.9945456038008693
 20
1.831380101876556
 30
0.0
 11
0.9974191202007283
 21
1.743596414776556
 31
0.0
  0
LINE
  5
3AF
330
2
100
AcDbEntity
  8
0
100
AcDbLine
 10
0.9974191202007283
 20
1.743596414776556
 30
0.0
 11
0.9983037600501596
 21
1.377328618174586
 31
0.0
  0
LINE
  5
400
330
2
100
AcDbEntity
  8
0
100
AcDbLine
 10
1.810803760050167
 20
0.0729999999999738
 30
0.0
 11
1.402924710459846
 21
0.0729999999999738
 31
0.0
  0
LINE
  5
401
330
2
100
AcDbEntity
  8
0
100
AcDbLine
 10
1.217053760050167
 20
0.0729999999999738
 30
0.0
 11
0.4037392352550278
 21
0.0729999999999738
 31
0.0
  0
LINE
  5
402
330
2
100
AcDbEntity
  8
0
100
AcDbLine
 10
0.2178682848453484
 20
0.0729999999999738
 30
0.0
 11
-0.1891962399498333
 21
0.0729999999999738
 31
0.0
  0
LINE
  5
403
330
2
100
AcDbEntity
  8
0
100
AcDbLine
 10
1.810803760050167
 20
0.122999999999978
 30
0.0
 11
1.810803760050167
 21
0.0729999999999738
 31
0.0
  0
LINE
  5
404
330
2
100
AcDbEntity
  8
0
  6
Continuous
100
AcDbLine
 10
1.810803760050167
 20
0.122999999999978
 30
0.0
 11
1.725450084089626
 21
0.1229999999999798
 31
0.0
  0
ARC
  5
405
330
2
100
AcDbEntity
  8
0
100
AcDbCircle
 10
1.810803760050302
 20
0.1179999999999328
 30
0.0
 40
0.0855
100
AcDbArc
 50
90.0
 51
211.7568638592875
  0
LINE
  5
406
330
2
100
AcDbEntity
  8
0
  6
Continuous
100
AcDbLine
 10
-0.1038425639892502
 20
0.1229999999999709
 30
0.0
 11
-0.1891962399498404
 21
0.1229999999999727
 31
0.0
  0
ARC
  5
407
330
2
100
AcDbEntity
  8
0
100
AcDbCircle
 10
-0.1891962399499256
 20
0.1179999999999328
 30
0.0
 40
0.0855
100
AcDbArc
 50
328.2431361407129
 51
90.0
  0
POINT
  5
408
330
2
100
AcDbEntity
  8
0
  6
ByBlock
100
AcDbPoint
 10
-0.1891962399498404
 20
0.1229999999999727
 30
0.0
 50
180.0
  0
POINT
  5
409
330
2
100
AcDbEntity
  8
0
  6
ByBlock
100
AcDbPoint
 10
-0.1891962399498404
 20
0.1229999999999727
 30
0.0
 50
180.0
  0
POINT
  5
40A
330
2
100
AcDbEntity
  8
0
  6
ByBlock
100
AcDbPoint
 10
-0.1891962399498404
 20
0.1229999999999727
 30
0.0
 50
180.0
  0
POINT
  5
40B
330
2
100
AcDbEntity
  8
0
  6
ByBlock
100
AcDbPoint
 10
-0.1891962399498404
 20
0.1229999999999727
 30
0.0
 50
180.0
  0
LINE
  5
40C
330
2
100
AcDbEntity
  8
0
100
AcDbLine
 10
-0.1891962399498404
 20
0.1229999999999727
 30
0.0
 11
-0.1891962399498333
 21
0.0729999999999738
 31
0.0
  0
LINE
  5
40D
330
2
100
AcDbEntity
  8
0
  6
HIDDEN
100
AcDbLine
 10
-0.1038425639892502
 20
0.1229999999999709
 30
0.0
 11
1.725450084089626
 21
0.1229999999999798
 31
0.0
  0
ARC
  5
40E
330
2
100
AcDbEntity
  8
0
100
AcDbCircle
 10
0.3108037600501881
 20
0.0853312589969537
 30
0.0
 40
0.09375
100
AcDbArc
 50
180.0
 51
0.0
  0
ARC
  5
40F
330
2
100
AcDbEntity
  8
0
100
AcDbCircle
 10
1.309989235255006
 20
0.0853312589969537
 30
0.0
 40
0.09375
100
AcDbArc
 50
180.0
 51
0.0
  0
ENDSEC
  0
SECTION
  2
OBJECTS
  0
DICTIONARY
  5
9
330
0
100
AcDbDictionary
281
     1
  3
ACAD_COLOR
350
3B3
  3
ACAD_GROUP
350
24
  3
ACAD_LAYOUT
350
D
  3
ACAD_MATERIAL
350
3B2
  3
ACAD_MLINESTYLE
350
25
  3
ACAD_PLOTSETTINGS
350
26
  3
ACAD_PLOTSTYLENAME
350
8
  3
ACAD_TABLESTYLE
350
3B4
  3
ACDBHEADERROUNDTRIPXREC
350
440
  3
AcDbVariableDictionary
350
1CC
  0
DICTIONARY
  5
3B3
102
{ACAD_REACTORS
330
9
102
}
330
9
100
AcDbDictionary
281
     1
  0
DICTIONARY
  5
24
102
{ACAD_REACTORS
330
9
102
}
330
9
100
AcDbDictionary
281
     1
  0
DICTIONARY
  5
D
102
{ACAD_REACTORS
330
9
102
}
330
9
100
AcDbDictionary
281
     1
  3
Layout1
350
13
  3
Model
350
C
  0
DICTIONARY
  5
3B2
102
{ACAD_REACTORS
330
9
102
}
330
9
100
AcDbDictionary
281
     1
  0
DICTIONARY
  5
25
102
{ACAD_REACTORS
330
9
102
}
330
9
100
AcDbDictionary
281
     1
  3
STANDARD
350
28
  0
DICTIONARY
  5
26
102
{ACAD_REACTORS
330
9
102
}
330
9
100
AcDbDictionary
281
     1
  0
ACDBDICTIONARYWDFLT
  5
8
102
{ACAD_REACTORS
330
9
102
}
330
9
100
AcDbDictionary
281
     1
  3
Normal
350
7
100
AcDbDictionaryWithDefault
340
7
  0
DICTIONARY
  5
3B4
102
{ACAD_REACTORS
330
9
102
}
330
9
100
AcDbDictionary
281
     1
  3
Standard
350
3B5
  0
DICTIONARY
  5
440
102
{ACAD_REACTORS
330
9
102
}
330
9
100
AcDbDictionary
281
     1
  3
COLORDICT
350
441
  3
MATERIALDICT
350
442
  0
DICTIONARY
  5
1CC
102
{ACAD_REACTORS
330
9
102
}
330
9
100
AcDbDictionary
281
     1
  3
CTABLESTYLE
350
3BE
  3
HIDETEXT
350
43F
  0
LAYOUT
  5
13
102
{ACAD_REACTORS
330
D
102
}
102
{ACAD_XDICTIONARY
360
443
102
}
330
D
100
AcDbPlotSettings
  1

  2
HP LaserJet 2100 Series PS
  4

  6

 40
0.0
 41
0.0
 42
0.0
 43
0.0
 44
0.0
 45
0.0
 46
0.0
 47
0.0
 48
0.0
 49
0.0
140
0.0
141
0.0
142
1.0
143
1.0
 70
   688
 72
     0
 73
     0
 74
     5
  7

 75
    16
147
1.0
148
0.0
149
0.0
100
AcDbLayout
  1
Layout1
 70
     0
 71
     1
 10
0.0
 20
0.0
 11
12.0
 21
9.0
 12
0.0
 22
0.0
 32
0.0
 14
1.000000000000000E+20
 24
1.000000000000000E+20
 34
1.000000000000000E+20
 15
-1.000000000000000E+20
 25
-1.000000000000000E+20
 35
-1.000000000000000E+20
146
0.0
 13
0.0
 23
0.0
 33
0.0
 16
1.0
 26
0.0
 36
0.0
 17
0.0
 27
1.0
 37
0.0
 76
     0
330
E
  0
LAYOUT
  5
C
102
{ACAD_REACTORS
330
D
102
}
102
{ACAD_XDICTIONARY
360
445
102
}
330
D
100
AcDbPlotSettings
  1

  2
HP LaserJet 2100 Series PS
  4
Letter
  6

 40
5.365749835968018
 41
5.386905193328857
 42
5.386917114257813
 43
5.365753173828125
 44
215.8999938964844
 45
279.3999938964844
 46
0.0
 47
0.0
 48
0.0
 49
0.0
140
0.0
141
0.0
142
1.0
143
1.0
 70
 11952
 72
     0
 73
     1
 74
     0
  7

 75
     0
147
1.0
148
-109.2120479562036
149
4.761312409500627
100
AcDbLayout
  1
Model
 70
     1
 71
     0
 10
0.0
 20
0.0
 11
12.0
 21
9.0
 12
0.0
 22
0.0
 32
0.0
 14
0.0
 24
0.0
 34
0.0
 15
0.0
 25
0.0
 35
0.0
146
0.0
 13
0.0
 23
0.0
 33
0.0
 16
1.0
 26
0.0
 36
0.0
 17
0.0
 27
1.0
 37
0.0
 76
     0
330
2
  0
MLINESTYLE
  5
28
102
{ACAD_REACTORS
330
25
102
}
330
25
100
AcDbMlineStyle
  2
STANDARD
 70
     0
  3

 62
   256
 51
90.0
 52
90.0
 71
     2
 49
0.5
 62
   256
  6
BYLAYER
 49
-0.5
 62
   256
  6
BYLAYER
  0
ACDBPLACEHOLDER
  5
7
102
{ACAD_REACTORS
330
8
102
}
330
8
  0
ACAD_PROXY_OBJECT
  5
3B5
102
{ACAD_REACTORS
330
3B4
102
}
330
3B4
100
AcDbProxyObject
 90
      499
 91
      561
 95
   983063
 70
     0
 93
     1841
310
4214DD185B99185C9928B81E85EB51B8AE3F2E07A17AD46E2B8FC02B5E8DC0F42B1CFD028000000C1008070000C3001FDFF8000000C1003FBFF000000182007F7FE00000030400FEFFC00000060801FDFF8000000C1003FBFF00000018200000000000000681FA0B0000001820100E000186003FBFF000000182007F7FE000
310
00030400FEFFC00000060801FDFF8000000C1003FBFF000000182007F7FE000000304000AD7A3703D0AC73F4160000003040201C00030C007F7FE00000030400FEFFC00000060801FDFF8000000C1003FBFF000000182007F7FE00000030400FEFFC000000608000
340
16
340
16
340
16
 94
        0
  0
XRECORD
  5
441
102
{ACAD_REACTORS
330
440
102
}
330
440
100
AcDbXrecord
340
3B3
  0
XRECORD
  5
442
102
{ACAD_REACTORS
330
440
102
}
330
440
100
AcDbXrecord
340
3B2
  0
DICTIONARYVAR
  5
3BE
102
{ACAD_REACTORS
330
1CC
102
}
330
1CC
100
DictionaryVariables
280
     0
  1
STANDARD
  0
DICTIONARYVAR
  5
43F
102
{ACAD_REACTORS
330
1CC
102
}
330
1CC
100
DictionaryVariables
280
     0
  1
1
  0
DICTIONARY
  5
443
330
13
100
AcDbDictionary
280
     1
281
     1
  3
ACAD_XREC_ROUNDTRIP
360
444
  0
DICTIONARY
  5
445
330
C
100
AcDbDictionary
280
     1
281
     1
  3
ACAD_XREC_ROUNDTRIP
360
446
  0
XRECORD
  5
444
102
{ACAD_REACTORS
330
443
102
}
330
443
100
AcDbXrecord
102
SHADEPLOT
 70
     0
102
SHADEPLOTRESLEVEL
 70
     2
102
SHADEPLOTCUSTOMDPI
 70
   300
  0
XRECORD
  5
446
102
{ACAD_REACTORS
330
445
102
}
330
445
100
AcDbXrecord
102
SHADEPLOT
 70
     0
102
SHADEPLOTRESLEVEL
 70
     2
102
SHADEPLOTCUSTOMDPI
 70
   300
  0
ENDSEC
  0
EOF
