  0
SECTION
  2
HEADER
  9
$ACADVER
  1
AC1015
  9
$ACADMAINTVER
 70
     6
  9
$DWGCODEPAGE
  3
ANSI_1252
  9
$INSBASE
 10
0.0
 20
0.0
 30
0.0
  9
$EXTMIN
 10
-11.89201652557449
 20
-0.027959415460193
 30
0.0
  9
$EXTMAX
 10
13.62428769339535
 20
19.60548413167573
 30
0.0
  9
$LIMMIN
 10
0.0
 20
0.0
  9
$LIMMAX
 10
24.0
 20
31.5
  9
$ORTHOMODE
 70
     1
  9
$REGENMODE
 70
     1
  9
$FILLMODE
 70
     1
  9
$QTEXTMODE
 70
     0
  9
$MIRRTEXT
 70
     0
  9
$LTSCALE
 40
0.6
  9
$ATTMODE
 70
     1
  9
$TEXTSIZE
 40
0.27
  9
$TRACEWID
 40
0.05
  9
$TEXTSTYLE
  7
STANDARD
  9
$CLAYER
  8
0
  9
$CELTYPE
  6
HIDDEN
  9
$CECOLOR
 62
   256
  9
$CELTSCALE
 40
1.0
  9
$DISPSILH
 70
     0
  9
$DIMSCALE
 40
3.0
  9
$DIMASZ
 40
0.125
  9
$DIMEXO
 40
0.062
  9
$DIMDLI
 40
0.375
  9
$DIMRND
 40
0.0
  9
$DIMDLE
 40
0.0
  9
$DIMEXE
 40
0.08
  9
$DIMTP
 40
0.0
  9
$DIMTM
 40
0.0
  9
$DIMTXT
 40
0.09
  9
$DIMCEN
 40
-0.03125
  9
$DIMTSZ
 40
0.0
  9
$DIMTOL
 70
     0
  9
$DIMLIM
 70
     0
  9
$DIMTIH
 70
     1
  9
$DIMTOH
 70
     1
  9
$DIMSE1
 70
     0
  9
$DIMSE2
 70
     0
  9
$DIMTAD
 70
     0
  9
$DIMZIN
 70
     0
  9
$DIMBLK
  1

  9
$DIMASO
 70
     1
  9
$DIMSHO
 70
     0
  9
$DIMPOST
  1

  9
$DIMAPOST
  1

  9
$DIMALT
 70
     0
  9
$DIMALTD
 70
     2
  9
$DIMALTF
 40
25.4
  9
$DIMLFAC
 40
1.0
  9
$DIMTOFL
 70
     0
  9
$DIMTVP
 40
0.0
  9
$DIMTIX
 70
     0
  9
$DIMSOXD
 70
     0
  9
$DIMSAH
 70
     0
  9
$DIMBLK1
  1

  9
$DIMBLK2
  1

  9
$DIMSTYLE
  2
STANDARD
  9
$DIMCLRD
 70
     0
  9
$DIMCLRE
 70
     0
  9
$DIMCLRT
 70
     0
  9
$DIMTFAC
 40
1.0
  9
$DIMGAP
 40
0.09
  9
$DIMJUST
 70
     0
  9
$DIMSD1
 70
     0
  9
$DIMSD2
 70
     0
  9
$DIMTOLJ
 70
     1
  9
$DIMTZIN
 70
     0
  9
$DIMALTZ
 70
     0
  9
$DIMALTTZ
 70
     0
  9
$DIMUPT
 70
     0
  9
$DIMDEC
 70
     5
  9
$DIMTDEC
 70
     4
  9
$DIMALTU
 70
     2
  9
$DIMALTTD
 70
     2
  9
$DIMTXSTY
  7
STANDARD
  9
$DIMAUNIT
 70
     0
  9
$DIMADEC
 70
     0
  9
$DIMALTRND
 40
0.0
  9
$DIMAZIN
 70
     0
  9
$DIMDSEP
 70
    46
  9
$DIMATFIT
 70
     3
  9
$DIMFRAC
 70
     2
  9
$DIMLDRBLK
  1

  9
$DIMLUNIT
 70
     5
  9
$DIMLWD
 70
    -2
  9
$DIMLWE
 70
    -2
  9
$DIMTMOVE
 70
     2
  9
$LUNITS
 70
     2
  9
$LUPREC
 70
     4
  9
$SKETCHINC
 40
0.1
  9
$FILLETRAD
 40
0.0
  9
$AUNITS
 70
     0
  9
$AUPREC
 70
     0
  9
$MENU
  1
ACAD
  9
$ELEVATION
 40
0.0
  9
$PELEVATION
 40
0.0
  9
$THICKNESS
 40
0.0
  9
$LIMCHECK
 70
     0
  9
$CHAMFERA
 40
0.0
  9
$CHAMFERB
 40
0.0
  9
$CHAMFERC
 40
0.0
  9
$CHAMFERD
 40
0.0
  9
$SKPOLY
 70
     0
  9
$TDCREATE
 40
2449436.829454167
  9
$TDUCREATE
 40
2449437.1627875
  9
$TDUPDATE
 40
2454166.859626551
  9
$TDUUPDATE
 40
2454167.192959884
  9
$TDINDWG
 40
0.6543929514
  9
$TDUSRTIMER
 40
0.6543929514
  9
$USRTIMER
 70
     1
  9
$ANGBASE
 50
0.0
  9
$ANGDIR
 70
     0
  9
$PDMODE
 70
     0
  9
$PDSIZE
 40
0.0
  9
$PLINEWID
 40
0.0
  9
$SPLFRAME
 70
     0
  9
$SPLINETYPE
 70
     6
  9
$SPLINESEGS
 70
     8
  9
$HANDSEED
  5
441
  9
$SURFTAB1
 70
     6
  9
$SURFTAB2
 70
     6
  9
$SURFTYPE
 70
     6
  9
$SURFU
 70
     6
  9
$SURFV
 70
     6
  9
$UCSBASE
  2

  9
$UCSNAME
  2

  9
$UCSORG
 10
0.0
 20
0.0
 30
0.0
  9
$UCSXDIR
 10
1.0
 20
0.0
 30
0.0
  9
$UCSYDIR
 10
0.0
 20
1.0
 30
0.0
  9
$UCSORTHOREF
  2

  9
$UCSORTHOVIEW
 70
     0
  9
$UCSORGTOP
 10
0.0
 20
0.0
 30
0.0
  9
$UCSORGBOTTOM
 10
0.0
 20
0.0
 30
0.0
  9
$UCSORGLEFT
 10
0.0
 20
0.0
 30
0.0
  9
$UCSORGRIGHT
 10
0.0
 20
0.0
 30
0.0
  9
$UCSORGFRONT
 10
0.0
 20
0.0
 30
0.0
  9
$UCSORGBACK
 10
0.0
 20
0.0
 30
0.0
  9
$PUCSBASE
  2

  9
$PUCSNAME
  2

  9
$PUCSORG
 10
0.0
 20
0.0
 30
0.0
  9
$PUCSXDIR
 10
1.0
 20
0.0
 30
0.0
  9
$PUCSYDIR
 10
0.0
 20
1.0
 30
0.0
  9
$PUCSORTHOREF
  2

  9
$PUCSORTHOVIEW
 70
     0
  9
$PUCSORGTOP
 10
0.0
 20
0.0
 30
0.0
  9
$PUCSORGBOTTOM
 10
0.0
 20
0.0
 30
0.0
  9
$PUCSORGLEFT
 10
0.0
 20
0.0
 30
0.0
  9
$PUCSORGRIGHT
 10
0.0
 20
0.0
 30
0.0
  9
$PUCSORGFRONT
 10
0.0
 20
0.0
 30
0.0
  9
$PUCSORGBACK
 10
0.0
 20
0.0
 30
0.0
  9
$USERI1
 70
     0
  9
$USERI2
 70
     0
  9
$USERI3
 70
     0
  9
$USERI4
 70
     0
  9
$USERI5
 70
     0
  9
$USERR1
 40
0.0
  9
$USERR2
 40
0.0
  9
$USERR3
 40
0.0
  9
$USERR4
 40
0.0
  9
$USERR5
 40
0.0
  9
$WORLDVIEW
 70
     1
  9
$SHADEDGE
 70
     3
  9
$SHADEDIF
 70
    70
  9
$TILEMODE
 70
     1
  9
$MAXACTVP
 70
    16
  9
$PINSBASE
 10
0.0
 20
0.0
 30
0.0
  9
$PLIMCHECK
 70
     0
  9
$PEXTMIN
 10
1.000000000000000E+20
 20
1.000000000000000E+20
 30
1.000000000000000E+20
  9
$PEXTMAX
 10
-1.000000000000000E+20
 20
-1.000000000000000E+20
 30
-1.000000000000000E+20
  9
$PLIMMIN
 10
0.0
 20
0.0
  9
$PLIMMAX
 10
12.0
 20
9.0
  9
$UNITMODE
 70
     0
  9
$VISRETAIN
 70
     0
  9
$PLINEGEN
 70
     0
  9
$PSLTSCALE
 70
     0
  9
$TREEDEPTH
 70
  3020
  9
$CMLSTYLE
  2
STANDARD
  9
$CMLJUST
 70
     0
  9
$CMLSCALE
 40
1.0
  9
$PROXYGRAPHICS
 70
     1
  9
$MEASUREMENT
 70
     0
  9
$CELWEIGHT
370
    -1
  9
$ENDCAPS
280
     0
  9
$JOINSTYLE
280
     0
  9
$LWDISPLAY
290
     0
  9
$INSUNITS
 70
     0
  9
$HYPERLINKBASE
  1

  9
$STYLESHEET
  1

  9
$XEDIT
290
     1
  9
$CEPSNTYPE
380
     0
  9
$PSTYLEMODE
290
     1
  9
$FINGERPRINTGUID
  2
{7E1BADD1-439C-11D5-BE3F-00508B5FCD51}
  9
$VERSIONGUID
  2
{A69DAC87-B49E-42CC-B46D-D469BAB5C492}
  9
$EXTNAMES
290
     1
  9
$PSVPSCALE
 40
0.0
  9
$OLESTARTUP
290
     0
  0
ENDSEC
  0
SECTION
  2
CLASSES
  0
CLASS
  1
DICTIONARYVAR
  2
AcDbDictionaryVar
  3
AutoCAD 2000
 90
        0
280
     0
281
     0
  0
CLASS
  1
LWPOLYLINE
  2
AcDbPolyline
  3
AutoCAD 2000
 90
        0
280
     0
281
     1
  0
CLASS
  1
ACDBDICTIONARYWDFLT
  2
AcDbDictionaryWithDefault
  3
AutoCAD 2000
 90
        0
280
     0
281
     0
  0
CLASS
  1
ACDBPLACEHOLDER
  2
AcDbPlaceHolder
  3
ObjectDBX Classes
 90
        0
280
     0
281
     0
  0
CLASS
  1
LAYOUT
  2
AcDbLayout
  3
ObjectDBX Classes
 90
        0
280
     0
281
     0
  0
CLASS
  1
LONG_TRANSACTION
  2
AcDbLongTransaction
  3
ObjectDBX Classes
 90
   -65536
280
     1
281
     0
  0
CLASS
  1
LWPOLYLINE
  2
AcDbPolyline
  3
AutoCAD 2000
 90
        0
280
     0
281
     1
  0
CLASS
  1
HATCH
  2
AcDbHatch
  3
AutoCAD 2000
 90
        0
280
     0
281
     1
  0
CLASS
  1
XRECORD
  2
AcDbXrecord
  3
AutoCAD 2000
 90
        0
280
     0
281
     0
  0
CLASS
  1
LONG_TRANSACTION
  2
AcDbLongTransaction
  3
ObjectDBX Classes
 90
   -65536
280
     1
281
     0
  0
CLASS
  1
LWPOLYLINE
  2
AcDbPolyline
  3
AutoCAD 2000
 90
        0
280
     0
281
     1
  0
CLASS
  1
HATCH
  2
AcDbHatch
  3
AutoCAD 2000
 90
        0
280
     0
281
     1
  0
CLASS
  1
XRECORD
  2
AcDbXrecord
  3
AutoCAD 2000
 90
        0
280
     0
281
     0
  0
CLASS
  1
LONG_TRANSACTION
  2
AcDbLongTransaction
  3
ObjectDBX Classes
 90
   -65536
280
     1
281
     0
  0
CLASS
  1
LWPOLYLINE
  2
AcDbPolyline
  3
AutoCAD 2000
 90
        0
280
     0
281
     1
  0
CLASS
  1
HATCH
  2
AcDbHatch
  3
AutoCAD 2000
 90
        0
280
     0
281
     1
  0
CLASS
  1
XRECORD
  2
AcDbXrecord
  3
AutoCAD 2000
 90
        0
280
     0
281
     0
  0
CLASS
  1
LONG_TRANSACTION
  2
AcDbLongTransaction
  3
ObjectDBX Classes
 90
   -65536
280
     1
281
     0
  0
CLASS
  1
LWPOLYLINE
  2
AcDbPolyline
  3
AutoCAD 2000
 90
        0
280
     0
281
     1
  0
CLASS
  1
HATCH
  2
AcDbHatch
  3
AutoCAD 2000
 90
        0
280
     0
281
     1
  0
CLASS
  1
XRECORD
  2
AcDbXrecord
  3
AutoCAD 2000
 90
        0
280
     0
281
     0
  0
CLASS
  1
LONG_TRANSACTION
  2
AcDbLongTransaction
  3
ObjectDBX Classes
 90
   -65536
280
     1
281
     0
  0
CLASS
  1
LWPOLYLINE
  2
AcDbPolyline
  3
AutoCAD 2000
 90
        0
280
     0
281
     1
  0
CLASS
  1
HATCH
  2
AcDbHatch
  3
AutoCAD 2000
 90
        0
280
     0
281
     1
  0
CLASS
  1
XRECORD
  2
AcDbXrecord
  3
AutoCAD 2000
 90
        0
280
     0
281
     0
  0
CLASS
  1
LONG_TRANSACTION
  2
AcDbLongTransaction
  3
ObjectDBX Classes
 90
   -65536
280
     1
281
     0
  0
CLASS
  1
LWPOLYLINE
  2
AcDbPolyline
  3
AutoCAD 2000
 90
        0
280
     0
281
     1
  0
CLASS
  1
HATCH
  2
AcDbHatch
  3
AutoCAD 2000
 90
        0
280
     0
281
     1
  0
CLASS
  1
XRECORD
  2
AcDbXrecord
  3
AutoCAD 2000
 90
        0
280
     0
281
     0
  0
CLASS
  1
LONG_TRANSACTION
  2
AcDbLongTransaction
  3
ObjectDBX Classes
 90
   -65536
280
     1
281
     0
  0
CLASS
  1
LWPOLYLINE
  2
AcDbPolyline
  3
AutoCAD 2000
 90
        0
280
     0
281
     1
  0
CLASS
  1
HATCH
  2
AcDbHatch
  3
AutoCAD 2000
 90
        0
280
     0
281
     1
  0
CLASS
  1
XRECORD
  2
AcDbXrecord
  3
AutoCAD 2000
 90
        0
280
     0
281
     0
  0
CLASS
  1
LONG_TRANSACTION
  2
AcDbLongTransaction
  3
ObjectDBX Classes
 90
   -65536
280
     1
281
     0
  0
CLASS
  1
LWPOLYLINE
  2
AcDbPolyline
  3
AutoCAD 2000
 90
        0
280
     0
281
     1
  0
CLASS
  1
HATCH
  2
AcDbHatch
  3
AutoCAD 2000
 90
        0
280
     0
281
     1
  0
CLASS
  1
XRECORD
  2
AcDbXrecord
  3
AutoCAD 2000
 90
        0
280
     0
281
     0
  0
CLASS
  1
LONG_TRANSACTION
  2
AcDbLongTransaction
  3
ObjectDBX Classes
 90
   -65536
280
     1
281
     0
  0
CLASS
  1
LWPOLYLINE
  2
AcDbPolyline
  3
AutoCAD 2000
 90
        0
280
     0
281
     1
  0
CLASS
  1
HATCH
  2
AcDbHatch
  3
AutoCAD 2000
 90
        0
280
     0
281
     1
  0
CLASS
  1
XRECORD
  2
AcDbXrecord
  3
AutoCAD 2000
 90
        0
280
     0
281
     0
  0
CLASS
  1
LONG_TRANSACTION
  2
AcDbLongTransaction
  3
ObjectDBX Classes
 90
   -65536
280
     1
281
     0
  0
CLASS
  1
LWPOLYLINE
  2
AcDbPolyline
  3
AutoCAD 2000
 90
        0
280
     0
281
     1
  0
CLASS
  1
HATCH
  2
AcDbHatch
  3
AutoCAD 2000
 90
        0
280
     0
281
     1
  0
CLASS
  1
XRECORD
  2
AcDbXrecord
  3
AutoCAD 2000
 90
        0
280
     0
281
     0
  0
CLASS
  1
LONG_TRANSACTION
  2
AcDbLongTransaction
  3
ObjectDBX Classes
 90
   -65536
280
     1
281
     0
  0
CLASS
  1
LWPOLYLINE
  2
AcDbPolyline
  3
AutoCAD 2000
 90
        0
280
     0
281
     1
  0
CLASS
  1
HATCH
  2
AcDbHatch
  3
AutoCAD 2000
 90
        0
280
     0
281
     1
  0
CLASS
  1
XRECORD
  2
AcDbXrecord
  3
AutoCAD 2000
 90
        0
280
     0
281
     0
  0
CLASS
  1
LONG_TRANSACTION
  2
AcDbLongTransaction
  3
ObjectDBX Classes
 90
   -65536
280
     1
281
     0
  0
CLASS
  1
LWPOLYLINE
  2
AcDbPolyline
  3
AutoCAD 2000
 90
        0
280
     0
281
     1
  0
CLASS
  1
HATCH
  2
AcDbHatch
  3
AutoCAD 2000
 90
        0
280
     0
281
     1
  0
CLASS
  1
XRECORD
  2
AcDbXrecord
  3
AutoCAD 2000
 90
        0
280
     0
281
     0
  0
CLASS
  1
LONG_TRANSACTION
  2
AcDbLongTransaction
  3
ObjectDBX Classes
 90
   -65536
280
     1
281
     0
  0
CLASS
  1
LWPOLYLINE
  2
AcDbPolyline
  3
AutoCAD 2000
 90
        0
280
     0
281
     1
  0
CLASS
  1
HATCH
  2
AcDbHatch
  3
AutoCAD 2000
 90
        0
280
     0
281
     1
  0
CLASS
  1
XRECORD
  2
AcDbXrecord
  3
AutoCAD 2000
 90
        0
280
     0
281
     0
  0
CLASS
  1
LONG_TRANSACTION
  2
AcDbLongTransaction
  3
ObjectDBX Classes
 90
   -65536
280
     1
281
     0
  0
CLASS
  1
LWPOLYLINE
  2
AcDbPolyline
  3
AutoCAD 2000
 90
        0
280
     0
281
     1
  0
CLASS
  1
HATCH
  2
AcDbHatch
  3
AutoCAD 2000
 90
        0
280
     0
281
     1
  0
CLASS
  1
XRECORD
  2
AcDbXrecord
  3
AutoCAD 2000
 90
        0
280
     0
281
     0
  0
CLASS
  1
TABLESTYLE
  2
AcDbTableStyle
  3
ObjectDBX Classes
 90
     2047
280
     1
281
     0
  0
CLASS
  1
SORTENTSTABLE
  2
AcDbSortentsTable
  3
AutoCAD 2000
 90
        0
280
     0
281
     0
  0
ENDSEC
  0
SECTION
  2
TABLES
  0
TABLE
  2
VPORT
  5
1D
330
0
100
AcDbSymbolTable
 70
     2
  0
VPORT
  5
433
330
1D
100
AcDbSymbolTableRecord
100
AcDbViewportTableRecord
  2
*Active
 70
     0
 10
0.0
 20
0.0
 11
1.0
 21
1.0
 12
6.053444110286737
 22
15.73553925049042
 13
0.0
 23
0.0
 14
0.063
 24
0.063
 15
0.25
 25
0.25
 16
0.0
 26
0.0
 36
1.0
 17
0.0
 27
0.0
 37
0.0
 40
31.92221365909008
 41
1.814583333333333
 42
50.0
 43
0.0
 44
0.0
 50
0.0
 51
0.0
 71
     0
 72
   100
 73
     1
 74
     0
 75
     0
 76
     0
 77
     0
 78
     1
281
     0
 65
     1
110
0.0
120
0.0
130
0.0
111
1.0
121
0.0
131
0.0
112
0.0
122
1.0
132
0.0
 79
     0
146
0.0
  0
ENDTAB
  0
TABLE
  2
LTYPE
  5
18
330
0
100
AcDbSymbolTable
 70
     3
  0
LTYPE
  5
19
330
18
100
AcDbSymbolTableRecord
100
AcDbLinetypeTableRecord
  2
BYBLOCK
 70
     0
  3

 72
    65
 73
     0
 40
0.0
  0
LTYPE
  5
1A
330
18
100
AcDbSymbolTableRecord
100
AcDbLinetypeTableRecord
  2
BYLAYER
 70
     0
  3

 72
    65
 73
     0
 40
0.0
  0
LTYPE
  5
A
330
18
100
AcDbSymbolTableRecord
100
AcDbLinetypeTableRecord
  2
CONTINUOUS
 70
     0
  3
Solid line
 72
    65
 73
     0
 40
0.0
  0
LTYPE
  5
54
330
18
100
AcDbSymbolTableRecord
100
AcDbLinetypeTableRecord
  2
HIDDEN2
 70
     0
  3
Hidden (.5x) _ _ _ _ _ _ _ _ _ _ _ _ _ _ _ _ _
 72
    65
 73
     2
 40
0.1875
 49
0.125
 74
     0
 49
-0.0625
 74
     0
  0
LTYPE
  5
3C3
330
18
100
AcDbSymbolTableRecord
100
AcDbLinetypeTableRecord
  2
HIDDEN
 70
     0
  3
Hidden __ __ __ __ __ __ __ __ __ __ __ __ __ _
 72
    65
 73
     2
 40
0.375
 49
0.25
 74
     0
 49
-0.125
 74
     0
  0
ENDTAB
  0
TABLE
  2
LAYER
  5
14
330
0
100
AcDbSymbolTable
 70
     2
  0
LAYER
  5
6
330
14
100
AcDbSymbolTableRecord
100
AcDbLayerTableRecord
  2
0
 70
     0
 62
     7
  6
CONTINUOUS
370
    -3
390
7
  0
ENDTAB
  0
TABLE
  2
STYLE
  5
15
330
0
100
AcDbSymbolTable
 70
     1
  0
STYLE
  5
16
330
15
100
AcDbSymbolTableRecord
100
AcDbTextStyleTableRecord
  2
STANDARD
 70
     0
 40
0.0
 41
1.0
 50
0.0
 71
     0
 42
0.27
  3
TXT
  4

  0
ENDTAB
  0
TABLE
  2
VIEW
  5
1B
330
0
100
AcDbSymbolTable
 70
     0
  0
ENDTAB
  0
TABLE
  2
UCS
  5
1C
330
0
100
AcDbSymbolTable
 70
     0
  0
ENDTAB
  0
TABLE
  2
APPID
  5
1F
330
0
100
AcDbSymbolTable
 70
     2
  0
APPID
  5
20
330
1F
100
AcDbSymbolTableRecord
100
AcDbRegAppTableRecord
  2
ACAD
 70
     0
  0
APPID
  5
31
330
1F
100
AcDbSymbolTableRecord
100
AcDbRegAppTableRecord
  2
_DIE112SSJYHX
 70
     0
  0
ENDTAB
  0
TABLE
  2
DIMSTYLE
  5
21
330
0
100
AcDbSymbolTable
 70
     1
100
AcDbDimStyleTable
  0
DIMSTYLE
105
22
330
21
100
AcDbSymbolTableRecord
100
AcDbDimStyleTableRecord
  2
STANDARD
 70
     0
  3

  4

340
16
  0
ENDTAB
  0
TABLE
  2
BLOCK_RECORD
  5
1
330
0
100
AcDbSymbolTable
 70
     0
  0
BLOCK_RECORD
  5
2
330
1
100
AcDbSymbolTableRecord
100
AcDbBlockTableRecord
  2
*MODEL_SPACE
340
C
  0
BLOCK_RECORD
  5
E
330
1
100
AcDbSymbolTableRecord
100
AcDbBlockTableRecord
  2
*PAPER_SPACE
340
13
  0
ENDTAB
  0
ENDSEC
  0
SECTION
  2
BLOCKS
  0
BLOCK
  5
5
330
2
100
AcDbEntity
  8
0
100
AcDbBlockBegin
  2
*MODEL_SPACE
 70
     0
 10
0.0
 20
0.0
 30
0.0
  3
*MODEL_SPACE
  1

  4

  0
ENDBLK
  5
B
330
2
100
AcDbEntity
  8
0
100
AcDbBlockEnd
  0
BLOCK
  5
11
330
E
100
AcDbEntity
 67
     1
  8
0
100
AcDbBlockBegin
  2
*PAPER_SPACE
 70
     0
 10
0.0
 20
0.0
 30
0.0
  3
*PAPER_SPACE
  1

  4

  0
ENDBLK
  5
12
330
E
100
AcDbEntity
 67
     1
  8
0
100
AcDbBlockEnd
  0
ENDSEC
  0
SECTION
  2
ENTITIES
  0
LINE
  5
1D5
330
2
100
AcDbEntity
  8
0
100
AcDbLine
 10
2.237500000000019
 20
13.41499999999999
 30
0.0
 11
2.237500000000157
 21
5.173142315092321
 31
0.0
  0
LINE
  5
1D6
330
2
100
AcDbEntity
  8
0
100
AcDbLine
 10
1.112500000000004
 20
13.16499999999997
 30
0.0
 11
1.107500000000012
 21
0.1349999999999909
 31
0.0
  0
LINE
  5
1D7
330
2
100
AcDbEntity
  8
0
100
AcDbLine
 10
1.062500000000007
 20
13.17866374223517
 30
0.0
 11
1.062500000000012
 21
0.1349999999999909
 31
0.0
  0
LINE
  5
1D8
330
2
100
AcDbEntity
  8
0
100
AcDbLine
 10
-2.237500000000019
 20
13.41499999999999
 30
0.0
 11
-2.237500000000019
 21
5.248786682236712
 31
0.0
  0
LINE
  5
1D9
330
2
100
AcDbEntity
  8
0
100
AcDbLine
 10
-1.107500000000012
 20
0.1349999999999909
 30
0.0
 11
-1.112499999999997
 21
13.16499999999998
 31
0.0
  0
LINE
  5
1DA
330
2
100
AcDbEntity
  8
0
100
AcDbLine
 10
-1.062500000000012
 20
0.1349999999999909
 30
0.0
 11
-1.0625
 21
13.17866374223517
 31
0.0
  0
LINE
  5
1DB
330
2
100
AcDbEntity
  8
0
100
AcDbLine
 10
-1.107499999999966
 20
2.095896261652163
 30
0.0
 11
-1.676199924399612
 21
2.908083925117913
 31
0.0
  0
LINE
  5
1DC
330
2
100
AcDbEntity
  8
0
100
AcDbLine
 10
-1.86250000000021
 20
3.458235042593001
 30
0.0
 11
-1.862500000000157
 21
4.383928752719099
 31
0.0
  0
ARC
  5
1DD
330
2
100
AcDbEntity
  8
0
100
AcDbCircle
 10
-0.8600000000000065
 20
3.49023504259331
 30
0.0
 40
1.002500000000003
100
AcDbArc
 50
180.0
 51
214.9999999999976
1001
_DIE112SSJYHX
1002
{
1000
comp_type
1000
DBL24
1000
material
1000
D-2
1000
thickness
1040
1.25
1000
mount
1000
SBP10
1000
mntlay
1000
DIE_SUB_PLATE
1002
}
  0
ARC
  5
1DE
330
2
100
AcDbEntity
  8
0
100
AcDbCircle
 10
-2.360000000000156
 20
4.383928752719099
 30
0.0
 40
0.4975
100
AcDbArc
 50
0.0
 51
44.99999999998114
1001
_DIE112SSJYHX
1002
{
1000
comp_type
1000
DBL24
1000
material
1000
D-2
1000
thickness
1040
1.25
1000
mount
1000
SBP10
1000
mntlay
1000
DIE_SUB_PLATE
1002
}
  0
ARC
  5
1DF
330
2
100
AcDbEntity
  8
0
100
AcDbCircle
 10
-1.735000000000156
 20
5.173142315092319
 30
0.0
 40
0.5025000000000001
100
AcDbArc
 50
180.0
 51
224.999999999981
1001
_DIE112SSJYHX
1002
{
1000
comp_type
1000
DBL24
1000
material
1000
D-2
1000
thickness
1040
1.25
1000
mount
1000
SBP10
1000
mntlay
1000
DIE_SUB_PLATE
1002
}
  0
LINE
  5
1E0
330
2
100
AcDbEntity
  8
0
100
AcDbLine
 10
-1.989965093079992
 20
4.716465093079949
 30
0.0
 11
-2.113732546540007
 21
4.84023254653996
 31
0.0
  0
CIRCLE
  5
1E1
330
2
100
AcDbEntity
  8
0
  6
Continuous
100
AcDbCircle
 10
-1.987500000000019
 20
5.089999999999973
 30
0.0
 40
0.0855
  0
LINE
  5
1E2
330
2
100
AcDbEntity
  8
0
100
AcDbLine
 10
-1.152500000000003
 20
0.1349999999999909
 30
0.0
 11
-1.152500000000003
 21
2.280544494717217
 31
0.0
  0
LINE
  5
1E3
330
2
100
AcDbEntity
  8
0
100
AcDbLine
 10
-0.8338716692542203
 20
1.600360522024729
 30
0.0
 11
-1.029469837705163
 21
2.560306871569878
 31
0.0
  0
LINE
  5
1E4
330
2
100
AcDbEntity
  8
0
100
AcDbLine
 10
1.152499999999947
 20
2.280544494717217
 30
0.0
 11
1.152499999999947
 21
0.1349999999999909
 31
0.0
  0
LINE
  5
1E5
330
2
100
AcDbEntity
  8
0
100
AcDbLine
 10
0.8338716692541635
 20
1.600360522024729
 30
0.0
 11
1.029469837705106
 21
2.560306871569878
 31
0.0
  0
LINE
  5
1E6
330
2
100
AcDbEntity
  8
0
100
AcDbLine
 10
1.012500000000003
 20
0.089999999999975
 30
0.0
 11
-1.012500000000003
 21
0.089999999999975
 31
0.0
  0
LINE
  5
1E7
330
2
100
AcDbEntity
  8
0
100
AcDbLine
 10
1.017500000000013
 20
0.089999999999975
 30
0.0
 11
-1.017500000000013
 21
0.089999999999975
 31
0.0
  0
LINE
  5
1E8
330
2
100
AcDbEntity
  8
0
100
AcDbLine
 10
1.017500000000013
 20
0.0450000000000159
 30
0.0
 11
-1.017500000000013
 21
0.0450000000000159
 31
0.0
  0
LINE
  5
1E9
330
2
100
AcDbEntity
  8
0
100
AcDbLine
 10
1.017500000000013
 20
0.0
 30
0.0
 11
-1.017500000000013
 21
0.0
 31
0.0
  0
ARC
  5
1EA
330
2
100
AcDbEntity
  8
0
100
AcDbCircle
 10
-1.017500000000013
 20
0.1349999999999909
 30
0.0
 40
0.045
100
AcDbArc
 50
180.0
 51
270.0
  0
ARC
  5
1EB
330
2
100
AcDbEntity
  8
0
100
AcDbCircle
 10
-1.017500000000013
 20
0.1349999999999909
 30
0.0
 40
0.09
100
AcDbArc
 50
180.0
 51
270.0
  0
ARC
  5
1EC
330
2
100
AcDbEntity
  8
0
100
AcDbCircle
 10
-1.017500000000013
 20
0.1349999999999909
 30
0.0
 40
0.135
100
AcDbArc
 50
180.0
 51
270.0
  0
LINE
  5
1ED
330
2
100
AcDbEntity
  8
0
100
AcDbLine
 10
-1.062500000000226
 20
1.343316936683891
 30
0.0
 11
-0.8338716692542203
 21
1.600360522024729
 31
0.0
  0
ARC
  5
1EE
330
2
100
AcDbEntity
  8
0
100
AcDbCircle
 10
-1.076342116257173
 20
1.171102700793993
 30
0.0
 40
0.2315168730279693
100
AcDbArc
 50
273.4276901945818
 51
309.4228987337907
  0
ARC
  5
1EF
330
2
100
AcDbEntity
  8
0
100
AcDbCircle
 10
-1.076342116257212
 20
0.8961027007940157
 30
0.0
 40
0.2315168730281418
100
AcDbArc
 50
273.4276901945888
 51
309.422898733768
  0
LINE
  5
1F0
330
2
100
AcDbEntity
  8
0
100
AcDbLine
 10
-1.049319805149249
 20
0.9009001948424285
 30
0.0
 11
-0.9293198051493619
 21
0.7172605845762892
 31
0.0
  0
LINE
  5
1F1
330
2
100
AcDbEntity
  8
0
100
AcDbLine
 10
-1.049319805149251
 20
1.175900194842598
 30
0.0
 11
-0.9293198051493619
 21
0.9922605845764583
 31
0.0
  0
ARC
  5
1F2
330
2
100
AcDbEntity
  8
0
100
AcDbCircle
 10
-1.017499999999924
 20
0.9327200000001099
 30
0.0
 40
0.045
100
AcDbArc
 50
180.0
 51
225.0000000076272
  0
ARC
  5
1F3
330
2
100
AcDbEntity
  8
0
100
AcDbCircle
 10
-1.017499999999926
 20
1.207720000000279
 30
0.0
 40
0.045
100
AcDbArc
 50
180.0
 51
225.0000000076272
  0
LINE
  5
1F4
330
2
100
AcDbEntity
  8
0
100
AcDbLine
 10
-0.0005911934305232
 20
0.1899999999992019
 30
0.0
 11
-0.0547177811671418
 21
0.089999999999975
 31
0.0
  0
LINE
  5
1F5
330
2
100
AcDbEntity
  8
0
100
AcDbLine
 10
-0.0005911934305232
 20
0.1899999999992019
 30
0.0
 11
-0.0547177811671418
 21
0.089999999999975
 31
0.0
  0
LINE
  5
1F6
330
2
100
AcDbEntity
  8
0
100
AcDbLine
 10
-0.0940992144763868
 20
0.1898307366423637
 30
0.0
 11
-0.0263380834893496
 21
0.1424320834995001
 31
0.0
  0
LINE
  5
1F7
330
2
100
AcDbEntity
  8
0
100
AcDbLine
 10
-0.0940992144763868
 20
0.1898307366423637
 30
0.0
 11
-0.0263380834893994
 21
0.1424320834995339
 31
0.0
  0
LINE
  5
1F8
330
2
100
AcDbEntity
  8
0
100
AcDbLine
 10
-0.0940992144768416
 20
0.0899999999997476
 30
0.0
 11
-0.0940992144763868
 21
0.1898307366423637
 31
0.0
  0
LINE
  5
1F9
330
2
100
AcDbEntity
  8
0
100
AcDbLine
 10
-0.0940992144768416
 20
0.089999999999975
 30
0.0
 11
-0.0940992144763868
 21
0.1898307366423637
 31
0.0
  0
LINE
  5
1FA
330
2
100
AcDbEntity
  8
0
100
AcDbLine
 10
0.0929168276155679
 20
0.089999999999975
 30
0.0
 11
0.0929168276155679
 21
0.1898307366428185
 31
0.0
  0
LINE
  5
1FB
330
2
100
AcDbEntity
  8
0
100
AcDbLine
 10
0.092916827615575
 20
0.089999999999975
 30
0.0
 11
0.0929168276155679
 21
0.1898307366428185
 31
0.0
  0
LINE
  5
1FC
330
2
100
AcDbEntity
  8
0
100
AcDbLine
 10
-0.0005911934305232
 20
0.1899999999992019
 30
0.0
 11
0.0535353943060954
 21
0.089999999999975
 31
0.0
  0
LINE
  5
1FD
330
2
100
AcDbEntity
  8
0
100
AcDbLine
 10
-0.0005911934305232
 20
0.1899999999992019
 30
0.0
 11
0.0535353943060954
 21
0.089999999999975
 31
0.0
  0
LINE
  5
1FE
330
2
100
AcDbEntity
  8
0
100
AcDbLine
 10
0.0929168276155679
 20
0.1898307366428185
 30
0.0
 11
0.0251556966289854
 21
0.1424320834992727
 31
0.0
  0
LINE
  5
1FF
330
2
100
AcDbEntity
  8
0
100
AcDbLine
 10
0.0929168276155679
 20
0.1898307366428185
 30
0.0
 11
0.0251556966286266
 21
0.1424320834990223
 31
0.0
  0
ARC
  5
200
330
2
100
AcDbEntity
  8
0
100
AcDbCircle
 10
1.017500000000013
 20
0.1349999999999909
 30
0.0
 40
0.135
100
AcDbArc
 50
270.0
 51
0.0
  0
ARC
  5
201
330
2
100
AcDbEntity
  8
0
100
AcDbCircle
 10
1.017500000000013
 20
0.1349999999999909
 30
0.0
 40
0.045
100
AcDbArc
 50
270.0
 51
0.0
  0
ARC
  5
202
330
2
100
AcDbEntity
  8
0
100
AcDbCircle
 10
1.017500000000013
 20
0.1349999999999909
 30
0.0
 40
0.09
100
AcDbArc
 50
270.0
 51
0.0
  0
POINT
  5
203
330
2
100
AcDbEntity
  8
0
  6
ByBlock
100
AcDbPoint
 10
1.012499999999996
 20
0.089999999999975
 30
0.0
  0
POINT
  5
204
330
2
100
AcDbEntity
  8
0
  6
ByBlock
100
AcDbPoint
 10
1.012500000000003
 20
0.089999999999975
 30
0.0
  0
POINT
  5
205
330
2
100
AcDbEntity
  8
0
  6
ByBlock
100
AcDbPoint
 10
1.062500000000007
 20
0.1399999999999757
 30
0.0
  0
LINE
  5
206
330
2
100
AcDbEntity
  8
0
100
AcDbLine
 10
1.062500000000169
 20
1.343316936683891
 30
0.0
 11
0.8338716692541635
 21
1.600360522024729
 31
0.0
  0
ARC
  5
207
330
2
100
AcDbEntity
  8
0
100
AcDbCircle
 10
1.076342116257116
 20
1.171102700793993
 30
0.0
 40
0.2315168730279693
100
AcDbArc
 50
230.5771012662091
 51
266.5723098054182
  0
LINE
  5
208
330
2
100
AcDbEntity
  8
0
100
AcDbLine
 10
1.049319805149192
 20
0.9009001948424285
 30
0.0
 11
0.929319805149305
 21
0.7172605845762892
 31
0.0
  0
ARC
  5
209
330
2
100
AcDbEntity
  8
0
100
AcDbCircle
 10
1.076342116257155
 20
0.8961027007940157
 30
0.0
 40
0.2315168730281418
100
AcDbArc
 50
230.577101266232
 51
266.5723098054112
  0
LINE
  5
20A
330
2
100
AcDbEntity
  8
0
100
AcDbLine
 10
1.049319805149194
 20
1.175900194842598
 30
0.0
 11
0.929319805149305
 21
0.9922605845764583
 31
0.0
  0
ARC
  5
20B
330
2
100
AcDbEntity
  8
0
100
AcDbCircle
 10
1.017499999999869
 20
1.207720000000279
 30
0.0
 40
0.045
100
AcDbArc
 50
314.9999999923728
 51
0.0
  0
ARC
  5
20C
330
2
100
AcDbEntity
  8
0
100
AcDbCircle
 10
-1.107499999999703
 20
1.696250000000077
 30
0.0
 40
0.05
100
AcDbArc
 50
90.0
 51
154.158067238145
  0
LINE
  5
20D
330
2
100
AcDbEntity
  8
0
100
AcDbLine
 10
-1.0625
 20
2.614029400264514
 30
0.0
 11
-1.041700559444735
 21
2.585754971612374
 31
0.0
  0
ARC
  5
20E
330
2
100
AcDbEntity
  8
0
100
AcDbCircle
 10
-1.103121681959692
 20
2.540571919380767
 30
0.0
 40
0.07625
100
AcDbArc
 50
15.00000000003474
 51
36.3392133744043
  0
ARC
  5
20F
330
2
100
AcDbEntity
  8
0
100
AcDbCircle
 10
-1.107499999999703
 20
2.258750000000076
 30
0.0
 40
0.05
100
AcDbArc
 50
90.0
 51
154.158067238145
  0
LINE
  5
210
330
2
100
AcDbEntity
  8
0
100
AcDbLine
 10
-1.112499999999997
 20
5.246506350946083
 30
0.0
 11
-1.0625
 21
5.246506350946083
 31
0.0
  0
LINE
  5
211
330
2
100
AcDbEntity
  8
0
100
AcDbLine
 10
-1.112499999999997
 20
5.029999999999975
 30
0.0
 11
-1.0625
 21
5.029999999999975
 31
0.0
  0
LINE
  5
212
330
2
100
AcDbEntity
  8
0
100
AcDbLine
 10
1.862500000000036
 20
3.458235042592873
 30
0.0
 11
1.862500000000154
 21
4.383928752719099
 31
0.0
  0
LINE
  5
213
330
2
100
AcDbEntity
  8
0
100
AcDbLine
 10
1.107499999999909
 20
2.095896261652163
 30
0.0
 11
1.676199924399555
 21
2.908083925117913
 31
0.0
  0
ARC
  5
214
330
2
100
AcDbEntity
  8
0
100
AcDbCircle
 10
1.107499999999448
 20
1.696250000000489
 30
0.0
 40
0.05
100
AcDbArc
 50
25.84193276185503
 51
90.0
  0
ARC
  5
215
330
2
100
AcDbEntity
  8
0
100
AcDbCircle
 10
1.107499999999646
 20
2.258750000000076
 30
0.0
 40
0.05
100
AcDbArc
 50
25.84193276185503
 51
90.0
  0
LINE
  5
216
330
2
100
AcDbEntity
  8
0
100
AcDbLine
 10
1.062499999999943
 20
2.614029400264514
 30
0.0
 11
1.041700559444678
 21
2.585754971612374
 31
0.0
  0
ARC
  5
217
330
2
100
AcDbEntity
  8
0
100
AcDbCircle
 10
1.103121681959635
 20
2.540571919380767
 30
0.0
 40
0.07625
100
AcDbArc
 50
143.6607866255957
 51
164.9999999999652
  0
ARC
  5
218
330
2
100
AcDbEntity
  8
0
100
AcDbCircle
 10
0.8599999999999426
 20
3.49023504259331
 30
0.0
 40
1.002500000000009
100
AcDbArc
 50
325.0000000000027
 51
0.0
1001
_DIE112SSJYHX
1002
{
1000
comp_type
1000
DBL24
1000
material
1000
D-2
1000
thickness
1040
1.25
1000
mount
1000
SBP10
1000
mntlay
1000
DIE_SUB_PLATE
1002
}
  0
LINE
  5
219
330
2
100
AcDbEntity
  8
0
100
AcDbLine
 10
1.062500000000007
 20
5.246506350946083
 30
0.0
 11
1.112500000000011
 21
5.246506350946083
 31
0.0
  0
LINE
  5
21A
330
2
100
AcDbEntity
  8
0
100
AcDbLine
 10
1.062500000000007
 20
5.029999999999975
 30
0.0
 11
1.112500000000011
 21
5.029999999999975
 31
0.0
  0
ARC
  5
21B
330
2
100
AcDbEntity
  8
0
100
AcDbCircle
 10
2.360000000000156
 20
4.383928752719099
 30
0.0
 40
0.4975
100
AcDbArc
 50
135.0000000000188
 51
180.0
1001
_DIE112SSJYHX
1002
{
1000
comp_type
1000
DBL24
1000
material
1000
D-2
1000
thickness
1040
1.25
1000
mount
1000
SBP10
1000
mntlay
1000
DIE_SUB_PLATE
1002
}
  0
LINE
  5
21C
330
2
100
AcDbEntity
  8
0
100
AcDbLine
 10
2.008214376359732
 20
4.735714376359292
 30
0.0
 11
2.090321157546477
 21
4.817821157546243
 31
0.0
  0
CIRCLE
  5
21D
330
2
100
AcDbEntity
  8
0
  6
Continuous
100
AcDbCircle
 10
1.987500000000019
 20
5.089999999999973
 30
0.0
 40
0.0855
  0
ARC
  5
21E
330
2
100
AcDbEntity
  8
0
100
AcDbCircle
 10
1.735000000000149
 20
5.173142315092322
 30
0.0
 40
0.5025000000000081
100
AcDbArc
 50
315.0000000000194
 51
359.9999999999998
1001
_DIE112SSJYHX
1002
{
1000
comp_type
1000
DBL24
1000
material
1000
D-2
1000
thickness
1040
1.25
1000
mount
1000
SBP10
1000
mntlay
1000
DIE_SUB_PLATE
1002
}
  0
LINE
  5
21F
330
2
100
AcDbEntity
  8
0
100
AcDbLine
 10
-1.362499999999997
 20
14.08999999999998
 30
0.0
 11
-1.737500000000019
 21
14.08999999999998
 31
0.0
  0
CIRCLE
  5
220
330
2
100
AcDbEntity
  8
0
  6
Continuous
100
AcDbCircle
 10
-1.987500000000019
 20
9.477499999999978
 30
0.0
 40
0.0855
  0
CIRCLE
  5
221
330
2
100
AcDbEntity
  8
0
  6
Continuous
100
AcDbCircle
 10
-1.726746538668365
 20
10.49807179664009
 30
0.0
 40
0.0855
  0
LINE
  5
222
330
2
100
AcDbEntity
  8
0
100
AcDbLine
 10
-1.737500000000004
 20
13.66499999999997
 30
0.0
 11
-1.737500000000019
 21
14.08999999999998
 31
0.0
  0
LINE
  5
223
330
2
100
AcDbEntity
  8
0
100
AcDbLine
 10
-1.625250000000165
 20
12.72749999999998
 30
0.0
 11
-1.625250000000165
 21
11.9723883476483
 31
0.0
  0
LINE
  5
224
330
2
100
AcDbEntity
  8
0
100
AcDbLine
 10
-1.437250000000169
 20
11.97238834764796
 30
0.0
 11
-1.437250000000162
 21
12.72749999999998
 31
0.0
  0
CIRCLE
  5
225
330
2
100
AcDbEntity
  8
0
  6
Continuous
100
AcDbCircle
 10
-1.987500000000019
 20
11.78999999999998
 30
0.0
 40
0.0855
  0
ARC
  5
226
330
2
100
AcDbEntity
  8
0
100
AcDbCircle
 10
-1.499750000000169
 20
11.97238834764796
 30
0.0
 40
0.0625
100
AcDbArc
 50
314.9999999999995
 51
359.9999999999998
  0
ARC
  5
227
330
2
100
AcDbEntity
  8
0
100
AcDbCircle
 10
-1.562750000000172
 20
11.9723883476483
 30
0.0
 40
0.0625
100
AcDbArc
 50
180.0
 51
224.9999999999999
  0
LINE
  5
228
330
2
100
AcDbEntity
  8
0
100
AcDbLine
 10
-1.531250000000163
 20
11.85249999999998
 30
0.0
 11
-1.606944173824324
 21
11.92819417382414
 31
0.0
  0
LINE
  5
229
330
2
100
AcDbEntity
  8
0
100
AcDbLine
 10
-1.531249999999837
 20
11.85249999999998
 30
0.0
 11
-1.45555582617601
 21
11.92819417382381
 31
0.0
  0
LINE
  5
22A
330
2
100
AcDbEntity
  8
0
100
AcDbLine
 10
-1.737500000000019
 20
13.66499999999999
 30
0.0
 11
-1.987500000000019
 21
13.66499999999999
 31
0.0
  0
CIRCLE
  5
22B
330
2
100
AcDbEntity
  8
0
  6
Continuous
100
AcDbCircle
 10
-1.987500000000019
 20
12.91499999999997
 30
0.0
 40
0.0855
  0
LINE
  5
22C
330
2
100
AcDbEntity
  8
0
100
AcDbLine
 10
-2.237500000000019
 20
13.41499999999999
 30
0.0
 11
-1.987500000000019
 21
13.66499999999999
 31
0.0
  0
CIRCLE
  5
22E
330
2
100
AcDbEntity
  8
0
  6
Continuous
100
AcDbCircle
 10
1.987500000000019
 20
9.477499999999978
 30
0.0
 40
0.0855
  0
CIRCLE
  5
22F
330
2
100
AcDbEntity
  8
0
  6
Continuous
100
AcDbCircle
 10
1.726746538668373
 20
10.49807179664009
 30
0.0
 40
0.0855
  0
LINE
  5
230
330
2
100
AcDbEntity
  8
0
100
AcDbLine
 10
-1.362499999999997
 20
13.66499999999998
 30
0.0
 11
-1.362499999999997
 21
14.08999999999998
 31
0.0
  0
LINE
  5
231
330
2
100
AcDbEntity
  8
0
100
AcDbLine
 10
-1.0625
 20
13.17866374223517
 30
0.0
 11
-1.319864720043654
 21
13.59919722692674
 31
0.0
  0
LINE
  5
232
330
2
100
AcDbEntity
  8
0
100
AcDbLine
 10
-1.112499999999997
 20
13.16499999999998
 30
0.0
 11
-1.362499999999997
 21
13.57307763843374
 31
0.0
  0
ARC
  5
233
330
2
100
AcDbEntity
  8
0
100
AcDbCircle
 10
-1.062499999999993
 20
13.16499999999998
 30
0.0
 40
0.15625
100
AcDbArc
 50
137.3276934388401
 51
251.3370751150561
  0
LINE
  5
234
330
2
100
AcDbEntity
  8
0
100
AcDbLine
 10
-1.112499999999997
 20
13.66499999999998
 30
0.0
 11
-1.362499999999997
 21
13.66499999999998
 31
0.0
  0
LINE
  5
235
330
2
100
AcDbEntity
  8
0
100
AcDbLine
 10
-1.362499999999997
 20
13.57307763843374
 30
0.0
 11
-1.319864720043654
 21
13.59919722692674
 31
0.0
  0
ARC
  5
236
330
2
100
AcDbEntity
  8
0
100
AcDbCircle
 10
-1.062499999999993
 20
13.16499999999998
 30
0.0
 40
0.15625
100
AcDbArc
 50
108.6629248849441
 51
118.8501228964894
  0
LINE
  5
237
330
2
100
AcDbEntity
  8
0
100
AcDbLine
 10
-1.112499999999997
 20
13.31303399102906
 30
0.0
 11
-1.112499999999997
 21
13.66499999999998
 31
0.0
  0
LINE
  5
238
330
2
100
AcDbEntity
  8
0
100
AcDbLine
 10
1.737500000000019
 20
13.66499999999999
 30
0.0
 11
1.737500000000019
 21
14.08999999999998
 31
0.0
  0
LINE
  5
239
330
2
100
AcDbEntity
  8
0
100
AcDbLine
 10
1.362500000000011
 20
13.66499999999998
 30
0.0
 11
1.362500000000011
 21
14.08999999999998
 31
0.0
  0
LINE
  5
23A
330
2
100
AcDbEntity
  8
0
100
AcDbLine
 10
1.112500000000011
 20
13.16499999999998
 30
0.0
 11
1.362500000000011
 21
13.57307763843374
 31
0.0
  0
LINE
  5
23B
330
2
100
AcDbEntity
  8
0
100
AcDbLine
 10
1.062500000000007
 20
13.17866374223517
 30
0.0
 11
1.319864720043661
 21
13.59919722692674
 31
0.0
  0
ARC
  5
23C
330
2
100
AcDbEntity
  8
0
100
AcDbCircle
 10
1.062500000000007
 20
13.16499999999998
 30
0.0
 40
0.15625
100
AcDbArc
 50
288.6629248849412
 51
42.67230656116108
  0
LINE
  5
23D
330
2
100
AcDbEntity
  8
0
100
AcDbLine
 10
1.112500000000011
 20
13.66499999999998
 30
0.0
 11
1.362500000000011
 21
13.66499999999998
 31
0.0
  0
ARC
  5
23E
330
2
100
AcDbEntity
  8
0
100
AcDbCircle
 10
1.062500000000007
 20
13.16499999999998
 30
0.0
 40
0.15625
100
AcDbArc
 50
61.14987710351321
 51
71.33707511505588
  0
LINE
  5
23F
330
2
100
AcDbEntity
  8
0
100
AcDbLine
 10
1.112500000000011
 20
13.31303399102906
 30
0.0
 11
1.112500000000011
 21
13.66499999999998
 31
0.0
  0
LINE
  5
240
330
2
100
AcDbEntity
  8
0
100
AcDbLine
 10
1.362500000000011
 20
13.57307763843374
 30
0.0
 11
1.319864720043661
 21
13.59919722692674
 31
0.0
  0
LINE
  5
241
330
2
100
AcDbEntity
  8
0
100
AcDbLine
 10
1.625250000000172
 20
12.72749999999998
 30
0.0
 11
1.625250000000172
 21
11.9723883476483
 31
0.0
  0
LINE
  5
242
330
2
100
AcDbEntity
  8
0
100
AcDbLine
 10
1.437250000000176
 20
11.97238834764796
 30
0.0
 11
1.437250000000169
 21
12.72749999999998
 31
0.0
  0
ARC
  5
243
330
2
100
AcDbEntity
  8
0
100
AcDbCircle
 10
1.562750000000172
 20
11.9723883476483
 30
0.0
 40
0.0625
100
AcDbArc
 50
315.0000000000001
 51
0.000000000000007
  0
LINE
  5
244
330
2
100
AcDbEntity
  8
0
100
AcDbLine
 10
1.531250000000171
 20
11.85249999999998
 30
0.0
 11
1.606944173824331
 21
11.92819417382414
 31
0.0
  0
ARC
  5
245
330
2
100
AcDbEntity
  8
0
100
AcDbCircle
 10
1.499750000000176
 20
11.97238834764796
 30
0.0
 40
0.0625
100
AcDbArc
 50
180.0000000000002
 51
225.0000000000005
  0
LINE
  5
246
330
2
100
AcDbEntity
  8
0
100
AcDbLine
 10
1.531249999999844
 20
11.85249999999998
 30
0.0
 11
1.455555826176017
 21
11.92819417382381
 31
0.0
  0
CIRCLE
  5
247
330
2
100
AcDbEntity
  8
0
  6
Continuous
100
AcDbCircle
 10
1.987500000000019
 20
11.78999999999998
 30
0.0
 40
0.0855
  0
LINE
  5
248
330
2
100
AcDbEntity
  8
0
100
AcDbLine
 10
1.737500000000019
 20
13.66499999999999
 30
0.0
 11
1.987500000000019
 21
13.66499999999999
 31
0.0
  0
CIRCLE
  5
24A
330
2
100
AcDbEntity
  8
0
  6
Continuous
100
AcDbCircle
 10
1.987500000000019
 20
12.91499999999997
 30
0.0
 40
0.0855
  0
LINE
  5
24B
330
2
100
AcDbEntity
  8
0
100
AcDbLine
 10
2.237500000000019
 20
13.41499999999999
 30
0.0
 11
1.987500000000019
 21
13.66499999999999
 31
0.0
  0
LINE
  5
24C
330
2
100
AcDbEntity
  8
0
100
AcDbLine
 10
1.362500000000004
 20
14.08999999999998
 30
0.0
 11
1.737500000000011
 21
14.08999999999998
 31
0.0
  0
LINE
  5
24F
330
2
100
AcDbEntity
  8
0
100
AcDbLine
 10
12.99928769339535
 20
13.98999999999997
 30
0.0
 11
12.99928769339535
 21
2.105037001685483
 31
0.0
  0
LINE
  5
250
330
2
100
AcDbEntity
  8
0
100
AcDbLine
 10
12.94928769339536
 20
13.98999999999998
 30
0.0
 11
12.94928769339536
 21
2.033629601348386
 31
0.0
  0
LINE
  5
251
330
2
100
AcDbEntity
  8
0
100
AcDbLine
 10
12.12428769339535
 20
4.997999999999971
 30
0.0
 11
12.12428769339535
 21
13.34919722692673
 31
0.0
  0
ARC
  5
252
330
2
100
AcDbEntity
  8
0
100
AcDbCircle
 10
11.74928769339535
 20
1.442328618174591
 30
0.0
 40
0.1874999999999982
100
AcDbArc
 50
0.0
 51
180.0
  0
LINE
  5
253
330
2
100
AcDbEntity
  8
0
100
AcDbLine
 10
11.34303769339535
 20
0.0729999999999738
 30
0.0
 11
11.34303769339532
 21
1.635499999999952
 31
0.0
  0
LINE
  5
254
330
2
100
AcDbEntity
  8
0
100
AcDbLine
 10
11.15553769339535
 20
0.0729999999999738
 30
0.0
 11
11.15553769339532
 21
1.635499999999952
 31
0.0
  0
ARC
  5
256
330
2
100
AcDbEntity
  8
0
100
AcDbCircle
 10
11.24678769339544
 20
1.586138852532367
 30
0.0
 40
0.4975
100
AcDbArc
 50
144.9999999999964
 51
180.0
1001
_DIE112SSJYHX
1002
{
1000
comp_type
1000
DBL24
1000
material
1000
D-2
1000
thickness
1040
1.25
1000
mount
1000
SBP10
1000
mntlay
1000
DIE_SUB_PLATE
1002
}
  0
ARC
  5
257
330
2
100
AcDbEntity
  8
0
100
AcDbCircle
 10
11.74928769339535
 20
1.442328618174591
 30
0.0
 40
0.1874999999999982
100
AcDbArc
 50
0.0
 51
180.0
  0
LINE
  5
258
330
2
100
AcDbEntity
  8
0
100
AcDbLine
 10
12.34303769339532
 20
2.197999999999954
 30
0.0
 11
12.34303769339535
 21
0.0729999999999738
 31
0.0
  0
LINE
  5
259
330
2
100
AcDbEntity
  8
0
100
AcDbLine
 10
12.15553769339532
 20
2.197999999999954
 30
0.0
 11
12.15553769339535
 21
0.0729999999999738
 31
0.0
  0
ARC
  5
25A
330
2
100
AcDbEntity
  8
0
100
AcDbCircle
 10
13.24678769339544
 20
1.586138852532367
 30
0.0
 40
0.4975
100
AcDbArc
 50
144.9999999999964
 51
180.0
1001
_DIE112SSJYHX
1002
{
1000
comp_type
1000
DBL24
1000
material
1000
D-2
1000
thickness
1040
1.25
1000
mount
1000
SBP10
1000
mntlay
1000
DIE_SUB_PLATE
1002
}
  0
LINE
  5
25B
330
2
100
AcDbEntity
  8
0
100
AcDbLine
 10
11.69928769339526
 20
0.7679999999999101
 30
0.0
 11
11.54928769339528
 21
0.9429999999999783
 31
0.0
  0
ARC
  5
25C
330
2
100
AcDbEntity
  8
0
100
AcDbCircle
 10
11.54928769339534
 20
0.8804999999999783
 30
0.0
 40
0.1875
100
AcDbArc
 50
216.8698976458378
 51
323.130102354154
  0
LINE
  5
25D
330
2
100
AcDbEntity
  8
0
100
AcDbLine
 10
11.54928769339539
 20
0.7452605845752434
 30
0.0
 11
11.69928769339537
 21
0.7680000000000238
 31
0.0
  0
LINE
  5
25F
330
2
100
AcDbEntity
  8
0
100
AcDbLine
 10
11.87678769339535
 20
1.317328618174583
 30
0.0
 11
11.62178769339536
 21
1.317328618174583
 31
0.0
  0
LINE
  5
262
330
2
100
AcDbEntity
  8
0
100
AcDbLine
 10
10.74928769339521
 20
0.2034999999999325
 30
0.0
 11
10.74928769339544
 21
1.586138852532367
 31
0.0
  0
LINE
  5
264
330
2
100
AcDbEntity
  8
0
100
AcDbLine
 10
11.54928769339528
 20
0.9429999999999783
 30
0.0
 11
11.3992876933953
 21
0.7679999999999101
 31
0.0
  0
LINE
  5
265
330
2
100
AcDbEntity
  8
0
100
AcDbLine
 10
11.54928769339539
 20
0.7452605845752434
 30
0.0
 11
11.39928769339536
 21
0.7679999999999101
 31
0.0
  0
LINE
  5
266
330
2
100
AcDbEntity
  8
0
100
AcDbLine
 10
11.54928769339539
 20
0.7452605845752434
 30
0.0
 11
11.54928769339528
 21
0.9429999999998646
 31
0.0
  0
ARC
  5
267
330
2
100
AcDbEntity
  8
0
100
AcDbCircle
 10
11.62178769339536
 20
1.377328618174586
 30
0.0
 40
0.06
100
AcDbArc
 50
180.0000000000001
 51
269.9999999999996
  0
ARC
  5
268
330
2
100
AcDbEntity
  8
0
100
AcDbCircle
 10
11.94928769339531
 20
1.155499999999956
 30
0.0
 40
0.1875
100
AcDbArc
 50
216.8698976458378
 51
323.130102354154
  0
LINE
  5
269
330
2
100
AcDbEntity
  8
0
100
AcDbLine
 10
11.94928769339526
 20
1.217999999999842
 30
0.0
 11
11.79928769339528
 21
1.042999999999887
 31
0.0
  0
LINE
  5
26A
330
2
100
AcDbEntity
  8
0
100
AcDbLine
 10
11.94928769339537
 20
1.020260584575221
 30
0.0
 11
11.79928769339534
 21
1.042999999999887
 31
0.0
  0
ARC
  5
26B
330
2
100
AcDbEntity
  8
0
100
AcDbCircle
 10
11.87678769339535
 20
1.377328618174586
 30
0.0
 40
0.06
100
AcDbArc
 50
270.0000000000002
 51
359.9999999999999
  0
POINT
  5
26C
330
2
100
AcDbEntity
  8
0
  6
ByBlock
100
AcDbPoint
 10
11.87678769339535
 20
1.317328618174583
 30
0.0
  0
LINE
  5
26D
330
2
100
AcDbEntity
  8
0
100
AcDbLine
 10
12.09928769339523
 20
1.042999999999887
 30
0.0
 11
11.94928769339526
 21
1.217999999999842
 31
0.0
  0
LINE
  5
26E
330
2
100
AcDbEntity
  8
0
100
AcDbLine
 10
11.94928769339537
 20
1.020260584575221
 30
0.0
 11
12.09928769339535
 21
1.043000000000001
 31
0.0
  0
LINE
  5
26F
330
2
100
AcDbEntity
  8
0
100
AcDbLine
 10
11.94928769339537
 20
1.020260584575221
 30
0.0
 11
11.94928769339526
 21
1.217999999999842
 31
0.0
  0
LINE
  5
270
330
2
100
AcDbEntity
  8
0
100
AcDbLine
 10
12.74928769339544
 20
1.586138852532367
 30
0.0
 11
12.74928769339544
 21
0.2034999999999325
 31
0.0
  0
ARC
  5
278
330
2
100
AcDbEntity
  8
0
100
AcDbCircle
 10
10.74678769339543
 20
3.487235042592939
 30
0.0
 40
1.002500000000012
100
AcDbArc
 50
325.0000000000025
 51
359.9999999999998
1001
_DIE112SSJYHX
1002
{
1000
comp_type
1000
DBL24
1000
material
1000
D-2
1000
thickness
1040
1.25
1000
mount
1000
SBP10
1000
mntlay
1000
DIE_SUB_PLATE
1002
}
  0
POINT
  5
279
330
2
100
AcDbEntity
  8
0
  6
ByBlock
100
AcDbPoint
 10
10.74928769339535
 20
1.747999999999969
 30
0.0
  0
LINE
  5
27A
330
2
100
AcDbEntity
  8
0
100
AcDbLine
 10
10.83925955136169
 20
1.871493129617038
 30
0.0
 11
11.56798761779518
 21
2.912224665151047
 31
0.0
  0
ARC
  5
27B
330
2
100
AcDbEntity
  8
0
100
AcDbCircle
 10
11.24928769339532
 20
1.635499999999952
 30
0.0
 40
0.09375
100
AcDbArc
 50
0.0
 51
180.0
  0
LINE
  5
27C
330
2
100
AcDbEntity
  8
0
100
AcDbLine
 10
11.74928769339544
 20
3.487235042592939
 30
0.0
 11
11.75001992644265
 21
4.417660985765945
 31
0.0
  0
ARC
  5
27D
330
2
100
AcDbEntity
  8
0
100
AcDbCircle
 10
12.24928769339532
 20
2.197999999999954
 30
0.0
 40
0.09375
100
AcDbArc
 50
0.0
 51
180.0
  0
POINT
  5
27E
330
2
100
AcDbEntity
  8
0
  6
ByBlock
100
AcDbPoint
 10
11.74928769339535
 20
1.629828618174587
 30
0.0
  0
POINT
  5
27F
330
2
100
AcDbEntity
  8
0
  6
ByBlock
100
AcDbPoint
 10
11.74928769339535
 20
1.629828618174587
 30
0.0
  0
POINT
  5
280
330
2
100
AcDbEntity
  8
0
  6
ByBlock
100
AcDbPoint
 10
11.74928769339535
 20
1.629828618174587
 30
0.0
  0
POINT
  5
281
330
2
100
AcDbEntity
  8
0
  6
ByBlock
100
AcDbPoint
 10
11.74928769339535
 20
1.629828618174587
 30
0.0
  0
LINE
  5
282
330
2
100
AcDbEntity
  8
0
100
AcDbLine
 10
12.8392595513614
 20
1.871493129617244
 30
0.0
 11
12.99928769339521
 21
2.100037001685447
 31
0.0
  0
ARC
  5
283
330
2
100
AcDbEntity
  8
0
100
AcDbCircle
 10
12.14724137823888
 20
4.618215883755905
 30
0.0
 40
0.03125
100
AcDbArc
 50
359.9999999999974
 51
119.9999999999993
  0
ARC
  5
284
330
2
100
AcDbEntity
  8
0
100
AcDbCircle
 10
12.14724137823888
 20
4.430288371134697
 30
0.0
 40
0.03125
100
AcDbArc
 50
240.0000000000007
 51
0.0000000000024427
  0
ARC
  5
285
330
2
100
AcDbEntity
  8
0
100
AcDbCircle
 10
12.24751992644266
 20
4.417660985765945
 30
0.0
 40
0.4975000000000007
100
AcDbArc
 50
135.0000000000189
 51
180.0
1001
_DIE112SSJYHX
1002
{
1000
comp_type
1000
DBL24
1000
material
1000
D-2
1000
thickness
1040
1.25
1000
mount
1000
SBP10
1000
mntlay
1000
DIE_SUB_PLATE
1002
}
  0
LINE
  5
286
330
2
100
AcDbEntity
  8
0
100
AcDbLine
 10
12.13161637823888
 20
4.645279177624172
 30
0.0
 11
11.96886637823886
 21
4.551315421069031
 31
0.0
  0
LINE
  5
287
330
2
100
AcDbEntity
  8
0
100
AcDbLine
 10
12.13161637827163
 20
4.403225077265663
 30
0.0
 11
11.96886637823886
 21
4.497188833332501
 31
0.0
  0
ARC
  5
288
330
2
100
AcDbEntity
  8
0
100
AcDbCircle
 10
11.98449137823886
 20
4.524252127200764
 30
0.0
 40
0.03125
100
AcDbArc
 50
119.9999999999971
 51
240.0
  0
LINE
  5
289
330
2
100
AcDbEntity
  8
0
100
AcDbLine
 10
11.89573430280202
 20
4.769446609406639
 30
0.0
 11
11.97784108398869
 21
4.851553390593306
 31
0.0
  0
ARC
  5
28A
330
2
100
AcDbEntity
  8
0
100
AcDbCircle
 10
11.62251992644243
 20
5.206874548139506
 30
0.0
 40
0.5025
100
AcDbArc
 50
314.9999999999999
 51
0.0
  0
LINE
  5
28B
330
2
100
AcDbEntity
  8
0
100
AcDbLine
 10
12.17848769339535
 20
4.430768255661487
 30
0.0
 11
12.17848769339536
 21
4.618695768264548
 31
0.0
  0
LINE
  5
28C
330
2
100
AcDbEntity
  8
0
100
AcDbLine
 10
12.94928769339536
 20
5.029999999999975
 30
0.0
 11
12.99928769339535
 21
5.029999999999975
 31
0.0
  0
LINE
  5
28D
330
2
100
AcDbEntity
  8
0
100
AcDbLine
 10
12.94928769339536
 20
5.246506350946083
 30
0.0
 11
12.99928769339535
 21
5.246506350946083
 31
0.0
  0
LINE
  5
28E
330
2
100
AcDbEntity
  8
0
100
AcDbLine
 10
13.04928769339535
 20
14.03999999999998
 30
0.0
 11
13.62428769339535
 21
14.03999999999998
 31
0.0
  0
LINE
  5
28F
330
2
100
AcDbEntity
  8
0
100
AcDbLine
 10
13.04928769339536
 20
14.08999999999998
 30
0.0
 11
13.62428769339535
 21
14.08999999999998
 31
0.0
  0
LINE
  5
290
330
2
100
AcDbEntity
  8
0
100
AcDbLine
 10
12.37428769339535
 20
13.59919722692674
 30
0.0
 11
12.88418319360222
 21
13.59919722692674
 31
0.0
  0
LINE
  5
291
330
2
100
AcDbEntity
  8
0
100
AcDbLine
 10
12.32428769339536
 20
13.54919722692674
 30
0.0
 11
12.88418319360222
 21
13.54919722692674
 31
0.0
  0
ARC
  5
292
330
2
100
AcDbEntity
  8
0
  6
Continuous
100
AcDbCircle
 10
12.71932366057718
 20
12.04231764132499
 30
0.0
 40
0.096
100
AcDbArc
 50
135.0000000000019
 51
254.9999999999993
  0
LINE
  5
293
330
2
100
AcDbEntity
  8
0
100
AcDbLine
 10
12.12428769339535
 20
13.16499999999997
 30
0.0
 11
12.81793319360223
 21
13.16499999999998
 31
0.0
  0
LINE
  5
294
330
2
100
AcDbEntity
  8
0
100
AcDbLine
 10
12.12428769339535
 20
13.34919722692673
 30
0.0
 11
12.37428769339535
 21
13.59919722692674
 31
0.0
  0
ARC
  5
295
330
2
100
AcDbEntity
  8
0
  6
Continuous
100
AcDbCircle
 10
12.71932366057718
 20
12.04231764132499
 30
0.0
 40
0.05
100
AcDbArc
 50
135.0000000000019
 51
255.0000000000004
  0
LINE
  5
296
330
2
100
AcDbEntity
  8
0
  6
Continuous
100
AcDbLine
 10
12.70638270832205
 20
11.99402135001054
 30
0.0
 11
12.94786416489432
 21
11.92931658873491
 31
0.0
  0
LINE
  5
297
330
2
100
AcDbEntity
  8
0
  6
Continuous
100
AcDbLine
 10
12.69447703224733
 20
11.94958876200125
 30
0.0
 11
12.9359584888196
 21
11.88488400072561
 31
0.0
  0
LINE
  5
298
330
2
100
AcDbEntity
  8
0
  6
Continuous
100
AcDbLine
 10
12.94786416489432
 20
11.92931658873494
 30
0.0
 11
12.93595848881962
 21
11.88488400072564
 31
0.0
  0
LINE
  5
299
330
2
100
AcDbEntity
  8
0
  6
Continuous
100
AcDbLine
 10
12.94928769339535
 20
12.34299235226182
 30
0.0
 11
12.68396832151785
 21
12.07767298038432
 31
0.0
  0
LINE
  5
29A
330
2
100
AcDbEntity
  8
0
  6
Continuous
100
AcDbLine
 10
12.93981460532992
 20
12.39857308806556
 30
0.0
 11
12.65144140958326
 21
12.1101998923189
 31
0.0
  0
ARC
  5
29B
330
2
100
AcDbEntity
  8
0
  6
Continuous
100
AcDbCircle
 10
12.90728769339534
 20
12.43110000000014
 30
0.0
 40
0.046
100
AcDbArc
 50
315.0000000000002
 51
335.9293853774835
  0
ARC
  5
29C
330
2
100
AcDbEntity
  8
0
  6
Continuous
100
AcDbCircle
 10
12.88455213289911
 20
12.43750162342253
 30
0.0
 40
0.1148432675996877
100
AcDbArc
 50
315.1652224024733
 51
351.5634350384797
  0
LINE
  5
29D
330
2
100
AcDbEntity
  8
0
100
AcDbLine
 10
12.88418319360222
 20
13.59919722692674
 30
0.0
 11
12.88418319360222
 21
13.29272651447523
 31
0.0
  0
ARC
  5
29E
330
2
100
AcDbEntity
  8
0
100
AcDbCircle
 10
12.97418319360223
 20
13.16499999999998
 30
0.0
 40
0.15625
100
AcDbArc
 50
125.1696929238603
 51
260.831921102219
  0
ARC
  5
29F
330
2
100
AcDbEntity
  8
0
100
AcDbCircle
 10
13.04928769339535
 20
13.98999999999997
 30
0.0
 40
0.05
100
AcDbArc
 50
90.0
 51
180.0
  0
ARC
  5
2A0
330
2
100
AcDbEntity
  8
0
100
AcDbCircle
 10
13.04928769339536
 20
13.98999999999998
 30
0.0
 40
0.1
100
AcDbArc
 50
90.0
 51
180.0
  0
LINE
  5
2A1
330
2
100
AcDbEntity
  8
0
100
AcDbLine
 10
13.62428769339535
 20
14.08999999999998
 30
0.0
 11
13.62428769339535
 21
14.03999999999998
 31
0.0
  0
LINE
  5
2A2
330
2
100
AcDbEntity
  8
0
100
AcDbLine
 10
-11.26701652557449
 20
13.98999999999997
 30
0.0
 11
-11.26701652557449
 21
2.105037001685483
 31
0.0
  0
LINE
  5
2A3
330
2
100
AcDbEntity
  8
0
100
AcDbLine
 10
-11.2170165255745
 20
13.98999999999998
 30
0.0
 11
-11.2170165255745
 21
2.033629601348386
 31
0.0
  0
LINE
  5
2A4
330
2
100
AcDbEntity
  8
0
100
AcDbLine
 10
-10.39201652557449
 20
4.997999999999971
 30
0.0
 11
-10.39201652557449
 21
13.34919722692673
 31
0.0
  0
ARC
  5
2A5
330
2
100
AcDbEntity
  8
0
100
AcDbCircle
 10
-11.51451652557458
 20
1.586138852532367
 30
0.0
 40
0.4975
100
AcDbArc
 50
0.000000000000007
 51
35.00000000000365
1001
_DIE112SSJYHX
1002
{
1000
comp_type
1000
DBL24
1000
material
1000
D-2
1000
thickness
1040
1.25
1000
mount
1000
SBP10
1000
mntlay
1000
DIE_SUB_PLATE
1002
}
  0
ARC
  5
2A6
330
2
100
AcDbEntity
  8
0
100
AcDbCircle
 10
-10.01701652557449
 20
1.442328618174591
 30
0.0
 40
0.1874999999999982
100
AcDbArc
 50
0.000000000000007
 51
180.0
  0
ARC
  5
2A8
330
2
100
AcDbEntity
  8
0
100
AcDbCircle
 10
-9.514516525574582
 20
1.586138852532367
 30
0.0
 40
0.4975
100
AcDbArc
 50
0.000000000000007
 51
35.00000000000365
1001
_DIE112SSJYHX
1002
{
1000
comp_type
1000
DBL24
1000
material
1000
D-2
1000
thickness
1040
1.25
1000
mount
1000
SBP10
1000
mntlay
1000
DIE_SUB_PLATE
1002
}
  0
ARC
  5
2A9
330
2
100
AcDbEntity
  8
0
100
AcDbCircle
 10
-10.01701652557449
 20
1.442328618174591
 30
0.0
 40
0.1874999999999982
100
AcDbArc
 50
0.000000000000007
 51
180.0
  0
LINE
  5
2AA
330
2
100
AcDbEntity
  8
0
100
AcDbLine
 10
-11.01701652557458
 20
1.586138852532367
 30
0.0
 11
-11.01701652557458
 21
0.2034999999999325
 31
0.0
  0
ARC
  5
2B0
330
2
100
AcDbEntity
  8
0
100
AcDbCircle
 10
-9.889516525574496
 20
1.377328618174586
 30
0.0
 40
0.06
100
AcDbArc
 50
270.0000000000004
 51
359.9999999999999
  0
LINE
  5
2B1
330
2
100
AcDbEntity
  8
0
100
AcDbLine
 10
-9.967016525574397
 20
0.7679999999999101
 30
0.0
 11
-9.81701652557442
 21
0.9429999999999783
 31
0.0
  0
ARC
  5
2B2
330
2
100
AcDbEntity
  8
0
100
AcDbCircle
 10
-9.817016525574477
 20
0.8804999999999783
 30
0.0
 40
0.1875
100
AcDbArc
 50
216.869897645846
 51
323.1301023541622
  0
LINE
  5
2B3
330
2
100
AcDbEntity
  8
0
100
AcDbLine
 10
-9.817016525574534
 20
0.7452605845752434
 30
0.0
 11
-9.967016525574511
 21
0.7680000000000238
 31
0.0
  0
LINE
  5
2B4
330
2
100
AcDbEntity
  8
0
100
AcDbLine
 10
-10.36701652557438
 20
1.042999999999887
 30
0.0
 11
-10.2170165255744
 21
1.217999999999842
 31
0.0
  0
ARC
  5
2B5
330
2
100
AcDbEntity
  8
0
100
AcDbCircle
 10
-10.21701652557445
 20
1.155499999999956
 30
0.0
 40
0.1875
100
AcDbArc
 50
216.869897645846
 51
323.1301023541622
  0
LINE
  5
2B6
330
2
100
AcDbEntity
  8
0
100
AcDbLine
 10
-10.21701652557451
 20
1.020260584575221
 30
0.0
 11
-10.36701652557449
 21
1.043000000000001
 31
0.0
  0
LINE
  5
2B7
330
2
100
AcDbEntity
  8
0
100
AcDbLine
 10
-10.2170165255744
 20
1.217999999999842
 30
0.0
 11
-10.06701652557442
 21
1.042999999999887
 31
0.0
  0
LINE
  5
2B8
330
2
100
AcDbEntity
  8
0
100
AcDbLine
 10
-10.21701652557451
 20
1.020260584575221
 30
0.0
 11
-10.06701652557448
 21
1.042999999999887
 31
0.0
  0
LINE
  5
2B9
330
2
100
AcDbEntity
  8
0
100
AcDbLine
 10
-10.14451652557449
 20
1.317328618174583
 30
0.0
 11
-9.889516525574496
 21
1.317328618174583
 31
0.0
  0
LINE
  5
2BA
330
2
100
AcDbEntity
  8
0
100
AcDbLine
 10
-10.21701652557451
 20
1.020260584575221
 30
0.0
 11
-10.2170165255744
 21
1.217999999999842
 31
0.0
  0
ARC
  5
2BB
330
2
100
AcDbEntity
  8
0
100
AcDbCircle
 10
-10.14451652557449
 20
1.377328618174586
 30
0.0
 40
0.06
100
AcDbArc
 50
180.0000000000001
 51
269.9999999999998
  0
POINT
  5
2BC
330
2
100
AcDbEntity
  8
0
  6
ByBlock
100
AcDbPoint
 10
-10.14451652557449
 20
1.317328618174583
 30
0.0
 50
180.0
  0
LINE
  5
2BD
330
2
100
AcDbEntity
  8
0
100
AcDbLine
 10
-9.017016525574352
 20
0.2034999999999325
 30
0.0
 11
-9.017016525574579
 21
1.586138852532367
 31
0.0
  0
LINE
  5
2BF
330
2
100
AcDbEntity
  8
0
100
AcDbLine
 10
-9.81701652557442
 20
0.9429999999999783
 30
0.0
 11
-9.667016525574443
 21
0.7679999999999101
 31
0.0
  0
LINE
  5
2C0
330
2
100
AcDbEntity
  8
0
100
AcDbLine
 10
-9.817016525574534
 20
0.7452605845752434
 30
0.0
 11
-9.81701652557442
 21
0.9429999999998646
 31
0.0
  0
LINE
  5
2C1
330
2
100
AcDbEntity
  8
0
100
AcDbLine
 10
-9.817016525574534
 20
0.7452605845752434
 30
0.0
 11
-9.6670165255745
 21
0.7679999999999101
 31
0.0
  0
LINE
  5
2C2
330
2
100
AcDbEntity
  8
0
100
AcDbLine
 10
-11.10698838354054
 20
1.871493129617244
 30
0.0
 11
-11.26701652557435
 21
2.100037001685447
 31
0.0
  0
LINE
  5
2C3
330
2
100
AcDbEntity
  8
0
100
AcDbLine
 10
-11.2170165255745
 20
5.029999999999975
 30
0.0
 11
-11.26701652557449
 21
5.029999999999975
 31
0.0
  0
LINE
  5
2C4
330
2
100
AcDbEntity
  8
0
100
AcDbLine
 10
-11.2170165255745
 20
5.246506350946083
 30
0.0
 11
-11.26701652557449
 21
5.246506350946083
 31
0.0
  0
LINE
  5
2C5
330
2
100
AcDbEntity
  8
0
100
AcDbLine
 10
-10.01701652557458
 20
3.487235042592939
 30
0.0
 11
-10.0177487586218
 21
4.417660985765945
 31
0.0
  0
ARC
  5
2C6
330
2
100
AcDbEntity
  8
0
100
AcDbCircle
 10
-9.014516525574567
 20
3.487235042592939
 30
0.0
 40
1.002500000000012
100
AcDbArc
 50
180.0000000000002
 51
214.9999999999976
1001
_DIE112SSJYHX
1002
{
1000
comp_type
1000
DBL24
1000
material
1000
D-2
1000
thickness
1040
1.25
1000
mount
1000
SBP10
1000
mntlay
1000
DIE_SUB_PLATE
1002
}
  0
ARC
  5
2C7
330
2
100
AcDbEntity
  8
0
  6
HIDDEN2
100
AcDbCircle
 10
-10.51701652557447
 20
2.197999999999954
 30
0.0
 40
0.09375
100
AcDbArc
 50
0.000000000000007
 51
180.0
  0
POINT
  5
2C8
330
2
100
AcDbEntity
  8
0
  6
ByBlock
100
AcDbPoint
 10
-10.01701652557449
 20
1.629828618174587
 30
0.0
 50
180.0
  0
POINT
  5
2C9
330
2
100
AcDbEntity
  8
0
  6
ByBlock
100
AcDbPoint
 10
-10.01701652557449
 20
1.629828618174587
 30
0.0
 50
180.0
  0
POINT
  5
2CA
330
2
100
AcDbEntity
  8
0
  6
ByBlock
100
AcDbPoint
 10
-10.01701652557449
 20
1.629828618174587
 30
0.0
 50
180.0
  0
POINT
  5
2CB
330
2
100
AcDbEntity
  8
0
  6
ByBlock
100
AcDbPoint
 10
-10.01701652557449
 20
1.629828618174587
 30
0.0
 50
180.0
  0
LINE
  5
2CC
330
2
100
AcDbEntity
  8
0
100
AcDbLine
 10
-9.106988383540827
 20
1.871493129617038
 30
0.0
 11
-9.835716449974317
 21
2.912224665151047
 31
0.0
  0
ARC
  5
2CD
330
2
100
AcDbEntity
  8
0
  6
HIDDEN2
100
AcDbCircle
 10
-9.517016525574466
 20
1.635499999999952
 30
0.0
 40
0.09375
100
AcDbArc
 50
0.000000000000007
 51
180.0
  0
POINT
  5
2CE
330
2
100
AcDbEntity
  8
0
  6
ByBlock
100
AcDbPoint
 10
-9.017016525574494
 20
1.747999999999969
 30
0.0
 50
180.0
  0
ARC
  5
2CF
330
2
100
AcDbEntity
  8
0
100
AcDbCircle
 10
-9.890248758621571
 20
5.206874548139506
 30
0.0
 40
0.5025
100
AcDbArc
 50
180.0
 51
225.0000000000001
  0
LINE
  5
2D0
330
2
100
AcDbEntity
  8
0
100
AcDbLine
 10
-10.39934521041802
 20
4.645279177624172
 30
0.0
 11
-10.23659521041801
 21
4.551315421069031
 31
0.0
  0
LINE
  5
2D1
330
2
100
AcDbEntity
  8
0
100
AcDbLine
 10
-10.39934521045077
 20
4.403225077265663
 30
0.0
 11
-10.23659521041801
 21
4.497188833332501
 31
0.0
  0
LINE
  5
2D2
330
2
100
AcDbEntity
  8
0
100
AcDbLine
 10
-10.44621652557449
 20
4.430768255661487
 30
0.0
 11
-10.4462165255745
 21
4.618695768264548
 31
0.0
  0
ARC
  5
2D3
330
2
100
AcDbEntity
  8
0
100
AcDbCircle
 10
-10.41497021041802
 20
4.618215883755905
 30
0.0
 40
0.03125
100
AcDbArc
 50
60.00000000000071
 51
180.0000000000026
  0
ARC
  5
2D4
330
2
100
AcDbEntity
  8
0
100
AcDbCircle
 10
-10.41497021041802
 20
4.430288371134697
 30
0.0
 40
0.03125
100
AcDbArc
 50
179.9999999999976
 51
299.9999999999993
  0
ARC
  5
2D5
330
2
100
AcDbEntity
  8
0
100
AcDbCircle
 10
-10.5152487586218
 20
4.417660985765945
 30
0.0
 40
0.4975000000000007
100
AcDbArc
 50
0.000000000000007
 51
44.99999999998109
1001
_DIE112SSJYHX
1002
{
1000
comp_type
1000
DBL24
1000
material
1000
D-2
1000
thickness
1040
1.25
1000
mount
1000
SBP10
1000
mntlay
1000
DIE_SUB_PLATE
1002
}
  0
ARC
  5
2D6
330
2
100
AcDbEntity
  8
0
100
AcDbCircle
 10
-10.25222021041801
 20
4.524252127200764
 30
0.0
 40
0.03125
100
AcDbArc
 50
299.9999999999999
 51
60.00000000000284
  0
LINE
  5
2D7
330
2
100
AcDbEntity
  8
0
100
AcDbLine
 10
-10.16346313498116
 20
4.769446609406639
 30
0.0
 11
-10.24556991616783
 21
4.851553390593306
 31
0.0
  0
LINE
  5
2D8
330
2
100
AcDbEntity
  8
0
100
AcDbLine
 10
-10.64201652557449
 20
13.59919722692674
 30
0.0
 11
-11.15191202578136
 21
13.59919722692674
 31
0.0
  0
LINE
  5
2D9
330
2
100
AcDbEntity
  8
0
100
AcDbLine
 10
-10.5920165255745
 20
13.54919722692674
 30
0.0
 11
-11.15191202578136
 21
13.54919722692674
 31
0.0
  0
LINE
  5
2DA
330
2
100
AcDbEntity
  8
0
100
AcDbLine
 10
-10.39201652557449
 20
13.16499999999997
 30
0.0
 11
-11.08566202578137
 21
13.16499999999998
 31
0.0
  0
ARC
  5
2DB
330
2
100
AcDbEntity
  8
0
  6
Continuous
100
AcDbCircle
 10
-10.98705249275632
 20
12.04231764132499
 30
0.0
 40
0.05
100
AcDbArc
 50
284.9999999999996
 51
44.99999999999809
  0
ARC
  5
2DC
330
2
100
AcDbEntity
  8
0
  6
Continuous
100
AcDbCircle
 10
-10.98705249275632
 20
12.04231764132499
 30
0.0
 40
0.096
100
AcDbArc
 50
285.0000000000007
 51
44.99999999999809
  0
LINE
  5
2DD
330
2
100
AcDbEntity
  8
0
  6
Continuous
100
AcDbLine
 10
-10.97411154050119
 20
11.99402135001054
 30
0.0
 11
-11.21559299707346
 21
11.92931658873491
 31
0.0
  0
LINE
  5
2DE
330
2
100
AcDbEntity
  8
0
  6
Continuous
100
AcDbLine
 10
-10.96220586442647
 20
11.94958876200125
 30
0.0
 11
-11.20368732099874
 21
11.88488400072561
 31
0.0
  0
LINE
  5
2DF
330
2
100
AcDbEntity
  8
0
  6
Continuous
100
AcDbLine
 10
-11.21559299707346
 20
11.92931658873494
 30
0.0
 11
-11.20368732099876
 21
11.88488400072564
 31
0.0
  0
LINE
  5
2E0
330
2
100
AcDbEntity
  8
0
  6
Continuous
100
AcDbLine
 10
-11.21701652557449
 20
12.34299235226182
 30
0.0
 11
-10.95169715369699
 21
12.07767298038432
 31
0.0
  0
LINE
  5
2E1
330
2
100
AcDbEntity
  8
0
  6
Continuous
100
AcDbLine
 10
-11.20754343750906
 20
12.39857308806556
 30
0.0
 11
-10.91917024176241
 21
12.1101998923189
 31
0.0
  0
ARC
  5
2E2
330
2
100
AcDbEntity
  8
0
  6
Continuous
100
AcDbCircle
 10
-11.17501652557448
 20
12.43110000000014
 30
0.0
 40
0.046
100
AcDbArc
 50
204.0706146225166
 51
224.9999999999999
  0
ARC
  5
2E3
330
2
100
AcDbEntity
  8
0
  6
Continuous
100
AcDbCircle
 10
-11.15228096507826
 20
12.43750162342253
 30
0.0
 40
0.1148432675996877
100
AcDbArc
 50
188.4365649615204
 51
224.8347775975267
  0
LINE
  5
2E4
330
2
100
AcDbEntity
  8
0
100
AcDbLine
 10
-11.15191202578136
 20
13.59919722692674
 30
0.0
 11
-11.15191202578136
 21
13.29272651447523
 31
0.0
  0
ARC
  5
2E5
330
2
100
AcDbEntity
  8
0
100
AcDbCircle
 10
-11.24191202578137
 20
13.16499999999998
 30
0.0
 40
0.15625
100
AcDbArc
 50
279.168078897781
 51
54.83030707613973
  0
LINE
  5
2E6
330
2
100
AcDbEntity
  8
0
100
AcDbLine
 10
-11.31701652557449
 20
14.03999999999998
 30
0.0
 11
-11.89201652557449
 21
14.03999999999998
 31
0.0
  0
LINE
  5
2E7
330
2
100
AcDbEntity
  8
0
100
AcDbLine
 10
-11.3170165255745
 20
14.08999999999998
 30
0.0
 11
-11.89201652557449
 21
14.08999999999998
 31
0.0
  0
LINE
  5
2E8
330
2
100
AcDbEntity
  8
0
100
AcDbLine
 10
-11.89201652557449
 20
14.08999999999998
 30
0.0
 11
-11.89201652557449
 21
14.03999999999998
 31
0.0
  0
ARC
  5
2E9
330
2
100
AcDbEntity
  8
0
100
AcDbCircle
 10
-11.31701652557449
 20
13.98999999999997
 30
0.0
 40
0.05
100
AcDbArc
 50
0.000000000000007
 51
90.0
  0
ARC
  5
2EA
330
2
100
AcDbEntity
  8
0
100
AcDbCircle
 10
-11.3170165255745
 20
13.98999999999998
 30
0.0
 40
0.1
100
AcDbArc
 50
0.000000000000007
 51
90.0
  0
LINE
  5
2EB
330
2
100
AcDbEntity
  8
0
100
AcDbLine
 10
-10.39201652557449
 20
13.34919722692673
 30
0.0
 11
-10.64201652557449
 21
13.59919722692674
 31
0.0
  0
LINE
  5
2EC
330
2
100
AcDbEntity
  8
0
  6
HIDDEN2
100
AcDbLine
 10
-10.61076652557447
 20
2.197999999999954
 30
0.0
 11
-10.61076652557449
 21
0.0729999999999738
 31
0.0
  0
LINE
  5
2ED
330
2
100
AcDbEntity
  8
0
  6
HIDDEN2
100
AcDbLine
 10
-10.42326652557447
 20
2.197999999999954
 30
0.0
 11
-10.42326652557449
 21
0.0729999999999738
 31
0.0
  0
LINE
  5
2EE
330
2
100
AcDbEntity
  8
0
  6
HIDDEN2
100
AcDbLine
 10
-9.610766525574487
 20
0.0729999999999738
 30
0.0
 11
-9.610766525574466
 21
1.635499999999952
 31
0.0
  0
LINE
  5
2EF
330
2
100
AcDbEntity
  8
0
  6
HIDDEN2
100
AcDbLine
 10
-9.423266525574494
 20
0.0729999999999738
 30
0.0
 11
-9.423266525574466
 21
1.635499999999952
 31
0.0
  0
LINE
  5
2F5
330
2
100
AcDbEntity
  8
0
100
AcDbLine
 10
-1.158500000000007
 20
18.91798413167575
 30
0.0
 11
-1.524225413175437
 21
18.91798413167575
 31
0.0
  0
LINE
  5
2F6
330
2
100
AcDbEntity
  8
0
100
AcDbLine
 10
-1.158500000000007
 20
18.87198413167575
 30
0.0
 11
-2.237500000000019
 21
18.87198413167574
 31
0.0
  0
LINE
  5
2F7
330
2
100
AcDbEntity
  8
0
100
AcDbLine
 10
-1.625250000000165
 20
18.87198413167575
 30
0.0
 11
-1.625250000000165
 21
18.50042624240797
 31
0.0
  0
LINE
  5
2F8
330
2
100
AcDbEntity
  8
0
100
AcDbLine
 10
-1.437250000000168
 20
18.50042624240796
 30
0.0
 11
-1.437250000000164
 21
18.87198413167575
 31
0.0
  0
ELLIPSE
  5
2F9
330
2
100
AcDbEntity
  8
0
  6
Continuous
100
AcDbEllipse
 10
-1.531250000000166
 20
18.50042624240813
 30
0.0
 11
-0.09399999999999853
 21
1.705302565824240E-13
 31
0.0
210
0.0
220
0.0
230
1.0
 40
0.194197817966139
 41
0.0
 42
3.141592653589793
  0
LINE
  5
2FA
330
2
100
AcDbEntity
  8
0
100
AcDbLine
 10
-1.899225413175458
 20
18.91798413167575
 30
0.0
 11
-2.237500000000019
 21
18.91798413167573
 31
0.0
  0
LINE
  5
2FB
330
2
100
AcDbEntity
  8
0
100
AcDbLine
 10
-2.237500000000019
 20
18.91798413167573
 30
0.0
 11
-2.237500000000019
 21
18.87198413167574
 31
0.0
  0
LINE
  5
2FC
330
2
100
AcDbEntity
  8
0
100
AcDbLine
 10
-1.987500000000011
 20
18.91798413167574
 30
0.0
 11
-1.987500000000011
 21
18.87198413167574
 31
0.0
  0
LINE
  5
2FD
330
2
100
AcDbEntity
  8
0
  6
Continuous
100
AcDbLine
 10
-1.899225413175458
 20
19.04298413167574
 30
0.0
 11
-1.805475413175447
 21
19.60548413167573
 31
0.0
  0
LINE
  5
2FE
330
2
100
AcDbEntity
  8
0
  6
Continuous
100
AcDbLine
 10
-1.617975413175447
 20
19.60548413167573
 30
0.0
 11
-1.524225413175437
 21
19.04298413167574
 31
0.0
  0
LINE
  5
2FF
330
2
100
AcDbEntity
  8
0
  6
Continuous
100
AcDbLine
 10
-1.899225413175458
 20
19.04298413167574
 30
0.0
 11
-1.899225413175458
 21
18.87198413167575
 31
0.0
  0
LINE
  5
300
330
2
100
AcDbEntity
  8
0
  6
Continuous
100
AcDbLine
 10
-1.524225413175437
 20
19.04298413167574
 30
0.0
 11
-1.524225413175437
 21
18.87198413167575
 31
0.0
  0
LINE
  5
301
330
2
100
AcDbEntity
  8
0
  6
Continuous
100
AcDbLine
 10
-1.805475413175447
 20
19.60548413167573
 30
0.0
 11
-1.617975413175447
 21
19.60548413167573
 31
0.0
  0
LINE
  5
302
330
2
100
AcDbEntity
  8
0
100
AcDbLine
 10
-0.9727810187644614
 20
16.66798413167575
 30
0.0
 11
0.9727810187644685
 21
16.66798413167575
 31
0.0
  0
LINE
  5
303
330
2
100
AcDbEntity
  8
0
100
AcDbLine
 10
-0.9727810187644614
 20
18.66798413167574
 30
0.0
 11
0.9727810187644685
 21
18.66798413167574
 31
0.0
  0
ARC
  5
304
330
2
100
AcDbEntity
  8
0
100
AcDbCircle
 10
-1.158500000000007
 20
18.82598413167575
 30
0.0
 40
0.092
100
AcDbArc
 50
0.0000000000000833
 51
90.0000000000003
  0
ARC
  5
305
330
2
100
AcDbEntity
  8
0
100
AcDbCircle
 10
-1.158500000000007
 20
18.82598413167575
 30
0.0
 40
0.046
100
AcDbArc
 50
0.0000000000000833
 51
90.0000000000003
  0
LINE
  5
306
330
2
100
AcDbEntity
  8
0
100
AcDbLine
 10
-1.112500000000004
 20
16.66798413167576
 30
0.0
 11
-1.112500000000007
 21
18.04698413167573
 31
0.0
  0
LINE
  5
307
330
2
100
AcDbEntity
  8
0
100
AcDbLine
 10
-1.066500000000005
 20
16.66798413167575
 30
0.0
 11
-1.066500000000005
 21
18.82598413167575
 31
0.0
  0
LINE
  5
308
330
2
100
AcDbEntity
  8
0
100
AcDbLine
 10
-1.066500000000005
 20
17.74948413167575
 30
0.0
 11
-1.066500000000005
 21
17.49448413167575
 31
0.0
  0
ARC
  5
309
330
2
100
AcDbEntity
  8
0
100
AcDbCircle
 10
-1.066500000000005
 20
17.66798413167575
 30
0.0
 40
0.1874999999999982
100
AcDbArc
 50
270.0
 51
90.0
  0
ARC
  5
30A
330
2
100
AcDbEntity
  8
0
100
AcDbCircle
 10
-1.066476097464445
 20
17.66798413167575
 30
0.0
 40
0.1874999999999982
100
AcDbArc
 50
270.0
 51
90.0
  0
ARC
  5
30B
330
2
100
AcDbEntity
  8
0
100
AcDbCircle
 10
-1.035281018764461
 20
16.66798413167574
 30
0.0
 40
0.0625
100
AcDbArc
 50
0.0000000000032639
 51
90.0
  0
LINE
  5
30C
330
2
100
AcDbEntity
  8
0
100
AcDbLine
 10
-1.066500000000005
 20
16.73048413167574
 30
0.0
 11
-1.035281018764461
 21
16.73048413167574
 31
0.0
  0
LINE
  5
30D
330
2
100
AcDbEntity
  8
0
100
AcDbLine
 10
-1.066500000000005
 20
16.66798413167575
 30
0.0
 11
-1.112500000000004
 21
16.66798413167576
 31
0.0
  0
ARC
  5
30E
330
2
100
AcDbEntity
  8
0
100
AcDbCircle
 10
-1.117258935853654
 20
17.12409802145036
 30
0.0
 40
0.0500000000000078
100
AcDbArc
 50
179.6840952777882
 51
274.2726610135184
  0
ARC
  5
30F
330
2
100
AcDbEntity
  8
0
100
AcDbCircle
 10
-1.116774733096623
 20
17.21191720024723
 30
0.0
 40
0.0500000000000078
100
AcDbArc
 50
85.09552954204182
 51
179.684095277772
  0
LINE
  5
310
330
2
100
AcDbEntity
  8
0
  6
Continuous
100
AcDbLine
 10
-1.166773973110129
 20
17.21219287772675
 30
0.0
 11
-1.167258175867158
 21
17.12437369892987
 31
0.0
  0
LINE
  5
311
330
2
100
AcDbEntity
  8
0
100
AcDbLine
 10
-1.117258052269719
 20
17.124258275837
 30
0.0
 11
-1.117258052269719
 21
17.124258275837
 31
0.0
  0
LINE
  5
312
330
2
100
AcDbEntity
  8
0
100
AcDbLine
 10
-1.066390367813028
 20
17.39548413167574
 30
0.0
 11
-1.112500000000004
 21
17.39548413167575
 31
0.0
  0
ARC
  5
313
330
2
100
AcDbEntity
  8
0
100
AcDbCircle
 10
-1.174164335017963
 20
17.46798413167571
 30
0.0
 40
0.1875
100
AcDbArc
 50
306.8698976458377
 51
8.981623935599469
  0
ARC
  5
314
330
2
100
AcDbEntity
  8
0
100
AcDbCircle
 10
-1.035281018764461
 20
18.66798413167574
 30
0.0
 40
0.0625
100
AcDbArc
 50
270.0
 51
0.000000000000007
  0
LINE
  5
315
330
2
100
AcDbEntity
  8
0
100
AcDbLine
 10
-1.066500000000005
 20
18.04698413167573
 30
0.0
 11
-1.316500000000012
 21
18.29698413167573
 31
0.0
  0
LINE
  5
316
330
2
100
AcDbEntity
  8
0
100
AcDbLine
 10
-1.113006455071812
 20
18.04698413167573
 30
0.0
 11
-1.363006455071819
 21
18.29698413167573
 31
0.0
  0
POINT
  5
317
330
2
100
AcDbEntity
  8
0
  6
ByBlock
100
AcDbPoint
 10
-1.066500000000005
 20
17.74948413167575
 30
0.0
  0
LINE
  5
318
330
2
100
AcDbEntity
  8
0
100
AcDbLine
 10
-1.066500000000005
 20
17.62198413167575
 30
0.0
 11
-1.112500000000004
 21
17.62198413167574
 31
0.0
  0
LINE
  5
319
330
2
100
AcDbEntity
  8
0
  6
Continuous
100
AcDbLine
 10
-1.113006455071812
 20
18.04698413167573
 30
0.0
 11
-1.066500000000005
 21
18.04698413167573
 31
0.0
  0
ARC
  5
31A
330
2
100
AcDbEntity
  8
0
100
AcDbCircle
 10
-1.174164335017963
 20
17.86798413167569
 30
0.0
 40
0.1875
100
AcDbArc
 50
351.018376064427
 51
53.13010235415406
  0
LINE
  5
31B
330
2
100
AcDbEntity
  8
0
100
AcDbLine
 10
-1.363006455071819
 20
18.8068796318826
 30
0.0
 11
-1.066500000000005
 21
18.8068796318826
 31
0.0
  0
LINE
  5
31C
330
2
100
AcDbEntity
  8
0
100
AcDbLine
 10
-1.313006455071822
 20
18.29349058674754
 30
0.0
 11
-1.313006455071822
 21
18.8068796318826
 31
0.0
  0
LINE
  5
31D
330
2
100
AcDbEntity
  8
0
100
AcDbLine
 10
-1.363006455071819
 20
18.29698413167573
 30
0.0
 11
-1.363006455071819
 21
18.8068796318826
 31
0.0
  0
LINE
  5
31E
330
2
100
AcDbEntity
  8
0
  6
Continuous
100
AcDbLine
 10
-1.363006455071819
 20
18.29698413167573
 30
0.0
 11
-1.316500000000012
 21
18.29698413167573
 31
0.0
  0
LINE
  5
31F
330
2
100
AcDbEntity
  8
0
100
AcDbLine
 10
-1.112500000000009
 20
18.8068796318826
 30
0.0
 11
-1.112500000000008
 21
18.82598413167575
 31
0.0
  0
LINE
  5
320
330
2
100
AcDbEntity
  8
0
100
AcDbLine
 10
-1.066500000000005
 20
18.60548413167574
 30
0.0
 11
-1.035281018764461
 21
18.60548413167574
 31
0.0
  0
ARC
  5
321
330
2
100
AcDbEntity
  8
0
100
AcDbCircle
 10
-0.1174546952938869
 20
17.60856498159371
 30
0.0
 40
0.0390625
100
AcDbArc
 50
149.9999999999975
 51
269.9999999999993
  0
ARC
  5
322
330
2
100
AcDbEntity
  8
0
100
AcDbCircle
 10
-0.0939637562351088
 20
17.61937707739363
 30
0.0
 40
0.03125
100
AcDbArc
 50
149.9999999999975
 51
269.9999999999993
  0
ARC
  5
323
330
2
100
AcDbEntity
  8
0
100
AcDbCircle
 10
0.0939637562638573
 20
17.61937707718183
 30
0.0
 40
0.03125
100
AcDbArc
 50
269.9999999999999
 51
30.0000000000028
  0
ARC
  5
324
330
2
100
AcDbEntity
  8
0
100
AcDbCircle
 10
0.1174546953298208
 20
17.60856498132897
 30
0.0
 40
0.0390625
100
AcDbArc
 50
269.9999999999999
 51
30.0000000000028
  0
LINE
  5
325
330
2
100
AcDbEntity
  8
0
100
AcDbLine
 10
-0.0939637562638538
 20
17.58812707740934
 30
0.0
 11
0.0939637562638609
 21
17.58812707718185
 31
0.0
  0
LINE
  5
326
330
2
100
AcDbEntity
  8
0
100
AcDbLine
 10
-0.117454695329819
 20
17.56950248161335
 30
0.0
 11
0.1174546953298261
 21
17.56950248132898
 31
0.0
  0
ARC
  5
327
330
2
100
AcDbEntity
  8
0
100
AcDbCircle
 10
0.0000000000754987
 20
17.78212707739362
 30
0.0
 40
0.03125
100
AcDbArc
 50
30.00000000000072
 51
150.0000000000025
  0
ARC
  5
328
330
2
100
AcDbEntity
  8
0
100
AcDbCircle
 10
0.0000000000943725
 20
17.8120024815937
 30
0.0
 40
0.0390625
100
AcDbArc
 50
30.00000000000072
 51
150.0000000000025
  0
LINE
  5
329
330
2
100
AcDbEntity
  8
0
100
AcDbLine
 10
-0.1512838126178551
 20
17.62809623161335
 30
0.0
 11
-0.0338291172409608
 21
17.8315337315937
 31
0.0
  0
LINE
  5
32A
330
2
100
AcDbEntity
  8
0
100
AcDbLine
 10
-0.1210270500942841
 20
17.63500207740934
 30
0.0
 11
-0.027063293792768
 21
17.79775207739362
 31
0.0
  0
LINE
  5
32B
330
2
100
AcDbEntity
  8
0
100
AcDbLine
 10
0.0270632939437583
 20
17.79775207739361
 30
0.0
 11
0.1210270501321205
 21
17.63500207718184
 31
0.0
  0
LINE
  5
32C
330
2
100
AcDbEntity
  8
0
100
AcDbLine
 10
0.033829117429697
 20
17.83153373159369
 30
0.0
 11
0.1512838126651488
 21
17.62809623132897
 31
0.0
  0
ARC
  5
32D
330
2
100
AcDbEntity
  8
0
100
AcDbCircle
 10
1.158500000000014
 20
18.82598413167575
 30
0.0
 40
0.046
100
AcDbArc
 50
89.9999999999997
 51
179.9999999999999
  0
ARC
  5
32E
330
2
100
AcDbEntity
  8
0
100
AcDbCircle
 10
1.158500000000014
 20
18.82598413167575
 30
0.0
 40
0.092
100
AcDbArc
 50
89.9999999999997
 51
179.9999999999999
  0
LINE
  5
32F
330
2
100
AcDbEntity
  8
0
100
AcDbLine
 10
1.625250000000172
 20
18.87198413167575
 30
0.0
 11
1.625250000000172
 21
18.50042624240797
 31
0.0
  0
LINE
  5
330
330
2
100
AcDbEntity
  8
0
100
AcDbLine
 10
1.437250000000175
 20
18.50042624240796
 30
0.0
 11
1.437250000000171
 21
18.87198413167575
 31
0.0
  0
LINE
  5
331
330
2
100
AcDbEntity
  8
0
100
AcDbLine
 10
1.066500000000012
 20
16.66798413167575
 30
0.0
 11
1.066500000000012
 21
18.82598413167575
 31
0.0
  0
LINE
  5
332
330
2
100
AcDbEntity
  8
0
100
AcDbLine
 10
1.112500000000011
 20
16.66798413167576
 30
0.0
 11
1.112500000000013
 21
18.04698413167571
 31
0.0
  0
ARC
  5
333
330
2
100
AcDbEntity
  8
0
100
AcDbCircle
 10
1.066523902535565
 20
17.66798413167575
 30
0.0
 40
0.1874999999999982
100
AcDbArc
 50
90.0
 51
270.0
  0
LINE
  5
334
330
2
100
AcDbEntity
  8
0
100
AcDbLine
 10
1.066500000000012
 20
16.73048413167574
 30
0.0
 11
1.035281018764469
 21
16.73048413167574
 31
0.0
  0
ARC
  5
335
330
2
100
AcDbEntity
  8
0
100
AcDbCircle
 10
1.035281018764469
 20
16.66798413167574
 30
0.0
 40
0.0625
100
AcDbArc
 50
90.0
 51
179.9999999999967
  0
LINE
  5
336
330
2
100
AcDbEntity
  8
0
100
AcDbLine
 10
1.066500000000012
 20
16.66798413167575
 30
0.0
 11
1.112500000000011
 21
16.66798413167576
 31
0.0
  0
ARC
  5
337
330
2
100
AcDbEntity
  8
0
100
AcDbCircle
 10
1.117258935853661
 20
17.12409802145036
 30
0.0
 40
0.0500000000000078
100
AcDbArc
 50
265.7273389864816
 51
0.3159047222117708
  0
ARC
  5
338
330
2
100
AcDbEntity
  8
0
100
AcDbCircle
 10
1.11677473309663
 20
17.21191720024723
 30
0.0
 40
0.0500000000000078
100
AcDbArc
 50
0.3159047222280552
 51
94.90447045795818
  0
ARC
  5
339
330
2
100
AcDbEntity
  8
0
100
AcDbCircle
 10
1.174212140089082
 20
17.46798413167571
 30
0.0
 40
0.1875
100
AcDbArc
 50
171.0183760644005
 51
233.1301023541622
  0
LINE
  5
33A
330
2
100
AcDbEntity
  8
0
100
AcDbLine
 10
1.066390367813035
 20
17.39548413167574
 30
0.0
 11
1.112500000000011
 21
17.39548413167575
 31
0.0
  0
LINE
  5
33B
330
2
100
AcDbEntity
  8
0
100
AcDbLine
 10
1.117258052269726
 20
17.124258275837
 30
0.0
 11
1.117258052269726
 21
17.124258275837
 31
0.0
  0
LINE
  5
33C
330
2
100
AcDbEntity
  8
0
  6
Continuous
100
AcDbLine
 10
1.166773973110136
 20
17.21219287772675
 30
0.0
 11
1.167258175867165
 21
17.12437369892987
 31
0.0
  0
LINE
  5
33D
330
2
100
AcDbEntity
  8
0
100
AcDbLine
 10
1.113006455071807
 20
18.04698413167571
 30
0.0
 11
1.363006455071819
 21
18.29698413167571
 31
0.0
  0
LINE
  5
33E
330
2
100
AcDbEntity
  8
0
100
AcDbLine
 10
1.0665
 20
18.04698413167571
 30
0.0
 11
1.316500000000012
 21
18.29698413167571
 31
0.0
  0
ARC
  5
33F
330
2
100
AcDbEntity
  8
0
100
AcDbCircle
 10
1.174212140089082
 20
17.86798413167569
 30
0.0
 40
0.1875
100
AcDbArc
 50
126.8698976458459
 51
188.981623935573
  0
LINE
  5
340
330
2
100
AcDbEntity
  8
0
  6
Continuous
100
AcDbLine
 10
1.113006455071807
 20
18.04698413167571
 30
0.0
 11
1.0665
 21
18.04698413167571
 31
0.0
  0
LINE
  5
341
330
2
100
AcDbEntity
  8
0
100
AcDbLine
 10
1.066500000000012
 20
17.62198413167575
 30
0.0
 11
1.112500000000011
 21
17.62198413167574
 31
0.0
  0
LINE
  5
342
330
2
100
AcDbEntity
  8
0
100
AcDbLine
 10
1.363006455071828
 20
18.80687963188258
 30
0.0
 11
1.066500000000014
 21
18.80687963188258
 31
0.0
  0
LINE
  5
343
330
2
100
AcDbEntity
  8
0
100
AcDbLine
 10
1.112500000000014
 20
18.80687963188258
 30
0.0
 11
1.112500000000015
 21
18.82598413167575
 31
0.0
  0
LINE
  5
344
330
2
100
AcDbEntity
  8
0
100
AcDbLine
 10
1.066500000000012
 20
18.60548413167574
 30
0.0
 11
1.035281018764469
 21
18.60548413167574
 31
0.0
  0
ARC
  5
345
330
2
100
AcDbEntity
  8
0
100
AcDbCircle
 10
1.035281018764469
 20
18.66798413167574
 30
0.0
 40
0.0625
100
AcDbArc
 50
180.0
 51
270.0
  0
LINE
  5
346
330
2
100
AcDbEntity
  8
0
  6
Continuous
100
AcDbLine
 10
1.363006455071819
 20
18.29698413167571
 30
0.0
 11
1.316500000000012
 21
18.29698413167571
 31
0.0
  0
LINE
  5
347
330
2
100
AcDbEntity
  8
0
100
AcDbLine
 10
1.313006455071822
 20
18.29349058674752
 30
0.0
 11
1.313006455071831
 21
18.80687963188258
 31
0.0
  0
LINE
  5
348
330
2
100
AcDbEntity
  8
0
100
AcDbLine
 10
1.363006455071819
 20
18.29698413167571
 30
0.0
 11
1.363006455071828
 21
18.80687963188258
 31
0.0
  0
ELLIPSE
  5
349
330
2
100
AcDbEntity
  8
0
  6
Continuous
100
AcDbEllipse
 10
1.531250000000174
 20
18.50042624240813
 30
0.0
 11
0.09399999999999854
 21
-1.692223006060538E-13
 31
0.0
210
0.0
220
0.0
230
1.0
 40
0.1941978179661328
 41
3.141592653589719
 42
6.283185307179514
  0
LINE
  5
34A
330
2
100
AcDbEntity
  8
0
100
AcDbLine
 10
1.158500000000014
 20
18.91798413167575
 30
0.0
 11
1.524225413175444
 21
18.91798413167575
 31
0.0
  0
LINE
  5
34B
330
2
100
AcDbEntity
  8
0
100
AcDbLine
 10
1.158500000000014
 20
18.87198413167575
 30
0.0
 11
2.237500000000026
 21
18.87198413167574
 31
0.0
  0
LINE
  5
34C
330
2
100
AcDbEntity
  8
0
  6
Continuous
100
AcDbLine
 10
1.899225413175465
 20
19.04298413167574
 30
0.0
 11
1.805475413175454
 21
19.60548413167573
 31
0.0
  0
LINE
  5
34D
330
2
100
AcDbEntity
  8
0
  6
Continuous
100
AcDbLine
 10
1.617975413175454
 20
19.60548413167573
 30
0.0
 11
1.524225413175444
 21
19.04298413167574
 31
0.0
  0
LINE
  5
34E
330
2
100
AcDbEntity
  8
0
  6
Continuous
100
AcDbLine
 10
1.524225413175444
 20
19.04298413167574
 30
0.0
 11
1.524225413175444
 21
18.87198413167575
 31
0.0
  0
LINE
  5
34F
330
2
100
AcDbEntity
  8
0
  6
Continuous
100
AcDbLine
 10
1.805475413175454
 20
19.60548413167573
 30
0.0
 11
1.617975413175454
 21
19.60548413167573
 31
0.0
  0
LINE
  5
350
330
2
100
AcDbEntity
  8
0
100
AcDbLine
 10
1.899225413175465
 20
18.91798413167575
 30
0.0
 11
2.237500000000026
 21
18.91798413167573
 31
0.0
  0
LINE
  5
351
330
2
100
AcDbEntity
  8
0
  6
Continuous
100
AcDbLine
 10
1.899225413175465
 20
19.04298413167574
 30
0.0
 11
1.899225413175465
 21
18.87198413167575
 31
0.0
  0
LINE
  5
352
330
2
100
AcDbEntity
  8
0
100
AcDbLine
 10
1.987500000000019
 20
18.91798413167574
 30
0.0
 11
1.987500000000019
 21
18.87198413167574
 31
0.0
  0
LINE
  5
353
330
2
100
AcDbEntity
  8
0
100
AcDbLine
 10
2.237500000000026
 20
18.91798413167573
 30
0.0
 11
2.237500000000026
 21
18.87198413167574
 31
0.0
  0
LINE
  5
354
330
2
100
AcDbEntity
  8
0
  6
Continuous
100
AcDbLine
 10
-1.615256426651637
 20
13.78999999999995
 30
0.0
 11
-1.4847435733484
 21
13.78999999999995
 31
0.0
  0
LINE
  5
355
330
2
100
AcDbEntity
  8
0
  6
Continuous
100
AcDbLine
 10
-1.4847435733484
 20
13.78999999999995
 30
0.0
 11
-1.4847435733484
 21
13.53999999999995
 31
0.0
  0
LINE
  5
356
330
2
100
AcDbEntity
  8
0
  6
Continuous
100
AcDbLine
 10
-1.4847435733484
 20
13.53999999999995
 30
0.0
 11
-1.615256426651637
 21
13.53999999999995
 31
0.0
  0
LINE
  5
357
330
2
100
AcDbEntity
  8
0
  6
Continuous
100
AcDbLine
 10
-1.615256426651637
 20
13.53999999999995
 30
0.0
 11
-1.615256426651637
 21
13.78999999999995
 31
0.0
  0
LINE
  5
358
330
2
100
AcDbEntity
  8
0
  6
Continuous
100
AcDbLine
 10
1.4847435733484
 20
13.78999999999999
 30
0.0
 11
1.615256426651637
 21
13.78999999999999
 31
0.0
  0
LINE
  5
359
330
2
100
AcDbEntity
  8
0
  6
Continuous
100
AcDbLine
 10
1.615256426651637
 20
13.78999999999999
 30
0.0
 11
1.615256426651637
 21
13.53999999999999
 31
0.0
  0
LINE
  5
35A
330
2
100
AcDbEntity
  8
0
  6
Continuous
100
AcDbLine
 10
1.615256426651637
 20
13.53999999999999
 30
0.0
 11
1.4847435733484
 21
13.53999999999999
 31
0.0
  0
LINE
  5
35B
330
2
100
AcDbEntity
  8
0
  6
Continuous
100
AcDbLine
 10
1.4847435733484
 20
13.53999999999999
 30
0.0
 11
1.4847435733484
 21
13.78999999999999
 31
0.0
  0
LINE
  5
35C
330
2
100
AcDbEntity
  8
0
100
AcDbLine
 10
11.93678769339535
 20
1.377328618174586
 30
0.0
 11
11.93553549644479
 21
1.74347841297651
 31
0.0
  0
LINE
  5
35D
330
2
100
AcDbEntity
  8
0
100
AcDbLine
 10
11.93553549644479
 20
1.74347841297651
 30
0.0
 11
11.93266906874464
 21
1.831155638876561
 31
0.0
  0
LINE
  5
35E
330
2
100
AcDbEntity
  8
0
100
AcDbLine
 10
11.93266906874464
 20
1.831155638876561
 30
0.0
 11
11.92839949894459
 21
1.911230283776487
 31
0.0
  0
LINE
  5
35F
330
2
100
AcDbEntity
  8
0
100
AcDbLine
 10
11.92839949894459
 20
1.911230283776487
 30
0.0
 11
11.92301984394475
 21
1.984392941076404
 31
0.0
  0
LINE
  5
360
330
2
100
AcDbEntity
  8
0
100
AcDbLine
 10
11.92301984394475
 20
1.984392941076404
 30
0.0
 11
11.9167506484448
 21
2.05125784047652
 31
0.0
  0
LINE
  5
361
330
2
100
AcDbEntity
  8
0
100
AcDbLine
 10
11.9167506484448
 20
2.05125784047652
 30
0.0
 11
11.90975768084467
 21
2.11238556737646
 31
0.0
  0
LINE
  5
362
330
2
100
AcDbEntity
  8
0
100
AcDbLine
 10
11.90975768084467
 20
2.11238556737646
 30
0.0
 11
11.90216777044474
 21
2.168260034176566
 31
0.0
  0
LINE
  5
363
330
2
100
AcDbEntity
  8
0
100
AcDbLine
 10
11.90216777044474
 20
2.168260034176566
 30
0.0
 11
11.89407633274481
 21
2.219311956276552
 31
0.0
  0
LINE
  5
364
330
2
100
AcDbEntity
  8
0
100
AcDbLine
 10
11.89407633274481
 20
2.219311956276552
 30
0.0
 11
11.88555679874479
 21
2.26590559817657
 31
0.0
  0
LINE
  5
365
330
2
100
AcDbEntity
  8
0
100
AcDbLine
 10
11.88555679874479
 20
2.26590559817657
 30
0.0
 11
11.87665591974473
 21
2.308392250376411
 31
0.0
  0
LINE
  5
366
330
2
100
AcDbEntity
  8
0
100
AcDbLine
 10
11.87665591974473
 20
2.308392250376411
 30
0.0
 11
11.86740373004476
 21
2.347066008976409
 31
0.0
  0
LINE
  5
367
330
2
100
AcDbEntity
  8
0
100
AcDbLine
 10
11.86740373004476
 20
2.347066008976409
 30
0.0
 11
11.85781430414476
 21
2.382173799276526
 31
0.0
  0
LINE
  5
368
330
2
100
AcDbEntity
  8
0
100
AcDbLine
 10
11.85781430414476
 20
2.382173799276526
 30
0.0
 11
11.84788354074475
 21
2.413925059676441
 31
0.0
  0
LINE
  5
369
330
2
100
AcDbEntity
  8
0
100
AcDbLine
 10
11.84788354074475
 20
2.413925059676441
 30
0.0
 11
11.8375897462447
 21
2.442481908776582
 31
0.0
  0
LINE
  5
36A
330
2
100
AcDbEntity
  8
0
100
AcDbLine
 10
11.8375897462447
 20
2.442481908776582
 30
0.0
 11
11.82688339454466
 21
2.467970441876442
 31
0.0
  0
LINE
  5
36B
330
2
100
AcDbEntity
  8
0
100
AcDbLine
 10
11.82688339454466
 20
2.467970441876442
 30
0.0
 11
11.81567201894472
 21
2.490474375976529
 31
0.0
  0
LINE
  5
36C
330
2
100
AcDbEntity
  8
0
100
AcDbLine
 10
11.81567201894472
 20
2.490474375976529
 30
0.0
 11
11.80384637454471
 21
2.509932307376513
 31
0.0
  0
LINE
  5
36D
330
2
100
AcDbEntity
  8
0
100
AcDbLine
 10
11.80384637454471
 20
2.509932307376513
 30
0.0
 11
11.79126852544481
 21
2.526126267376522
 31
0.0
  0
LINE
  5
36E
330
2
100
AcDbEntity
  8
0
100
AcDbLine
 10
11.79126852544481
 20
2.526126267376522
 30
0.0
 11
11.77779345654471
 21
2.538605805476546
 31
0.0
  0
LINE
  5
36F
330
2
100
AcDbEntity
  8
0
100
AcDbLine
 10
11.77779345654471
 20
2.538605805476546
 30
0.0
 11
11.76364173474462
 21
2.546510903376539
 31
0.0
  0
LINE
  5
370
330
2
100
AcDbEntity
  8
0
100
AcDbLine
 10
11.76364173474462
 20
2.546510903376539
 30
0.0
 11
11.74951880534467
 21
2.549224003176615
 31
0.0
  0
LINE
  5
371
330
2
100
AcDbEntity
  8
0
100
AcDbLine
 10
11.74951880534467
 20
2.549224003176615
 30
0.0
 11
11.73532127404473
 21
2.546786956776597
 31
0.0
  0
LINE
  5
372
330
2
100
AcDbEntity
  8
0
100
AcDbLine
 10
11.73532127404473
 20
2.546786956776597
 30
0.0
 11
11.72107914794469
 21
2.539096936376492
 31
0.0
  0
LINE
  5
373
330
2
100
AcDbEntity
  8
0
100
AcDbLine
 10
11.72107914794469
 20
2.539096936376492
 30
0.0
 11
11.7075330620446
 21
2.526783372976407
 31
0.0
  0
LINE
  5
374
330
2
100
AcDbEntity
  8
0
100
AcDbLine
 10
11.7075330620446
 20
2.526783372976407
 30
0.0
 11
11.6948713954448
 21
2.510681044676513
 31
0.0
  0
LINE
  5
375
330
2
100
AcDbEntity
  8
0
100
AcDbLine
 10
11.6948713954448
 20
2.510681044676513
 30
0.0
 11
11.68297518554481
 21
2.491278693576415
 31
0.0
  0
LINE
  5
376
330
2
100
AcDbEntity
  8
0
100
AcDbLine
 10
11.68297518554481
 20
2.491278693576415
 30
0.0
 11
11.67170224464461
 21
2.468802209376573
 31
0.0
  0
LINE
  5
377
330
2
100
AcDbEntity
  8
0
100
AcDbLine
 10
11.67170224464461
 20
2.468802209376573
 30
0.0
 11
11.66094243164479
 21
2.443321751476443
 31
0.0
  0
LINE
  5
378
330
2
100
AcDbEntity
  8
0
100
AcDbLine
 10
11.66094243164479
 20
2.443321751476443
 30
0.0
 11
11.65060288834479
 21
2.414761808576596
 31
0.0
  0
LINE
  5
379
330
2
100
AcDbEntity
  8
0
100
AcDbLine
 10
11.65060288834479
 20
2.414761808576596
 30
0.0
 11
11.64063124194467
 21
2.382995059576498
 31
0.0
  0
LINE
  5
37A
330
2
100
AcDbEntity
  8
0
100
AcDbLine
 10
11.64063124194467
 20
2.382995059576498
 30
0.0
 11
11.6310053539446
 21
2.347862359176471
 31
0.0
  0
LINE
  5
37B
330
2
100
AcDbEntity
  8
0
100
AcDbLine
 10
11.6310053539446
 20
2.347862359176471
 30
0.0
 11
11.6217203582446
 21
2.309155018076464
 31
0.0
  0
LINE
  5
37C
330
2
100
AcDbEntity
  8
0
100
AcDbLine
 10
11.6217203582446
 20
2.309155018076464
 30
0.0
 11
11.61278986394472
 21
2.266626791876544
 31
0.0
  0
LINE
  5
37D
330
2
100
AcDbEntity
  8
0
100
AcDbLine
 10
11.61278986394472
 20
2.266626791876544
 30
0.0
 11
11.60424380494464
 21
2.219985305676456
 31
0.0
  0
LINE
  5
37E
330
2
100
AcDbEntity
  8
0
100
AcDbLine
 10
11.60424380494464
 20
2.219985305676456
 30
0.0
 11
11.59612836054475
 21
2.168877662876522
 31
0.0
  0
LINE
  5
37F
330
2
100
AcDbEntity
  8
0
100
AcDbLine
 10
11.59612836054475
 20
2.168877662876522
 30
0.0
 11
11.58851701974481
 21
2.112940624576478
 31
0.0
  0
LINE
  5
380
330
2
100
AcDbEntity
  8
0
100
AcDbLine
 10
11.58851701974481
 20
2.112940624576478
 30
0.0
 11
11.5815050958447
 21
2.051742866876449
 31
0.0
  0
LINE
  5
381
330
2
100
AcDbEntity
  8
0
100
AcDbLine
 10
11.5815050958447
 20
2.051742866876449
 30
0.0
 11
11.57521945884468
 21
1.984799814376512
 31
0.0
  0
LINE
  5
382
330
2
100
AcDbEntity
  8
0
100
AcDbLine
 10
11.57521945884468
 20
1.984799814376512
 30
0.0
 11
11.5698261006446
 21
1.911550791076589
 31
0.0
  0
LINE
  5
383
330
2
100
AcDbEntity
  8
0
100
AcDbLine
 10
11.5698261006446
 20
1.911550791076589
 30
0.0
 11
11.56554584964464
 21
1.831380101876556
 31
0.0
  0
LINE
  5
384
330
2
100
AcDbEntity
  8
0
100
AcDbLine
 10
11.56554584964464
 20
1.831380101876556
 30
0.0
 11
11.56267233324478
 21
1.743596414776556
 31
0.0
  0
LINE
  5
385
330
2
100
AcDbEntity
  8
0
100
AcDbLine
 10
11.56267233324478
 20
1.743596414776556
 30
0.0
 11
11.56178769339535
 21
1.377328618174586
 31
0.0
  0
LINE
  5
386
330
2
100
AcDbEntity
  8
0
100
AcDbLine
 10
-10.20451652557449
 20
1.377328618174586
 30
0.0
 11
-10.20326432862393
 21
1.74347841297651
 31
0.0
  0
LINE
  5
387
330
2
100
AcDbEntity
  8
0
100
AcDbLine
 10
-10.20326432862393
 20
1.74347841297651
 30
0.0
 11
-10.20039790092378
 21
1.831155638876561
 31
0.0
  0
LINE
  5
388
330
2
100
AcDbEntity
  8
0
100
AcDbLine
 10
-10.20039790092378
 20
1.831155638876561
 30
0.0
 11
-10.19612833112374
 21
1.911230283776487
 31
0.0
  0
LINE
  5
389
330
2
100
AcDbEntity
  8
0
100
AcDbLine
 10
-10.19612833112374
 20
1.911230283776487
 30
0.0
 11
-10.19074867612389
 21
1.984392941076404
 31
0.0
  0
LINE
  5
38A
330
2
100
AcDbEntity
  8
0
100
AcDbLine
 10
-10.19074867612389
 20
1.984392941076404
 30
0.0
 11
-10.18447948062394
 21
2.05125784047652
 31
0.0
  0
LINE
  5
38B
330
2
100
AcDbEntity
  8
0
100
AcDbLine
 10
-10.18447948062394
 20
2.05125784047652
 30
0.0
 11
-10.17748651302381
 21
2.11238556737646
 31
0.0
  0
LINE
  5
38C
330
2
100
AcDbEntity
  8
0
100
AcDbLine
 10
-10.17748651302381
 20
2.11238556737646
 30
0.0
 11
-10.16989660262388
 21
2.168260034176566
 31
0.0
  0
LINE
  5
38D
330
2
100
AcDbEntity
  8
0
100
AcDbLine
 10
-10.16989660262388
 20
2.168260034176566
 30
0.0
 11
-10.16180516492395
 21
2.219311956276552
 31
0.0
  0
LINE
  5
38E
330
2
100
AcDbEntity
  8
0
100
AcDbLine
 10
-10.16180516492395
 20
2.219311956276552
 30
0.0
 11
-10.15328563092394
 21
2.26590559817657
 31
0.0
  0
LINE
  5
38F
330
2
100
AcDbEntity
  8
0
100
AcDbLine
 10
-10.15328563092394
 20
2.26590559817657
 30
0.0
 11
-10.14438475192387
 21
2.308392250376411
 31
0.0
  0
LINE
  5
390
330
2
100
AcDbEntity
  8
0
100
AcDbLine
 10
-10.14438475192387
 20
2.308392250376411
 30
0.0
 11
-10.13513256222391
 21
2.347066008976409
 31
0.0
  0
LINE
  5
391
330
2
100
AcDbEntity
  8
0
100
AcDbLine
 10
-10.13513256222391
 20
2.347066008976409
 30
0.0
 11
-10.1255431363239
 21
2.382173799276526
 31
0.0
  0
LINE
  5
392
330
2
100
AcDbEntity
  8
0
100
AcDbLine
 10
-10.1255431363239
 20
2.382173799276526
 30
0.0
 11
-10.1156123729239
 21
2.413925059676441
 31
0.0
  0
LINE
  5
393
330
2
100
AcDbEntity
  8
0
100
AcDbLine
 10
-10.1156123729239
 20
2.413925059676441
 30
0.0
 11
-10.10531857842384
 21
2.442481908776582
 31
0.0
  0
LINE
  5
394
330
2
100
AcDbEntity
  8
0
100
AcDbLine
 10
-10.10531857842384
 20
2.442481908776582
 30
0.0
 11
-10.0946122267238
 21
2.467970441876442
 31
0.0
  0
LINE
  5
395
330
2
100
AcDbEntity
  8
0
100
AcDbLine
 10
-10.0946122267238
 20
2.467970441876442
 30
0.0
 11
-10.08340085112386
 21
2.490474375976529
 31
0.0
  0
LINE
  5
396
330
2
100
AcDbEntity
  8
0
100
AcDbLine
 10
-10.08340085112386
 20
2.490474375976529
 30
0.0
 11
-10.07157520672385
 21
2.509932307376513
 31
0.0
  0
LINE
  5
397
330
2
100
AcDbEntity
  8
0
100
AcDbLine
 10
-10.07157520672385
 20
2.509932307376513
 30
0.0
 11
-10.05899735762396
 21
2.526126267376522
 31
0.0
  0
LINE
  5
398
330
2
100
AcDbEntity
  8
0
100
AcDbLine
 10
-10.05899735762396
 20
2.526126267376522
 30
0.0
 11
-10.04552228872385
 21
2.538605805476546
 31
0.0
  0
LINE
  5
399
330
2
100
AcDbEntity
  8
0
100
AcDbLine
 10
-10.04552228872385
 20
2.538605805476546
 30
0.0
 11
-10.03137056692376
 21
2.546510903376539
 31
0.0
  0
LINE
  5
39A
330
2
100
AcDbEntity
  8
0
100
AcDbLine
 10
-10.03137056692376
 20
2.546510903376539
 30
0.0
 11
-10.01724763752381
 21
2.549224003176615
 31
0.0
  0
LINE
  5
39B
330
2
100
AcDbEntity
  8
0
100
AcDbLine
 10
-10.01724763752381
 20
2.549224003176615
 30
0.0
 11
-10.00305010622387
 21
2.546786956776597
 31
0.0
  0
LINE
  5
39C
330
2
100
AcDbEntity
  8
0
100
AcDbLine
 10
-10.00305010622387
 20
2.546786956776597
 30
0.0
 11
-9.988807980123827
 21
2.539096936376492
 31
0.0
  0
LINE
  5
39D
330
2
100
AcDbEntity
  8
0
100
AcDbLine
 10
-9.988807980123827
 20
2.539096936376492
 30
0.0
 11
-9.975261894223738
 21
2.526783372976407
 31
0.0
  0
LINE
  5
39E
330
2
100
AcDbEntity
  8
0
100
AcDbLine
 10
-9.975261894223738
 20
2.526783372976407
 30
0.0
 11
-9.962600227623941
 21
2.510681044676513
 31
0.0
  0
LINE
  5
39F
330
2
100
AcDbEntity
  8
0
100
AcDbLine
 10
-9.962600227623941
 20
2.510681044676513
 30
0.0
 11
-9.950704017723954
 21
2.491278693576415
 31
0.0
  0
LINE
  5
3A0
330
2
100
AcDbEntity
  8
0
100
AcDbLine
 10
-9.950704017723954
 20
2.491278693576415
 30
0.0
 11
-9.939431076823755
 21
2.468802209376573
 31
0.0
  0
LINE
  5
3A1
330
2
100
AcDbEntity
  8
0
100
AcDbLine
 10
-9.939431076823755
 20
2.468802209376573
 30
0.0
 11
-9.928671263823933
 21
2.443321751476443
 31
0.0
  0
LINE
  5
3A2
330
2
100
AcDbEntity
  8
0
100
AcDbLine
 10
-9.928671263823933
 20
2.443321751476443
 30
0.0
 11
-9.918331720523927
 21
2.414761808576596
 31
0.0
  0
LINE
  5
3A3
330
2
100
AcDbEntity
  8
0
100
AcDbLine
 10
-9.918331720523927
 20
2.414761808576596
 30
0.0
 11
-9.908360074123809
 21
2.382995059576498
 31
0.0
  0
LINE
  5
3A4
330
2
100
AcDbEntity
  8
0
100
AcDbLine
 10
-9.908360074123809
 20
2.382995059576498
 30
0.0
 11
-9.898734186123736
 21
2.347862359176471
 31
0.0
  0
LINE
  5
3A5
330
2
100
AcDbEntity
  8
0
100
AcDbLine
 10
-9.898734186123736
 20
2.347862359176471
 30
0.0
 11
-9.889449190423736
 21
2.309155018076464
 31
0.0
  0
LINE
  5
3A6
330
2
100
AcDbEntity
  8
0
100
AcDbLine
 10
-9.889449190423736
 20
2.309155018076464
 30
0.0
 11
-9.880518696123861
 21
2.266626791876544
 31
0.0
  0
LINE
  5
3A7
330
2
100
AcDbEntity
  8
0
100
AcDbLine
 10
-9.880518696123861
 20
2.266626791876544
 30
0.0
 11
-9.871972637123779
 21
2.219985305676456
 31
0.0
  0
LINE
  5
3A8
330
2
100
AcDbEntity
  8
0
100
AcDbLine
 10
-9.871972637123779
 20
2.219985305676456
 30
0.0
 11
-9.863857192723888
 21
2.168877662876522
 31
0.0
  0
LINE
  5
3A9
330
2
100
AcDbEntity
  8
0
100
AcDbLine
 10
-9.863857192723888
 20
2.168877662876522
 30
0.0
 11
-9.856245851923948
 21
2.112940624576478
 31
0.0
  0
LINE
  5
3AA
330
2
100
AcDbEntity
  8
0
100
AcDbLine
 10
-9.856245851923948
 20
2.112940624576478
 30
0.0
 11
-9.849233928023839
 21
2.051742866876449
 31
0.0
  0
LINE
  5
3AB
330
2
100
AcDbEntity
  8
0
100
AcDbLine
 10
-9.849233928023839
 20
2.051742866876449
 30
0.0
 11
-9.84294829102382
 21
1.984799814376512
 31
0.0
  0
LINE
  5
3AC
330
2
100
AcDbEntity
  8
0
100
AcDbLine
 10
-9.84294829102382
 20
1.984799814376512
 30
0.0
 11
-9.837554932823739
 21
1.911550791076589
 31
0.0
  0
LINE
  5
3AD
330
2
100
AcDbEntity
  8
0
100
AcDbLine
 10
-9.837554932823739
 20
1.911550791076589
 30
0.0
 11
-9.833274681823784
 21
1.831380101876556
 31
0.0
  0
LINE
  5
3AE
330
2
100
AcDbEntity
  8
0
100
AcDbLine
 10
-9.833274681823784
 20
1.831380101876556
 30
0.0
 11
-9.830401165423925
 21
1.743596414776556
 31
0.0
  0
LINE
  5
3AF
330
2
100
AcDbEntity
  8
0
100
AcDbLine
 10
-9.830401165423925
 20
1.743596414776556
 30
0.0
 11
-9.829516525574494
 21
1.377328618174586
 31
0.0
  0
LINE
  5
400
330
2
100
AcDbEntity
  8
0
100
AcDbLine
 10
-9.017016525574487
 20
0.0729999999999734
 30
0.0
 11
-9.424895575164808
 21
0.0729999999999734
 31
0.0
  0
LINE
  5
401
330
2
100
AcDbEntity
  8
0
100
AcDbLine
 10
-9.610766525574487
 20
0.0729999999999734
 30
0.0
 11
-10.42408105036963
 21
0.0729999999999734
 31
0.0
  0
LINE
  5
402
330
2
100
AcDbEntity
  8
0
100
AcDbLine
 10
-10.60995200077931
 20
0.0729999999999734
 30
0.0
 11
-11.01701652557449
 21
0.0729999999999734
 31
0.0
  0
LINE
  5
403
330
2
100
AcDbEntity
  8
0
100
AcDbLine
 10
-9.017016525574487
 20
0.1229999999999777
 30
0.0
 11
-9.017016525574487
 21
0.0729999999999734
 31
0.0
  0
LINE
  5
404
330
2
100
AcDbEntity
  8
0
  6
Continuous
100
AcDbLine
 10
-9.017016525574487
 20
0.1229999999999777
 30
0.0
 11
-9.102370201535027
 21
0.1229999999999795
 31
0.0
  0
ARC
  5
405
330
2
100
AcDbEntity
  8
0
100
AcDbCircle
 10
-9.017016525574352
 20
0.1179999999999325
 30
0.0
 40
0.0855
100
AcDbArc
 50
90.0
 51
211.7568638592875
  0
LINE
  5
406
330
2
100
AcDbEntity
  8
0
  6
Continuous
100
AcDbLine
 10
-10.9316628496139
 20
0.1229999999999706
 30
0.0
 11
-11.01701652557449
 21
0.1229999999999724
 31
0.0
  0
ARC
  5
407
330
2
100
AcDbEntity
  8
0
100
AcDbCircle
 10
-11.01701652557458
 20
0.1179999999999325
 30
0.0
 40
0.0855
100
AcDbArc
 50
328.2431361407129
 51
90.0
  0
POINT
  5
408
330
2
100
AcDbEntity
  8
0
  6
ByBlock
100
AcDbPoint
 10
-11.01701652557449
 20
0.1229999999999724
 30
0.0
 50
180.0
  0
POINT
  5
409
330
2
100
AcDbEntity
  8
0
  6
ByBlock
100
AcDbPoint
 10
-11.01701652557449
 20
0.1229999999999724
 30
0.0
 50
180.0
  0
POINT
  5
40A
330
2
100
AcDbEntity
  8
0
  6
ByBlock
100
AcDbPoint
 10
-11.01701652557449
 20
0.1229999999999724
 30
0.0
 50
180.0
  0
POINT
  5
40B
330
2
100
AcDbEntity
  8
0
  6
ByBlock
100
AcDbPoint
 10
-11.01701652557449
 20
0.1229999999999724
 30
0.0
 50
180.0
  0
LINE
  5
40C
330
2
100
AcDbEntity
  8
0
100
AcDbLine
 10
-11.01701652557449
 20
0.1229999999999724
 30
0.0
 11
-11.01701652557449
 21
0.0729999999999734
 31
0.0
  0
LINE
  5
40D
330
2
100
AcDbEntity
  8
0
  6
HIDDEN
100
AcDbLine
 10
-10.9316628496139
 20
0.1229999999999706
 30
0.0
 11
-9.102370201535027
 21
0.1229999999999795
 31
0.0
  0
ARC
  5
40E
330
2
100
AcDbEntity
  8
0
100
AcDbCircle
 10
-10.51701652557447
 20
0.0853312589969534
 30
0.0
 40
0.09375
100
AcDbArc
 50
180.0
 51
0.0
  0
ARC
  5
40F
330
2
100
AcDbEntity
  8
0
100
AcDbCircle
 10
-9.517831050369647
 20
0.0853312589969534
 30
0.0
 40
0.09375
100
AcDbArc
 50
180.0
 51
0.0
  0
LINE
  5
410
330
2
100
AcDbEntity
  8
0
100
AcDbLine
 10
10.74928769339535
 20
0.0729999999999734
 30
0.0
 11
11.15716674298567
 21
0.0729999999999734
 31
0.0
  0
LINE
  5
411
330
2
100
AcDbEntity
  8
0
100
AcDbLine
 10
11.34303769339535
 20
0.0729999999999734
 30
0.0
 11
12.15635221819048
 21
0.0729999999999734
 31
0.0
  0
LINE
  5
412
330
2
100
AcDbEntity
  8
0
100
AcDbLine
 10
12.34222316860016
 20
0.0729999999999734
 30
0.0
 11
12.74928769339535
 21
0.0729999999999734
 31
0.0
  0
LINE
  5
413
330
2
100
AcDbEntity
  8
0
100
AcDbLine
 10
10.74928769339535
 20
0.1229999999999777
 30
0.0
 11
10.74928769339535
 21
0.0729999999999734
 31
0.0
  0
LINE
  5
414
330
2
100
AcDbEntity
  8
0
  6
Continuous
100
AcDbLine
 10
10.74928769339535
 20
0.1229999999999777
 30
0.0
 11
10.83464136935589
 21
0.1229999999999795
 31
0.0
  0
ARC
  5
415
330
2
100
AcDbEntity
  8
0
100
AcDbCircle
 10
10.74928769339521
 20
0.1179999999999325
 30
0.0
 40
0.0855
100
AcDbArc
 50
328.2431361407125
 51
90.0
  0
LINE
  5
416
330
2
100
AcDbEntity
  8
0
  6
Continuous
100
AcDbLine
 10
12.66393401743476
 20
0.1229999999999706
 30
0.0
 11
12.74928769339535
 21
0.1229999999999724
 31
0.0
  0
ARC
  5
417
330
2
100
AcDbEntity
  8
0
100
AcDbCircle
 10
12.74928769339544
 20
0.1179999999999325
 30
0.0
 40
0.0855
100
AcDbArc
 50
90.0
 51
211.7568638592871
  0
POINT
  5
418
330
2
100
AcDbEntity
  8
0
  6
ByBlock
100
AcDbPoint
 10
12.74928769339535
 20
0.1229999999999724
 30
0.0
 50
180.0
  0
POINT
  5
419
330
2
100
AcDbEntity
  8
0
  6
ByBlock
100
AcDbPoint
 10
12.74928769339535
 20
0.1229999999999724
 30
0.0
 50
180.0
  0
POINT
  5
41A
330
2
100
AcDbEntity
  8
0
  6
ByBlock
100
AcDbPoint
 10
12.74928769339535
 20
0.1229999999999724
 30
0.0
 50
180.0
  0
POINT
  5
41B
330
2
100
AcDbEntity
  8
0
  6
ByBlock
100
AcDbPoint
 10
12.74928769339535
 20
0.1229999999999724
 30
0.0
 50
180.0
  0
LINE
  5
41C
330
2
100
AcDbEntity
  8
0
100
AcDbLine
 10
12.74928769339535
 20
0.1229999999999724
 30
0.0
 11
12.74928769339535
 21
0.0729999999999734
 31
0.0
  0
LINE
  5
41D
330
2
100
AcDbEntity
  8
0
  6
HIDDEN
100
AcDbLine
 10
12.66393401743476
 20
0.1229999999999706
 30
0.0
 11
10.83464136935589
 21
0.1229999999999795
 31
0.0
  0
ARC
  5
41E
330
2
100
AcDbEntity
  8
0
100
AcDbCircle
 10
12.24928769339532
 20
0.0853312589969534
 30
0.0
 40
0.09375
100
AcDbArc
 50
180.0
 51
0.000000000000007
  0
ARC
  5
41F
330
2
100
AcDbEntity
  8
0
100
AcDbCircle
 10
11.25010221819051
 20
0.0853312589969534
 30
0.0
 40
0.09375
100
AcDbArc
 50
180.0
 51
0.000000000000007
  0
LINE
  5
420
330
2
100
AcDbEntity
  8
0
  6
HIDDEN
100
AcDbLine
 10
-1.899225413175458
 20
18.91798413167575
 30
0.0
 11
-1.524225413175437
 21
18.91798413167575
 31
0.0
  0
LINE
  5
421
330
2
100
AcDbEntity
  8
0
  6
HIDDEN
100
AcDbLine
 10
1.524225413175444
 20
18.91798413167575
 30
0.0
 11
1.899225413175465
 21
18.91798413167575
 31
0.0
  0
LINE
  5
422
330
2
100
AcDbEntity
  8
0
  6
HIDDEN
100
AcDbLine
 10
-1.362499999999997
 20
14.03999999999998
 30
0.0
 11
-1.737500000000019
 21
14.03999999999998
 31
0.0
  0
LINE
  5
423
330
2
100
AcDbEntity
  8
0
  6
HIDDEN
100
AcDbLine
 10
1.362500000000004
 20
14.03999999999998
 30
0.0
 11
1.737500000000011
 21
14.03999999999999
 31
0.0
  0
ENDSEC
  0
SECTION
  2
OBJECTS
  0
DICTIONARY
  5
9
330
0
100
AcDbDictionary
281
     1
  3
ACAD_COLOR
350
3B3
  3
ACAD_GROUP
350
24
  3
ACAD_LAYOUT
350
D
  3
ACAD_MATERIAL
350
3B2
  3
ACAD_MLINESTYLE
350
25
  3
ACAD_PLOTSETTINGS
350
26
  3
ACAD_PLOTSTYLENAME
350
8
  3
ACAD_TABLESTYLE
350
3B4
  3
ACDBHEADERROUNDTRIPXREC
350
43A
  3
AcDbVariableDictionary
350
1CC
  0
DICTIONARY
  5
3B3
102
{ACAD_REACTORS
330
9
102
}
330
9
100
AcDbDictionary
281
     1
  0
DICTIONARY
  5
24
102
{ACAD_REACTORS
330
9
102
}
330
9
100
AcDbDictionary
281
     1
  0
DICTIONARY
  5
D
102
{ACAD_REACTORS
330
9
102
}
330
9
100
AcDbDictionary
281
     1
  3
Layout1
350
13
  3
Model
350
C
  0
DICTIONARY
  5
3B2
102
{ACAD_REACTORS
330
9
102
}
330
9
100
AcDbDictionary
281
     1
  0
DICTIONARY
  5
25
102
{ACAD_REACTORS
330
9
102
}
330
9
100
AcDbDictionary
281
     1
  3
STANDARD
350
28
  0
DICTIONARY
  5
26
102
{ACAD_REACTORS
330
9
102
}
330
9
100
AcDbDictionary
281
     1
  0
ACDBDICTIONARYWDFLT
  5
8
102
{ACAD_REACTORS
330
9
102
}
330
9
100
AcDbDictionary
281
     1
  3
Normal
350
7
100
AcDbDictionaryWithDefault
340
7
  0
DICTIONARY
  5
3B4
102
{ACAD_REACTORS
330
9
102
}
330
9
100
AcDbDictionary
281
     1
  3
Standard
350
3B5
  0
DICTIONARY
  5
43A
102
{ACAD_REACTORS
330
9
102
}
330
9
100
AcDbDictionary
281
     1
  3
COLORDICT
350
43B
  3
MATERIALDICT
350
43C
  0
DICTIONARY
  5
1CC
102
{ACAD_REACTORS
330
9
102
}
330
9
100
AcDbDictionary
281
     1
  3
CTABLESTYLE
350
3BE
  3
HIDETEXT
350
439
  0
LAYOUT
  5
13
102
{ACAD_REACTORS
330
D
102
}
102
{ACAD_XDICTIONARY
360
43D
102
}
330
D
100
AcDbPlotSettings
  1

  2
HP LaserJet 2100 Series PS
  4

  6

 40
0.0
 41
0.0
 42
0.0
 43
0.0
 44
0.0
 45
0.0
 46
0.0
 47
0.0
 48
0.0
 49
0.0
140
0.0
141
0.0
142
1.0
143
1.0
 70
   688
 72
     0
 73
     0
 74
     5
  7

 75
    16
147
1.0
148
0.0
149
0.0
100
AcDbLayout
  1
Layout1
 70
     0
 71
     1
 10
0.0
 20
0.0
 11
12.0
 21
9.0
 12
0.0
 22
0.0
 32
0.0
 14
1.000000000000000E+20
 24
1.000000000000000E+20
 34
1.000000000000000E+20
 15
-1.000000000000000E+20
 25
-1.000000000000000E+20
 35
-1.000000000000000E+20
146
0.0
 13
0.0
 23
0.0
 33
0.0
 16
1.0
 26
0.0
 36
0.0
 17
0.0
 27
1.0
 37
0.0
 76
     0
330
E
  0
LAYOUT
  5
C
102
{ACAD_REACTORS
330
D
102
}
102
{ACAD_XDICTIONARY
360
43F
102
}
330
D
100
AcDbPlotSettings
  1

  2
HP LaserJet 2100 Series PS
  4
Letter
  6

 40
5.365749835968018
 41
5.386905193328857
 42
5.386917114257813
 43
5.365753173828125
 44
215.8999938964844
 45
279.3999938964844
 46
0.0
 47
0.0
 48
0.0
 49
0.0
140
0.0
141
0.0
142
1.0
143
1.0
 70
 11952
 72
     0
 73
     1
 74
     0
  7

 75
     0
147
1.0
148
-109.2120479562036
149
4.761312409500627
100
AcDbLayout
  1
Model
 70
     1
 71
     0
 10
0.0
 20
0.0
 11
12.0
 21
9.0
 12
0.0
 22
0.0
 32
0.0
 14
0.0
 24
0.0
 34
0.0
 15
0.0
 25
0.0
 35
0.0
146
0.0
 13
0.0
 23
0.0
 33
0.0
 16
1.0
 26
0.0
 36
0.0
 17
0.0
 27
1.0
 37
0.0
 76
     0
330
2
  0
MLINESTYLE
  5
28
102
{ACAD_REACTORS
330
25
102
}
330
25
100
AcDbMlineStyle
  2
STANDARD
 70
     0
  3

 62
   256
 51
90.0
 52
90.0
 71
     2
 49
0.5
 62
   256
  6
BYLAYER
 49
-0.5
 62
   256
  6
BYLAYER
  0
ACDBPLACEHOLDER
  5
7
102
{ACAD_REACTORS
330
8
102
}
330
8
  0
ACAD_PROXY_OBJECT
  5
3B5
102
{ACAD_REACTORS
330
3B4
102
}
330
3B4
100
AcDbProxyObject
 90
      499
 91
      561
 95
   983063
 70
     0
 93
     1841
310
4214DD185B99185C9928B81E85EB51B8AE3F2E07A17AD46E2B8FC02B5E8DC0F42B1CFD028000000C1008070000C3001FDFF8000000C1003FBFF000000182007F7FE00000030400FEFFC00000060801FDFF8000000C1003FBFF00000018200000000000000681FA0B0000001820100E000186003FBFF000000182007F7FE000
310
00030400FEFFC00000060801FDFF8000000C1003FBFF000000182007F7FE000000304000AD7A3703D0AC73F4160000003040201C00030C007F7FE00000030400FEFFC00000060801FDFF8000000C1003FBFF000000182007F7FE00000030400FEFFC000000608000
340
16
340
16
340
16
 94
        0
  0
XRECORD
  5
43B
102
{ACAD_REACTORS
330
43A
102
}
330
43A
100
AcDbXrecord
340
3B3
  0
XRECORD
  5
43C
102
{ACAD_REACTORS
330
43A
102
}
330
43A
100
AcDbXrecord
340
3B2
  0
DICTIONARYVAR
  5
3BE
102
{ACAD_REACTORS
330
1CC
102
}
330
1CC
100
DictionaryVariables
280
     0
  1
STANDARD
  0
DICTIONARYVAR
  5
439
102
{ACAD_REACTORS
330
1CC
102
}
330
1CC
100
DictionaryVariables
280
     0
  1
1
  0
DICTIONARY
  5
43D
330
13
100
AcDbDictionary
280
     1
281
     1
  3
ACAD_XREC_ROUNDTRIP
360
43E
  0
DICTIONARY
  5
43F
330
C
100
AcDbDictionary
280
     1
281
     1
  3
ACAD_XREC_ROUNDTRIP
360
440
  0
XRECORD
  5
43E
102
{ACAD_REACTORS
330
43D
102
}
330
43D
100
AcDbXrecord
102
SHADEPLOT
 70
     0
102
SHADEPLOTRESLEVEL
 70
     2
102
SHADEPLOTCUSTOMDPI
 70
   300
  0
XRECORD
  5
440
102
{ACAD_REACTORS
330
43F
102
}
330
43F
100
AcDbXrecord
102
SHADEPLOT
 70
     0
102
SHADEPLOTRESLEVEL
 70
     2
102
SHADEPLOTCUSTOMDPI
 70
   300
  0
ENDSEC
  0
EOF
